  0
SECTION
  2
HEADER
  9
$ACADVER
  1
AC1009
  9
$INSBASE
 10
0.0
 20
0.0
 30
0.0
  9
$EXTMIN
 10
0.0
 20
-2.960436562073669
 30
0.0
  9
$EXTMAX
 10
142.5751918268198
 20
112.2139071409329
 30
0.0
  9
$LIMMIN
 10
0.0
 20
0.0
  9
$LIMMAX
 10
375.0
 20
278.0
  9
$ORTHOMODE
 70
     1
  9
$REGENMODE
 70
     1
  9
$FILLMODE
 70
     1
  9
$QTEXTMODE
 70
     0
  9
$MIRRTEXT
 70
     0
  9
$DRAGMODE
 70
     2
  9
$LTSCALE
 40
10.0
  9
$OSMODE
 70
  3071
  9
$ATTMODE
 70
     1
  9
$TEXTSIZE
 40
0.2
  9
$TRACEWID
 40
0.05
  9
$TEXTSTYLE
  7
STANDARD
  9
$CLAYER
  8
0
  9
$CELTYPE
  6
BYLAYER
  9
$CECOLOR
 62
   256
  9
$DIMSCALE
 40
1.0
  9
$DIMASZ
 40
3.0
  9
$DIMEXO
 40
1.0
  9
$DIMDLI
 40
6.0
  9
$DIMRND
 40
0.0
  9
$DIMDLE
 40
0.0
  9
$DIMEXE
 40
1.0
  9
$DIMTP
 40
495.0
  9
$DIMTM
 40
0.0
  9
$DIMTXT
 40
3.0
  9
$DIMCEN
 40
0.0
  9
$DIMTSZ
 40
0.0
  9
$DIMTOL
 70
     0
  9
$DIMLIM
 70
     0
  9
$DIMTIH
 70
     0
  9
$DIMTOH
 70
     0
  9
$DIMSE1
 70
     0
  9
$DIMSE2
 70
     0
  9
$DIMTAD
 70
     1
  9
$DIMZIN
 70
     0
  9
$DIMBLK
  1

  9
$DIMASO
 70
     0
  9
$DIMSHO
 70
     0
  9
$DIMPOST
  1

  9
$DIMAPOST
  1

  9
$DIMALT
 70
     0
  9
$DIMALTD
 70
     2
  9
$DIMALTF
 40
25.399999999999999
  9
$DIMLFAC
 40
1.0
  9
$DIMTOFL
 70
     1
  9
$DIMTVP
 40
0.0
  9
$DIMTIX
 70
     1
  9
$DIMSOXD
 70
     0
  9
$DIMSAH
 70
     0
  9
$DIMBLK1
  1

  9
$DIMBLK2
  1

  9
$DIMSTYLE
  2
STANDARD
  9
$DIMCLRD
 70
     0
  9
$DIMCLRE
 70
     0
  9
$DIMCLRT
 70
     4
  9
$DIMTFAC
 40
1.0
  9
$DIMGAP
 40
1.0
  9
$LUNITS
 70
     2
  9
$LUPREC
 70
     4
  9
$SKETCHINC
 40
0.1
  9
$FILLETRAD
 40
0.0
  9
$AUNITS
 70
     0
  9
$AUPREC
 70
     0
  9
$MENU
  1
C:\R13\WIN\SUPPORT\ACAD-I
  9
$ELEVATION
 40
0.0
  9
$PELEVATION
 40
0.0
  9
$THICKNESS
 40
0.0
  9
$LIMCHECK
 70
     0
  9
$BLIPMODE
 70
     0
  9
$CHAMFERA
 40
0.0
  9
$CHAMFERB
 40
0.0
  9
$SKPOLY
 70
     0
  9
$TDCREATE
 40
2450834.4199027782
  9
$TDUPDATE
 40
2456597.5469529978
  9
$TDINDWG
 40
0.0306653241
  9
$TDUSRTIMER
 40
0.0306653241
  9
$USRTIMER
 70
     1
  9
$ANGBASE
 50
0.0
  9
$ANGDIR
 70
     0
  9
$PDMODE
 70
     0
  9
$PDSIZE
 40
0.0
  9
$PLINEWID
 40
0.0
  9
$COORDS
 70
     1
  9
$SPLFRAME
 70
     0
  9
$SPLINETYPE
 70
     6
  9
$SPLINESEGS
 70
     8
  9
$ATTDIA
 70
     0
  9
$ATTREQ
 70
     1
  9
$HANDLING
 70
     1
  9
$HANDSEED
  5
732
  9
$SURFTAB1
 70
     6
  9
$SURFTAB2
 70
     6
  9
$SURFTYPE
 70
     6
  9
$SURFU
 70
     6
  9
$SURFV
 70
     6
  9
$UCSNAME
  2

  9
$UCSORG
 10
0.0
 20
0.0
 30
0.0
  9
$UCSXDIR
 10
1.0
 20
0.0
 30
0.0
  9
$UCSYDIR
 10
0.0
 20
1.0
 30
0.0
  9
$PUCSNAME
  2

  9
$PUCSORG
 10
0.0
 20
0.0
 30
0.0
  9
$PUCSXDIR
 10
1.0
 20
0.0
 30
0.0
  9
$PUCSYDIR
 10
0.0
 20
1.0
 30
0.0
  9
$USERI1
 70
     4
  9
$USERI2
 70
     1
  9
$USERI3
 70
     0
  9
$USERI4
 70
     0
  9
$USERI5
 70
     0
  9
$USERR1
 40
1.0
  9
$USERR2
 40
3.0
  9
$USERR3
 40
3.0
  9
$USERR4
 40
3.0
  9
$USERR5
 40
10.0
  9
$WORLDVIEW
 70
     1
  9
$SHADEDGE
 70
     3
  9
$SHADEDIF
 70
    70
  9
$TILEMODE
 70
     1
  9
$MAXACTVP
 70
    16
  9
$PLIMCHECK
 70
     0
  9
$PEXTMIN
 10
1.0000000000000000E+020
 20
1.0000000000000000E+020
 30
1.0000000000000000E+020
  9
$PEXTMAX
 10
-1.0000000000000000E+020
 20
-1.0000000000000000E+020
 30
-1.0000000000000000E+020
  9
$PLIMMIN
 10
0.0
 20
0.0
  9
$PLIMMAX
 10
12.0
 20
9.0
  9
$UNITMODE
 70
     0
  9
$VISRETAIN
 70
     0
  9
$PLINEGEN
 70
     0
  9
$PSLTSCALE
 70
     0
  0
ENDSEC
  0
SECTION
  2
TABLES
  0
TABLE
  2
VPORT
 70
     1
  0
VPORT
  2
*ACTIVE
 70
     0
 10
0.0
 20
0.0
 11
1.0
 21
1.0
 12
187.4942783906524
 22
167.7204668657281
 13
0.0
 23
0.0
 14
10.0
 24
10.0
 15
10.0
 25
10.0
 16
0.0
 26
0.0
 36
1.0
 17
0.0
 27
0.0
 37
0.0
 40
344.62625130655709
 41
1.9089595375722539
 42
50.0
 43
0.0
 44
0.0
 50
0.0
 51
0.0
 71
     0
 72
   100
 73
     1
 74
     0
 75
     0
 76
     0
 77
     0
 78
     0
  0
ENDTAB
  0
TABLE
  2
LTYPE
 70
     3
  0
LTYPE
  2
CONTINUOUS
 70
     0
  3
Solid Line
 72
    65
 73
     0
 40
0.0
  0
LTYPE
  2
CENTER
 70
     0
  3
____ _ ____ _ ____ _ ____ _ ____ _ ____ _ ____
 72
    65
 73
     4
 40
2.0
 49
1.25
 49
-0.25
 49
0.25
 49
-0.25
  0
LTYPE
  2
PHANTOM2
 70
     0
  3
___ _ _ ___ _ _ ___ _ _ ___ _ _
 72
    65
 73
     6
 40
1.25
 49
0.625
 49
-0.125
 49
0.125
 49
-0.125
 49
0.125
 49
-0.125
  0
ENDTAB
  0
TABLE
  2
LAYER
 70
     2
  0
LAYER
  2
0
 70
     0
 62
     7
  6
CONTINUOUS
  0
LAYER
  2
1
 70
     0
 62
     1
  6
CENTER
  0
ENDTAB
  0
TABLE
  2
STYLE
 70
     2
  0
STYLE
  2
STANDARD
 70
     0
 40
0.0
 41
1.0
 50
0.0
 71
     0
 42
0.2
  3
SIMPLEX
  4
BIGFONT
  0
STYLE
  2
STANDARD1
 70
     0
 40
0.0
 41
1.0
 50
0.0
 71
     0
 42
3.0
  3
txt
  4

  0
ENDTAB
  0
TABLE
  2
VIEW
 70
     0
  0
ENDTAB
  0
TABLE
  2
UCS
 70
     0
  0
ENDTAB
  0
TABLE
  2
APPID
 70
    33
  0
APPID
  2
ACAD
 70
     0
  0
APPID
  2
GENIUS_GENOBJ_13
 70
     0
  0
APPID
  2
GENIUS_GENODEF_13
 70
     0
  0
APPID
  2
GENIUS_GENOENT_13
 70
     0
  0
APPID
  2
GENIUS_GENOLIS_13
 70
     0
  0
APPID
  2
GENIUS_GENOREF_13
 70
     0
  0
APPID
  2
GENIUS_GENOBJ-N-TIT_13
 70
     0
  0
APPID
  2
GENIUS_GENTITLE_13
 70
     0
  0
APPID
  2
GENIUS_GENZVEED_13
 70
     0
  0
APPID
  2
GENIUS_GENOBJ-N-FIL_13
 70
     0
  0
APPID
  2
GENIUS_GENOBJ-N-CRS_13
 70
     0
  0
APPID
  2
GENIUS_GEFINERT_13
 70
     0
  0
APPID
  2
GENIUS_GENOBJ-F-INER_13
 70
     0
  0
APPID
  2
GENIUS_GENOBJ-N-ZOO_13
 70
     0
  0
APPID
  2
GENIUS_GENZOO_13
 70
     0
  0
APPID
  2
GENIUS_GENOBJ-F-TOL_13
 70
     0
  0
APPID
  2
GENIUS_GENOBJ-N-RSSYM_13
 70
     0
  0
APPID
  2
GENIUS_GENSYMENT_13
 70
     0
  0
APPID
  2
GENIUS_GENBH_13
 70
     0
  0
APPID
  2
GENIUS_GENOBJ-NBEHI-BHF_13
 70
     0
  0
APPID
  2
GENIUS_GENOBJ-NBEHI-BHB_13
 70
     0
  0
APPID
  2
GENIUS_GENOBJ-F-PART_13
 70
     0
  0
APPID
  2
GENIUS_GEFSTDP_13
 70
     0
  0
APPID
  2
GENIUS_GENOBJ-N-LEADER_13
 70
     0
  0
APPID
  2
GENIUS_GENOBJ-N-REV_13
 70
     0
  0
APPID
  2
GENIUS_GENCFG_13
 70
     0
  0
APPID
  2
GENIUS_GENCFG0_13
 70
     0
  0
APPID
  2
GENIUS_GENCFG1_13
 70
     0
  0
APPID
  2
GENIUS_GENCFG2_13
 70
     0
  0
APPID
  2
GENIUS_GENCFG3_13
 70
     0
  0
APPID
  2
GENIUS_GEVCFG0_13
 70
     0
  0
APPID
  2
ACAD_MLEADERVER
 70
     0
  0
APPID
  2
ACAD_NAV_VCDISPLAY
 70
     0
  0
ENDTAB
  0
TABLE
  2
DIMSTYLE
 70
     1
  0
DIMSTYLE
  2
STANDARD
 70
     0
  3

  4

  5

  6

  7

 40
1.0
 41
0.18
 42
0.0625
 43
0.38
 44
0.18
 45
0.0
 46
0.0
 47
0.0
 48
0.0
140
0.18
141
0.09
142
0.0
143
25.399999999999999
144
1.0
145
0.0
146
1.0
147
0.09
 71
     0
 72
     0
 73
     1
 74
     1
 75
     0
 76
     0
 77
     0
 78
     0
170
     0
171
     2
172
     0
173
     0
174
     0
175
     0
176
     0
177
     0
178
     0
  0
ENDTAB
  0
ENDSEC
  0
SECTION
  2
BLOCKS
  0
BLOCK
  8
0
  2
$MODEL_SPACE
 70
     0
 10
0.0
 20
0.0
 30
0.0
  3
$MODEL_SPACE
  1

  0
ENDBLK
  5
5F3
  8
0
  0
BLOCK
 67
     1
  8
0
  2
$PAPER_SPACE
 70
     0
 10
0.0
 20
0.0
 30
0.0
  3
$PAPER_SPACE
  1

  0
ENDBLK
  5
5F1
 67
     1
  8
0
  0
BLOCK
  8
0
  2
STDGX5
 70
     0
 10
0.0
 20
0.0
 30
0.0
  3
STDGX5
  1

  0
ENDBLK
  5
4F
  8
0
  0
ENDSEC
  0
SECTION
  2
ENTITIES
  0
INSERT
  5
DE
  8
0
  2
STDGX5
 10
0.0
 20
0.0
 30
0.0
  0
INSERT
  5
DF
  8
0
  2
STDGX5
 10
0.0
 20
0.0
 30
0.0
  0
INSERT
  5
15C
  8
0
  2
STDGX5
 10
275.0
 20
0.0
 30
0.0
  0
INSERT
  5
15D
  8
0
  2
STDGX5
 10
275.0
 20
0.0
 30
0.0
  0
INSERT
  5
314
  8
0
  2
STDGX5
 10
0.0
 20
0.0
 30
0.0
  0
INSERT
  5
315
  8
0
  2
STDGX5
 10
0.0
 20
0.0
 30
0.0
  0
INSERT
  5
316
  8
0
  2
STDGX5
 10
275.0
 20
0.0
 30
0.0
  0
INSERT
  5
317
  8
0
  2
STDGX5
 10
275.0
 20
0.0
 30
0.0
  0
INSERT
  5
4EF
  8
0
  2
STDGX5
 10
0.0
 20
0.0
 30
0.0
  0
INSERT
  5
4F0
  8
0
  2
STDGX5
 10
0.0
 20
0.0
 30
0.0
  0
INSERT
  5
4F1
  8
0
  2
STDGX5
 10
275.0
 20
0.0
 30
0.0
  0
INSERT
  5
4F2
  8
0
  2
STDGX5
 10
275.0
 20
0.0
 30
0.0
  0
LINE
  5
502
  8
0
 10
60.075191826817097
 20
88.013907140932474
 30
0.0
 11
60.075191826817097
 21
88.713907140930189
 31
0.0
  0
LINE
  5
503
  8
0
 10
55.075191826817097
 20
88.713907140930189
 30
0.0
 11
55.075191826817097
 21
88.013907140932901
 31
0.0
  0
ARC
  5
504
  8
0
 10
49.575191826818923
 20
89.213907140932903
 30
0.0
 40
2.0
 50
180.0
 51
270.0
  0
ARC
  5
505
  8
0
 10
65.575191826819378
 20
89.213907140932477
 30
0.0
 40
2.0
 50
270.0
 51
359.99999999999841
  0
LINE
  5
506
  8
0
 10
49.575191826818923
 20
87.213907140932918
 30
0.0
 11
54.275191826817121
 21
87.213907140932875
 31
0.0
  0
LINE
  5
507
  8
0
 10
65.575191826819378
 20
87.213907140932463
 30
0.0
 11
60.875191826817108
 21
87.213907140932463
 31
0.0
  0
ARC
  5
508
  8
0
 10
60.875191826817108
 20
88.013907140932474
 30
0.0
 40
0.8
 50
180.0
 51
270.0
1001
GENIUS_GENODEF_13
1002
{
1000
HIER
1070
     0
1002
}
1002
{
1000
MANEDIT
1070
     0
1002
}
1002
{
1000
NOSEL
1070
     0
1002
}
1002
{
1000
BEHIND
1070
     0
1002
}
1002
{
1000
REACTOR
1002
}
1001
GENIUS_GENOBJ-N-FIL_13
1002
{
1000
OWNER
1000
GEN
1002
}
  0
ARC
  5
509
  8
0
 10
54.275191826817121
 20
88.013907140932901
 30
0.0
 40
0.8
 50
270.0
 51
0.0
1001
GENIUS_GENODEF_13
1002
{
1000
HIER
1070
     0
1002
}
1002
{
1000
MANEDIT
1070
     0
1002
}
1002
{
1000
NOSEL
1070
     0
1002
}
1002
{
1000
BEHIND
1070
     0
1002
}
1002
{
1000
REACTOR
1002
}
1001
GENIUS_GENOBJ-N-FIL_13
1002
{
1000
OWNER
1000
GEN
1002
}
  0
ARC
  5
50A
  8
0
 10
50.207603440724483
 20
102.13149552702269
 30
0.0
 40
0.8324116139073831
 50
90.000000000015675
 51
180.0001980352811
  0
ARC
  5
50B
  8
0
 10
50.207603440724483
 20
102.13149552702269
 30
0.0
 40
0.8324116139073831
 50
90.000000000015675
 51
180.0001980352811
  0
LINE
  5
50C
  8
0
 10
49.575191826819832
 20
107.2139071409329
 30
0.0
 11
65.575191826819832
 21
107.2139071409329
 31
0.0
  0
ARC
  5
50D
  8
0
 10
50.207603440724483
 20
92.296318754837614
 30
0.0
 40
0.8324116139073831
 50
179.9998019647189
 51
269.99999999998431
  0
ARC
  5
50E
  8
0
 10
50.207603440724483
 20
92.296318754837614
 30
0.0
 40
0.8324116139073831
 50
179.9998019647189
 51
269.99999999998431
  0
ARC
  5
50F
  8
0
 10
50.92519182681712
 20
98.348474247675597
 30
0.0
 40
3.0
 50
0.0000000000000799
 51
45.0
  0
ARC
  5
510
  8
0
 10
50.92519182681712
 20
98.348474247675597
 30
0.0
 40
3.0
 50
0.0000000000000799
 51
45.0
  0
ARC
  5
511
  8
0
 10
64.225191826817195
 20
98.348474247675597
 30
0.0
 40
3.0
 50
135.0
 51
179.99999999999989
  0
ARC
  5
512
  8
0
 10
64.225191826817195
 20
98.348474247675597
 30
0.0
 40
3.0
 50
135.0
 51
179.99999999999989
  0
LINE
  5
513
  8
0
 10
65.775191826817263
 20
102.1314984041433
 30
0.0
 11
65.775191826817263
 21
100.0139071409301
 31
0.0
  0
LINE
  5
514
  8
0
 10
65.775191826817263
 20
102.1314984041433
 30
0.0
 11
65.775191826817263
 21
100.0139071409301
 31
0.0
  0
LINE
  5
515
  8
0
 10
67.575191826819832
 20
105.2139071409329
 30
0.0
 11
67.575191826819378
 21
89.213907140932477
 31
0.0
  0
ARC
  5
516
  8
0
 10
62.492780212909679
 20
89.846318754837554
 30
0.0
 40
0.8324116139073831
 50
269.99980196471893
 51
359.99999999998431
  0
ARC
  5
517
  8
0
 10
62.492780212909679
 20
89.846318754837554
 30
0.0
 40
0.8324116139073831
 50
269.99980196471893
 51
359.99999999998431
  0
LINE
  5
518
  8
0
 10
64.354178377298808
 20
91.707712796583962
 30
0.0
 11
62.103871483257542
 21
93.958019690625122
 31
0.0
  0
LINE
  5
519
  8
0
 10
64.354178377298808
 20
91.707712796583962
 30
0.0
 11
62.103871483257542
 21
93.958019690625122
 31
0.0
  0
LINE
  5
51A
  8
0
 10
63.081386171163331
 20
90.434920590448485
 30
0.0
 11
60.831079277122171
 21
92.685227484489872
 31
0.0
  0
LINE
  5
51B
  8
0
 10
63.081386171163331
 20
90.434920590448485
 30
0.0
 11
60.831079277122171
 21
92.685227484489872
 31
0.0
  0
LINE
  5
51C
  8
0
 10
65.775191826817263
 20
92.296315877717063
 30
0.0
 11
65.775191826817263
 21
94.413907140930235
 31
0.0
  0
LINE
  5
51D
  8
0
 10
65.775191826817263
 20
92.296315877717063
 30
0.0
 11
65.775191826817263
 21
94.413907140930235
 31
0.0
  0
ARC
  5
51E
  8
0
 10
62.492780212909679
 20
89.846318754837554
 30
0.0
 40
0.8324116139073831
 50
359.99999999998431
 51
44.99979934721194
  0
ARC
  5
51F
  8
0
 10
62.492780212909679
 20
89.846318754837554
 30
0.0
 40
0.8324116139073831
 50
359.99999999998431
 51
44.99979934721194
  0
ARC
  5
520
  8
0
 10
64.942780212909724
 20
92.296318754837614
 30
0.0
 40
0.8324116139073831
 50
225.0002006527881
 51
270.00000000001569
  0
ARC
  5
521
  8
0
 10
64.942780212909724
 20
92.296318754837614
 30
0.0
 40
0.8324116139073831
 50
225.0002006527881
 51
270.00000000001569
  0
ARC
  5
522
  8
0
 10
64.942780212909838
 20
92.296318754837614
 30
0.0
 40
0.8324116139073831
 50
270.00000000001569
 51
0.0001980352811337
  0
ARC
  5
523
  8
0
 10
64.942780212909838
 20
92.296318754837614
 30
0.0
 40
0.8324116139073831
 50
270.00000000001569
 51
0.0001980352811337
  0
LINE
  5
524
  8
0
 10
66.875191826819673
 20
99.413907140930121
 30
0.0
 11
66.87519182681956
 21
95.013907140930201
 31
0.0
  0
LINE
  5
525
  8
0
 10
66.075191826817104
 20
94.713907140930175
 30
0.0
 11
66.575191826819548
 21
94.713907140930175
 31
0.0
  0
ARC
  5
526
  8
0
 10
66.575191826819548
 20
95.013907140930201
 30
0.0
 40
0.3
 50
269.99999999999801
 51
359.99999999999841
1001
GENIUS_GENODEF_13
1002
{
1000
HIER
1070
     0
1002
}
1002
{
1000
MANEDIT
1070
     0
1002
}
1002
{
1000
NOSEL
1070
     0
1002
}
1002
{
1000
BEHIND
1070
     0
1002
}
1002
{
1000
REACTOR
1002
}
1001
GENIUS_GENOBJ-N-FIL_13
1002
{
1000
OWNER
1000
GEN
1002
}
  0
ARC
  5
527
  8
0
 10
66.075191826817104
 20
94.413907140930235
 30
0.0
 40
0.3
 50
90.0
 51
180.0
  0
ARC
  5
528
  8
0
 10
66.075191826817104
 20
94.413907140930235
 30
0.0
 40
0.3
 50
90.0
 51
180.0
  0
ARC
  5
529
  8
0
 10
66.075191826817104
 20
100.0139071409301
 30
0.0
 40
0.3
 50
180.0
 51
270.0
  0
ARC
  5
52A
  8
0
 10
66.075191826817104
 20
100.0139071409301
 30
0.0
 40
0.3
 50
180.0
 51
270.0
  0
LINE
  5
52B
  8
0
 10
66.075191826817104
 20
99.713907140930132
 30
0.0
 11
66.57519182681969
 21
99.713907140930132
 31
0.0
  0
ARC
  5
52C
  8
0
 10
66.575191826819662
 20
99.413907140930121
 30
0.0
 40
0.3
 50
359.99999999999841
 51
89.999999999997996
1001
GENIUS_GENODEF_13
1002
{
1000
HIER
1070
     0
1002
}
1002
{
1000
MANEDIT
1070
     0
1002
}
1002
{
1000
NOSEL
1070
     0
1002
}
1002
{
1000
BEHIND
1070
     0
1002
}
1002
{
1000
REACTOR
1002
}
1001
GENIUS_GENOBJ-N-FIL_13
1002
{
1000
OWNER
1000
GEN
1002
}
  0
ARC
  5
52D
  8
0
 10
50.92519182681712
 20
96.079340034184781
 30
0.0
 40
3.0
 50
315.0
 51
0.0
  0
ARC
  5
52E
  8
0
 10
50.92519182681712
 20
96.079340034184781
 30
0.0
 40
3.0
 50
315.0
 51
0.0
  0
ARC
  5
52F
  8
0
 10
64.225191826817195
 20
96.079340034184781
 30
0.0
 40
3.0
 50
180.0
 51
224.99999999999989
  0
ARC
  5
530
  8
0
 10
64.225191826817195
 20
96.079340034184781
 30
0.0
 40
3.0
 50
180.0
 51
224.99999999999989
  0
ARC
  5
531
  8
0
 10
56.440624720071703
 20
90.563907140930098
 30
0.0
 40
3.0
 50
90.000000000000071
 51
135.0
  0
ARC
  5
532
  8
0
 10
56.440624720071703
 20
90.563907140930098
 30
0.0
 40
3.0
 50
90.000000000000071
 51
135.0
  0
ARC
  5
533
  8
0
 10
60.375191826817172
 20
88.713907140930189
 30
0.0
 40
0.3
 50
90.0
 51
180.0
  0
ARC
  5
534
  8
0
 10
60.375191826817172
 20
88.713907140930189
 30
0.0
 40
0.3
 50
90.0
 51
180.0
  0
LINE
  5
535
  8
0
 10
60.075191826817097
 20
88.099493906863302
 30
0.0
 11
60.075191826817097
 21
88.713907140930189
 31
0.0
  0
LINE
  5
536
  8
0
 10
62.49278309003023
 20
89.013907140930144
 30
0.0
 11
60.375191826817051
 21
89.013907140930144
 31
0.0
  0
LINE
  5
537
  8
0
 10
62.49278309003023
 20
89.013907140930144
 30
0.0
 11
60.375191826817051
 21
89.013907140930144
 31
0.0
  0
ARC
  5
538
  8
0
 10
58.709758933562512
 20
90.563907140930098
 30
0.0
 40
3.0
 50
45.0
 51
89.999999999999915
  0
ARC
  5
539
  8
0
 10
58.709758933562512
 20
90.563907140930098
 30
0.0
 40
3.0
 50
45.0
 51
89.999999999999915
  0
LINE
  5
53A
  8
0
 10
56.440624720071703
 20
93.563907140930084
 30
0.0
 11
57.575191826817097
 21
93.563907140930084
 31
0.0
  0
LINE
  5
53B
  8
0
 10
58.709758933562512
 20
93.563907140930084
 30
0.0
 11
57.575191826817097
 21
93.563907140930084
 31
0.0
  0
LINE
  5
53C
  8
0
 10
58.709758933562512
 20
93.563907140930084
 30
0.0
 11
57.575191826817097
 21
93.563907140930084
 31
0.0
  0
LINE
  5
53D
  8
0
 10
56.440624720071703
 20
93.563907140930084
 30
0.0
 11
57.575191826817097
 21
93.563907140930084
 31
0.0
  0
LINE
  5
53E
  8
0
 10
52.068997482470877
 20
90.434920590448485
 30
0.0
 11
54.319304376512029
 21
92.685227484489872
 31
0.0
  0
LINE
  5
53F
  8
0
 10
52.068997482470877
 20
90.434920590448485
 30
0.0
 11
54.319304376512029
 21
92.685227484489872
 31
0.0
  0
ARC
  5
540
  8
0
 10
52.657603440724529
 20
89.846318754837554
 30
0.0
 40
0.8324116139073831
 50
180.0000000000156
 51
270.00019803528107
  0
ARC
  5
541
  8
0
 10
52.657603440724529
 20
89.846318754837554
 30
0.0
 40
0.8324116139073831
 50
180.0000000000156
 51
270.00019803528107
  0
ARC
  5
542
  8
0
 10
52.657603440724529
 20
89.846318754837554
 30
0.0
 40
0.8324116139073831
 50
135.00020065278801
 51
180.0000000000156
  0
ARC
  5
543
  8
0
 10
52.657603440724529
 20
89.846318754837554
 30
0.0
 40
0.8324116139073831
 50
135.00020065278801
 51
180.0000000000156
  0
ARC
  5
544
  8
0
 10
54.775191826817149
 20
88.713907140930189
 30
0.0
 40
0.3
 50
0.0
 51
90.0
  0
ARC
  5
545
  8
0
 10
54.775191826817149
 20
88.713907140930189
 30
0.0
 40
0.3
 50
0.0
 51
90.0
  0
LINE
  5
546
  8
0
 10
55.075191826817097
 20
88.713907140930189
 30
0.0
 11
55.075191826817097
 21
88.099493906863302
 31
0.0
  0
LINE
  5
547
  8
0
 10
52.657600563603978
 20
89.013907140930144
 30
0.0
 11
54.775191826817149
 21
89.013907140930144
 31
0.0
  0
LINE
  5
548
  8
0
 10
52.657600563603978
 20
89.013907140930144
 30
0.0
 11
54.775191826817149
 21
89.013907140930144
 31
0.0
  0
ARC
  5
549
  8
0
 10
50.207603440724597
 20
92.296318754837614
 30
0.0
 40
0.8324116139073831
 50
269.99999999998431
 51
314.99979934721199
  0
ARC
  5
54A
  8
0
 10
50.207603440724597
 20
92.296318754837614
 30
0.0
 40
0.8324116139073831
 50
269.99999999998431
 51
314.99979934721199
  0
LINE
  5
54B
  8
0
 10
50.796205276335513
 20
91.707712796583962
 30
0.0
 11
53.046512170376793
 21
93.958019690625235
 31
0.0
  0
LINE
  5
54C
  8
0
 10
50.796205276335513
 20
91.707712796583962
 30
0.0
 11
53.046512170376793
 21
93.958019690625235
 31
0.0
  0
CIRCLE
  5
54D
  8
0
 10
57.575191826819832
 20
97.213907140932918
 30
0.0
 40
2.149999999999999
  0
LINE
  5
54E
  8
0
 10
61.225191826817202
 20
98.348474247675597
 30
0.0
 11
61.225191826817202
 21
97.213907140930175
 31
0.0
  0
LINE
  5
54F
  8
0
 10
61.225191826817202
 20
98.348474247675597
 30
0.0
 11
61.225191826817202
 21
97.213907140930175
 31
0.0
  0
LINE
  5
550
  8
0
 10
61.225191826817202
 20
96.079340034184781
 30
0.0
 11
61.225191826817202
 21
97.213907140930175
 31
0.0
  0
LINE
  5
551
  8
0
 10
61.225191826817202
 20
96.079340034184781
 30
0.0
 11
61.225191826817202
 21
97.213907140930175
 31
0.0
  0
LINE
  5
552
  8
0
 10
53.925191826817127
 20
98.348474247675597
 30
0.0
 11
53.925191826817127
 21
97.213907140930175
 31
0.0
  0
LINE
  5
553
  8
0
 10
53.925191826817127
 20
98.348474247675597
 30
0.0
 11
53.925191826817127
 21
97.213907140930175
 31
0.0
  0
LINE
  5
554
  8
0
 10
53.925191826817127
 20
96.079340034184781
 30
0.0
 11
53.925191826817127
 21
97.213907140930175
 31
0.0
  0
LINE
  5
555
  8
0
 10
53.925191826817127
 20
96.079340034184781
 30
0.0
 11
53.925191826817127
 21
97.213907140930175
 31
0.0
  0
ARC
  5
556
  8
0
 10
62.492780212909679
 20
104.5814955270228
 30
0.0
 40
0.8324116139073831
 50
0.0000000000156675
 51
90.000198035281045
  0
ARC
  5
557
  8
0
 10
62.492780212909679
 20
104.5814955270228
 30
0.0
 40
0.8324116139073831
 50
0.0000000000156675
 51
90.000198035281045
  0
LINE
  5
558
  8
0
 10
63.081386171163331
 20
103.99289369141189
 30
0.0
 11
60.831079277122171
 21
101.74258679737051
 31
0.0
  0
LINE
  5
559
  8
0
 10
63.081386171163331
 20
103.99289369141189
 30
0.0
 11
60.831079277122171
 21
101.74258679737051
 31
0.0
  0
LINE
  5
55A
  8
0
 10
64.354178377298808
 20
102.7201014852764
 30
0.0
 11
62.103871483257542
 21
100.4697945912351
 31
0.0
  0
LINE
  5
55B
  8
0
 10
64.354178377298808
 20
102.7201014852764
 30
0.0
 11
62.103871483257542
 21
100.4697945912351
 31
0.0
  0
ARC
  5
55C
  8
0
 10
65.575191826819832
 20
105.2139071409329
 30
0.0
 40
2.0
 50
359.99999999999841
 51
90.0
  0
ARC
  5
55D
  8
0
 10
64.942780212909838
 20
102.13149552702269
 30
0.0
 40
0.8324116139073831
 50
359.99980196471893
 51
89.999999999984325
  0
ARC
  5
55E
  8
0
 10
64.942780212909838
 20
102.13149552702269
 30
0.0
 40
0.8324116139073831
 50
359.99980196471893
 51
89.999999999984325
  0
ARC
  5
55F
  8
0
 10
64.942780212909724
 20
102.13149552702269
 30
0.0
 40
0.8324116139073831
 50
89.999999999984325
 51
134.9997993472119
  0
ARC
  5
560
  8
0
 10
64.942780212909724
 20
102.13149552702269
 30
0.0
 40
0.8324116139073831
 50
89.999999999984325
 51
134.9997993472119
  0
ARC
  5
561
  8
0
 10
62.492780212909679
 20
104.5814955270228
 30
0.0
 40
0.8324116139073831
 50
315.00020065278818
 51
0.0000000000156675
  0
ARC
  5
562
  8
0
 10
62.492780212909679
 20
104.5814955270228
 30
0.0
 40
0.8324116139073831
 50
315.00020065278818
 51
0.0000000000156675
  0
ARC
  5
563
  8
0
 10
55.375191826822167
 20
106.2139071409329
 30
0.0
 40
0.3
 50
89.999999999999844
 51
180.0000000000486
1001
GENIUS_GENODEF_13
1002
{
1000
HIER
1070
     0
1002
}
1002
{
1000
MANEDIT
1070
     0
1002
}
1002
{
1000
NOSEL
1070
     0
1002
}
1002
{
1000
BEHIND
1070
     0
1002
}
1002
{
1000
REACTOR
1002
}
1001
GENIUS_GENOBJ-N-FIL_13
1002
{
1000
OWNER
1000
GEN
1002
}
  0
ARC
  5
564
  8
0
 10
59.77519182682255
 20
106.2139071409329
 30
0.0
 40
0.3
 50
0.0
 51
89.999999999999758
1001
GENIUS_GENODEF_13
1002
{
1000
HIER
1070
     0
1002
}
1002
{
1000
MANEDIT
1070
     0
1002
}
1002
{
1000
NOSEL
1070
     0
1002
}
1002
{
1000
BEHIND
1070
     0
1002
}
1002
{
1000
REACTOR
1002
}
1001
GENIUS_GENOBJ-N-FIL_13
1002
{
1000
OWNER
1000
GEN
1002
}
  0
ARC
  5
565
  8
0
 10
56.440624720071703
 20
103.86390714093029
 30
0.0
 40
3.0
 50
225.00000000000011
 51
270.0
  0
ARC
  5
566
  8
0
 10
56.440624720071703
 20
103.86390714093029
 30
0.0
 40
3.0
 50
225.00000000000011
 51
270.0
  0
LINE
  5
567
  8
0
 10
56.440624720071703
 20
100.86390714093019
 30
0.0
 11
57.575191826817097
 21
100.86390714093019
 31
0.0
  0
LINE
  5
568
  8
0
 10
58.709758933562512
 20
100.86390714093019
 30
0.0
 11
57.575191826817097
 21
100.86390714093019
 31
0.0
  0
LINE
  5
569
  8
0
 10
58.709758933562512
 20
100.86390714093019
 30
0.0
 11
57.575191826817097
 21
100.86390714093019
 31
0.0
  0
LINE
  5
56A
  8
0
 10
56.440624720071703
 20
100.86390714093019
 30
0.0
 11
57.575191826817097
 21
100.86390714093019
 31
0.0
  0
ARC
  5
56B
  8
0
 10
58.709758933562512
 20
103.86390714093029
 30
0.0
 40
3.0
 50
270.00000000000011
 51
315.00000000000011
  0
ARC
  5
56C
  8
0
 10
58.709758933562512
 20
103.86390714093029
 30
0.0
 40
3.0
 50
270.00000000000011
 51
315.00000000000011
  0
ARC
  5
56D
  8
0
 10
60.375191826822523
 20
105.7139071409302
 30
0.0
 40
0.3
 50
180.0
 51
270.0
  0
ARC
  5
56E
  8
0
 10
60.375191826822523
 20
105.7139071409302
 30
0.0
 40
0.3
 50
180.0
 51
270.0
  0
LINE
  5
56F
  8
0
 10
60.075191826822561
 20
105.7139071409303
 30
0.0
 11
60.075191826822561
 21
106.2139071409329
 31
0.0
  0
LINE
  5
570
  8
0
 10
62.49278309003023
 20
105.41390714093021
 30
0.0
 11
60.375191826817051
 21
105.41390714093021
 31
0.0
  0
LINE
  5
571
  8
0
 10
62.49278309003023
 20
105.41390714093021
 30
0.0
 11
60.375191826817051
 21
105.41390714093021
 31
0.0
  0
LINE
  5
572
  8
0
 10
52.068997482470877
 20
103.99289369141189
 30
0.0
 11
54.319304376512029
 21
101.74258679737051
 31
0.0
  0
LINE
  5
573
  8
0
 10
52.068997482470877
 20
103.99289369141189
 30
0.0
 11
54.319304376512029
 21
101.74258679737051
 31
0.0
  0
ARC
  5
574
  8
0
 10
50.207603440724597
 20
102.13149552702269
 30
0.0
 40
0.8324116139073831
 50
45.00020065278806
 51
90.000000000015675
  0
ARC
  5
575
  8
0
 10
50.207603440724597
 20
102.13149552702269
 30
0.0
 40
0.8324116139073831
 50
45.00020065278806
 51
90.000000000015675
  0
LINE
  5
576
  8
0
 10
50.796205276335513
 20
102.7201014852764
 30
0.0
 11
53.046512170376793
 21
100.4697945912352
 31
0.0
  0
LINE
  5
577
  8
0
 10
50.796205276335513
 20
102.7201014852764
 30
0.0
 11
53.046512170376793
 21
100.4697945912352
 31
0.0
  0
ARC
  5
578
  8
0
 10
52.657603440724529
 20
104.5814955270228
 30
0.0
 40
0.8324116139073831
 50
179.99999999998431
 51
224.9997993472119
  0
ARC
  5
579
  8
0
 10
52.657603440724529
 20
104.5814955270228
 30
0.0
 40
0.8324116139073831
 50
179.99999999998431
 51
224.9997993472119
  0
ARC
  5
57A
  8
0
 10
52.657603440724529
 20
104.5814955270228
 30
0.0
 40
0.8324116139073831
 50
89.999801964718856
 51
179.99999999998431
  0
ARC
  5
57B
  8
0
 10
52.657603440724529
 20
104.5814955270228
 30
0.0
 40
0.8324116139073831
 50
89.999801964718856
 51
179.99999999998431
  0
ARC
  5
57C
  8
0
 10
54.775191826822613
 20
105.7139071409302
 30
0.0
 40
0.3
 50
270.0
 51
0.0
  0
ARC
  5
57D
  8
0
 10
54.775191826822613
 20
105.7139071409302
 30
0.0
 40
0.3
 50
270.0
 51
0.0
  0
LINE
  5
57E
  8
0
 10
52.657600563603978
 20
105.41390714093021
 30
0.0
 11
54.775191826817149
 21
105.41390714093021
 31
0.0
  0
LINE
  5
57F
  8
0
 10
52.657600563603978
 20
105.41390714093021
 30
0.0
 11
54.775191826817149
 21
105.41390714093021
 31
0.0
  0
LINE
  5
580
  8
0
 10
55.075191826822163
 20
106.2139071409326
 30
0.0
 11
55.075191826822561
 21
105.7139071409303
 31
0.0
  0
LINE
  5
581
  8
0
 10
55.375191826822167
 20
106.5139071409328
 30
0.0
 11
59.77519182682255
 21
106.5139071409328
 31
0.0
  0
ARC
  5
582
  8
0
 10
48.375191826819837
 20
100.5139071409302
 30
0.0
 40
0.8
 50
180.0
 51
270.0
1001
GENIUS_GENODEF_13
1002
{
1000
HIER
1070
     0
1002
}
1002
{
1000
MANEDIT
1070
     0
1002
}
1002
{
1000
NOSEL
1070
     0
1002
}
1002
{
1000
BEHIND
1070
     0
1002
}
1002
{
1000
REACTOR
1002
}
1001
GENIUS_GENOBJ-N-FIL_13
1002
{
1000
OWNER
1000
GEN
1002
}
  0
LINE
  5
583
  8
0
 10
49.375191826817058
 20
102.1314984041433
 30
0.0
 11
49.375191826817058
 21
100.0139071409301
 31
0.0
  0
LINE
  5
584
  8
0
 10
49.375191826817058
 20
102.1314984041433
 30
0.0
 11
49.375191826817058
 21
100.0139071409301
 31
0.0
  0
ARC
  5
585
  8
0
 10
48.375191826818927
 20
93.913907140930178
 30
0.0
 40
0.8
 50
90.0
 51
180.0
1001
GENIUS_GENODEF_13
1002
{
1000
HIER
1070
     0
1002
}
1002
{
1000
MANEDIT
1070
     0
1002
}
1002
{
1000
NOSEL
1070
     0
1002
}
1002
{
1000
BEHIND
1070
     0
1002
}
1002
{
1000
REACTOR
1002
}
1001
GENIUS_GENOBJ-N-FIL_13
1002
{
1000
OWNER
1000
GEN
1002
}
  0
LINE
  5
586
  8
0
 10
49.375191826817058
 20
92.296315877717063
 30
0.0
 11
49.375191826817058
 21
94.413907140930235
 31
0.0
  0
LINE
  5
587
  8
0
 10
49.375191826817058
 20
92.296315877717063
 30
0.0
 11
49.375191826817058
 21
94.413907140930235
 31
0.0
  0
LINE
  5
588
  8
0
 10
47.575191826818923
 20
89.213907140932903
 30
0.0
 11
47.575191826818923
 21
93.913907140930178
 31
0.0
  0
LINE
  5
589
  8
0
 10
49.075191826817097
 20
94.713907140930175
 30
0.0
 11
48.375191826818927
 21
94.713907140930175
 31
0.0
  0
LINE
  5
58A
  8
0
 10
49.075191826817097
 20
94.713907140930175
 30
0.0
 11
48.460778592750209
 21
94.713907140930175
 31
0.0
  0
ARC
  5
58B
  8
0
 10
49.07519182681721
 20
94.413907140930235
 30
0.0
 40
0.3
 50
0.0
 51
90.0
  0
ARC
  5
58C
  8
0
 10
49.07519182681721
 20
94.413907140930235
 30
0.0
 40
0.3
 50
0.0
 51
90.0
  0
LINE
  5
58D
  8
0
 10
48.375191826819837
 20
99.713907140930175
 30
0.0
 11
49.075191826817097
 21
99.713907140930175
 31
0.0
  0
LINE
  5
58E
  8
0
 10
48.460778592750209
 20
99.713907140930175
 30
0.0
 11
49.075191826817097
 21
99.713907140930175
 31
0.0
  0
ARC
  5
58F
  8
0
 10
49.07519182681721
 20
100.0139071409302
 30
0.0
 40
0.3
 50
270.00000000000011
 51
0.0
  0
ARC
  5
590
  8
0
 10
49.07519182681721
 20
100.0139071409302
 30
0.0
 40
0.3
 50
270.00000000000011
 51
0.0
  0
ARC
  5
591
  8
0
 10
49.575191826819832
 20
105.2139071409329
 30
0.0
 40
2.0
 50
90.0
 51
180.0
  0
LINE
  5
592
  8
0
 10
47.575191826819832
 20
105.2139071409329
 30
0.0
 11
47.575191826819832
 21
100.5139071409302
 31
0.0
  0
LINE
  5
593
  8
1
 10
72.575191826819577
 20
97.213907140932918
 30
0.0
 11
42.575191826819598
 21
97.21390714093296
 31
0.0
  0
LINE
  5
594
  8
1
 10
57.575191826819832
 20
112.2139071409329
 30
0.0
 11
57.575191826819832
 21
82.213907140932918
 31
0.0
  0
LINE
  5
595
  8
0
 10
87.575191826819733
 20
107.2139071409329
 30
0.0
 11
137.57519182681969
 21
107.2139071409329
 31
0.0
  0
LINE
  5
596
  8
0
 10
87.575191826819804
 20
87.213907140932491
 30
0.0
 11
137.57519182681969
 21
87.213907140932491
 31
0.0
  0
LINE
  5
597
  8
0
 10
87.575191826819733
 20
107.2139071409329
 30
0.0
 11
87.575191826819776
 21
87.213907140932491
 31
0.0
  0
LINE
  5
598
  8
0
 10
137.57519182681969
 20
107.213907140933
 30
0.0
 11
137.57519182681969
 21
87.213907140932548
 31
0.0
  0
LINE
  5
599
  8
1
 10
82.575191826819832
 20
97.213907140932974
 30
0.0
 11
142.5751918268198
 21
97.213907140932974
 31
0.0
  0
LINE
  5
59A
  8
0
 10
47.575191826818923
 20
67.213907140932449
 30
0.0
 11
47.575191826818923
 21
17.213907140932449
 31
0.0
  0
LINE
  5
59B
  8
0
 10
67.575191826819378
 20
67.213907140932477
 30
0.0
 11
67.575191826819378
 21
17.213907140932459
 31
0.0
  0
LINE
  5
59C
  8
0
 10
55.075191826817097
 20
67.213907140932463
 30
0.0
 11
55.075191826817132
 21
17.213907140932449
 31
0.0
  0
LINE
  5
59D
  8
0
 10
60.075191826817097
 20
67.213907140932463
 30
0.0
 11
60.075191826817083
 21
17.213907140932459
 31
0.0
  0
LINE
  5
59E
  8
0
 10
47.575191826818923
 20
67.213907140932449
 30
0.0
 11
67.575191826819378
 21
67.213907140932463
 31
0.0
  0
LINE
  5
59F
  8
0
 10
47.575191826818951
 20
17.213907140932449
 30
0.0
 11
67.575191826819406
 21
17.213907140932459
 31
0.0
  0
LINE
  5
5A0
  8
1
 10
57.575191826819861
 20
72.213907140932449
 30
0.0
 11
57.575191826819832
 21
12.21390714093245
 31
0.0
  0
TEXT
  5
6A4
  8
0
 62
     3
 10
0.0
 20
0.0
 30
0.0
 40
10.0
  1
L5-SPH2020N2-3M
  7
STANDARD1
  0
ENDSEC
  0
EOF
