  0
SECTION
  2
HEADER
  9
$ACADVER
  1
AC1009
  9
$INSBASE
 10
0.0
 20
0.0
 30
0.0
  9
$EXTMIN
 10
0.0
 20
-2.960436562073669
 30
0.0
  9
$EXTMAX
 10
229.80750461220501
 20
192.80628828969199
 30
0.0
  9
$LIMMIN
 10
0.0
 20
0.0
  9
$LIMMAX
 10
375.0
 20
278.0
  9
$ORTHOMODE
 70
     0
  9
$REGENMODE
 70
     1
  9
$FILLMODE
 70
     1
  9
$QTEXTMODE
 70
     0
  9
$MIRRTEXT
 70
     0
  9
$DRAGMODE
 70
     2
  9
$LTSCALE
 40
10.0
  9
$OSMODE
 70
  3071
  9
$ATTMODE
 70
     1
  9
$TEXTSIZE
 40
0.2
  9
$TRACEWID
 40
0.05
  9
$TEXTSTYLE
  7
STANDARD
  9
$CLAYER
  8
0
  9
$CELTYPE
  6
BYLAYER
  9
$CECOLOR
 62
   256
  9
$DIMSCALE
 40
1.0
  9
$DIMASZ
 40
3.0
  9
$DIMEXO
 40
1.0
  9
$DIMDLI
 40
6.0
  9
$DIMRND
 40
0.0
  9
$DIMDLE
 40
0.0
  9
$DIMEXE
 40
1.0
  9
$DIMTP
 40
495.0
  9
$DIMTM
 40
0.0
  9
$DIMTXT
 40
3.0
  9
$DIMCEN
 40
0.0
  9
$DIMTSZ
 40
0.0
  9
$DIMTOL
 70
     0
  9
$DIMLIM
 70
     0
  9
$DIMTIH
 70
     0
  9
$DIMTOH
 70
     0
  9
$DIMSE1
 70
     0
  9
$DIMSE2
 70
     0
  9
$DIMTAD
 70
     1
  9
$DIMZIN
 70
     0
  9
$DIMBLK
  1

  9
$DIMASO
 70
     0
  9
$DIMSHO
 70
     0
  9
$DIMPOST
  1

  9
$DIMAPOST
  1

  9
$DIMALT
 70
     0
  9
$DIMALTD
 70
     2
  9
$DIMALTF
 40
25.399999999999999
  9
$DIMLFAC
 40
1.0
  9
$DIMTOFL
 70
     1
  9
$DIMTVP
 40
0.0
  9
$DIMTIX
 70
     1
  9
$DIMSOXD
 70
     0
  9
$DIMSAH
 70
     0
  9
$DIMBLK1
  1

  9
$DIMBLK2
  1

  9
$DIMSTYLE
  2
STANDARD
  9
$DIMCLRD
 70
     0
  9
$DIMCLRE
 70
     0
  9
$DIMCLRT
 70
     4
  9
$DIMTFAC
 40
1.0
  9
$DIMGAP
 40
1.0
  9
$LUNITS
 70
     2
  9
$LUPREC
 70
     4
  9
$SKETCHINC
 40
0.1
  9
$FILLETRAD
 40
0.0
  9
$AUNITS
 70
     0
  9
$AUPREC
 70
     0
  9
$MENU
  1
C:\R13\WIN\SUPPORT\ACAD-I
  9
$ELEVATION
 40
0.0
  9
$PELEVATION
 40
0.0
  9
$THICKNESS
 40
0.0
  9
$LIMCHECK
 70
     0
  9
$BLIPMODE
 70
     0
  9
$CHAMFERA
 40
0.0
  9
$CHAMFERB
 40
0.0
  9
$SKPOLY
 70
     0
  9
$TDCREATE
 40
2450834.4199027782
  9
$TDUPDATE
 40
2456597.547057176
  9
$TDINDWG
 40
0.1009404282
  9
$TDUSRTIMER
 40
0.1009404282
  9
$USRTIMER
 70
     1
  9
$ANGBASE
 50
0.0
  9
$ANGDIR
 70
     0
  9
$PDMODE
 70
     0
  9
$PDSIZE
 40
0.0
  9
$PLINEWID
 40
0.0
  9
$COORDS
 70
     1
  9
$SPLFRAME
 70
     0
  9
$SPLINETYPE
 70
     6
  9
$SPLINESEGS
 70
     8
  9
$ATTDIA
 70
     0
  9
$ATTREQ
 70
     1
  9
$HANDLING
 70
     1
  9
$HANDSEED
  5
F5C
  9
$SURFTAB1
 70
     6
  9
$SURFTAB2
 70
     6
  9
$SURFTYPE
 70
     6
  9
$SURFU
 70
     6
  9
$SURFV
 70
     6
  9
$UCSNAME
  2

  9
$UCSORG
 10
0.0
 20
0.0
 30
0.0
  9
$UCSXDIR
 10
1.0
 20
0.0
 30
0.0
  9
$UCSYDIR
 10
0.0
 20
1.0
 30
0.0
  9
$PUCSNAME
  2

  9
$PUCSORG
 10
0.0
 20
0.0
 30
0.0
  9
$PUCSXDIR
 10
1.0
 20
0.0
 30
0.0
  9
$PUCSYDIR
 10
0.0
 20
1.0
 30
0.0
  9
$USERI1
 70
     4
  9
$USERI2
 70
     1
  9
$USERI3
 70
     0
  9
$USERI4
 70
     0
  9
$USERI5
 70
     0
  9
$USERR1
 40
1.0
  9
$USERR2
 40
3.0
  9
$USERR3
 40
3.0
  9
$USERR4
 40
3.0
  9
$USERR5
 40
10.0
  9
$WORLDVIEW
 70
     1
  9
$SHADEDGE
 70
     3
  9
$SHADEDIF
 70
    70
  9
$TILEMODE
 70
     1
  9
$MAXACTVP
 70
    16
  9
$PLIMCHECK
 70
     0
  9
$PEXTMIN
 10
1.0000000000000000E+020
 20
1.0000000000000000E+020
 30
1.0000000000000000E+020
  9
$PEXTMAX
 10
-1.0000000000000000E+020
 20
-1.0000000000000000E+020
 30
-1.0000000000000000E+020
  9
$PLIMMIN
 10
0.0
 20
0.0
  9
$PLIMMAX
 10
12.0
 20
9.0
  9
$UNITMODE
 70
     0
  9
$VISRETAIN
 70
     0
  9
$PLINEGEN
 70
     0
  9
$PSLTSCALE
 70
     0
  0
ENDSEC
  0
SECTION
  2
TABLES
  0
TABLE
  2
VPORT
 70
     1
  0
VPORT
  2
*ACTIVE
 70
     0
 10
0.0
 20
0.0
 11
1.0
 21
1.0
 12
187.4942783906524
 22
167.7204668657281
 13
0.0
 23
0.0
 14
10.0
 24
10.0
 15
10.0
 25
10.0
 16
0.0
 26
0.0
 36
1.0
 17
0.0
 27
0.0
 37
0.0
 40
344.62625130655709
 41
1.9089595375722539
 42
50.0
 43
0.0
 44
0.0
 50
0.0
 51
0.0
 71
     0
 72
   100
 73
     1
 74
     0
 75
     0
 76
     0
 77
     0
 78
     0
  0
ENDTAB
  0
TABLE
  2
LTYPE
 70
     3
  0
LTYPE
  2
CONTINUOUS
 70
     0
  3
Solid Line
 72
    65
 73
     0
 40
0.0
  0
LTYPE
  2
CENTER
 70
     0
  3
____ _ ____ _ ____ _ ____ _ ____ _ ____ _ ____
 72
    65
 73
     4
 40
2.0
 49
1.25
 49
-0.25
 49
0.25
 49
-0.25
  0
LTYPE
  2
PHANTOM2
 70
     0
  3
___ _ _ ___ _ _ ___ _ _ ___ _ _
 72
    65
 73
     6
 40
1.25
 49
0.625
 49
-0.125
 49
0.125
 49
-0.125
 49
0.125
 49
-0.125
  0
ENDTAB
  0
TABLE
  2
LAYER
 70
     2
  0
LAYER
  2
0
 70
     0
 62
     7
  6
CONTINUOUS
  0
LAYER
  2
1
 70
     0
 62
     1
  6
CENTER
  0
ENDTAB
  0
TABLE
  2
STYLE
 70
     2
  0
STYLE
  2
STANDARD
 70
     0
 40
0.0
 41
1.0
 50
0.0
 71
     0
 42
0.2
  3
SIMPLEX
  4
BIGFONT
  0
STYLE
  2
STANDARD1
 70
     0
 40
0.0
 41
1.0
 50
0.0
 71
     0
 42
3.0
  3
txt
  4

  0
ENDTAB
  0
TABLE
  2
VIEW
 70
     0
  0
ENDTAB
  0
TABLE
  2
UCS
 70
     0
  0
ENDTAB
  0
TABLE
  2
APPID
 70
    38
  0
APPID
  2
ACAD
 70
     0
  0
APPID
  2
GENIUS_GENOBJ_13
 70
     0
  0
APPID
  2
GENIUS_GENODEF_13
 70
     0
  0
APPID
  2
GENIUS_GENOENT_13
 70
     0
  0
APPID
  2
GENIUS_GENOLIS_13
 70
     0
  0
APPID
  2
GENIUS_GENOREF_13
 70
     0
  0
APPID
  2
GENIUS_GENOBJ-N-TIT_13
 70
     0
  0
APPID
  2
GENIUS_GENTITLE_13
 70
     0
  0
APPID
  2
GENIUS_GENZVEED_13
 70
     0
  0
APPID
  2
GENIUS_GENOBJ-N-FIL_13
 70
     0
  0
APPID
  2
GENIUS_GENOBJ-N-CRS_13
 70
     0
  0
APPID
  2
GENIUS_GEFINERT_13
 70
     0
  0
APPID
  2
GENIUS_GENOBJ-F-INER_13
 70
     0
  0
APPID
  2
GENIUS_GENOBJ-N-ZOO_13
 70
     0
  0
APPID
  2
GENIUS_GENZOO_13
 70
     0
  0
APPID
  2
GENIUS_GENOBJ-F-TOL_13
 70
     0
  0
APPID
  2
GENIUS_GENOBJ-N-RSSYM_13
 70
     0
  0
APPID
  2
GENIUS_GENSYMENT_13
 70
     0
  0
APPID
  2
GENIUS_GENBH_13
 70
     0
  0
APPID
  2
GENIUS_GENOBJ-NBEHI-BHF_13
 70
     0
  0
APPID
  2
GENIUS_GENOBJ-NBEHI-BHB_13
 70
     0
  0
APPID
  2
GENIUS_GENOBJ-F-PART_13
 70
     0
  0
APPID
  2
GENIUS_GEFSTDP_13
 70
     0
  0
APPID
  2
GENIUS_GENOBJ-N-LEADER_13
 70
     0
  0
APPID
  2
GENIUS_GENOBJ-N-REV_13
 70
     0
  0
APPID
  2
GENIUS_GENCFG_13
 70
     0
  0
APPID
  2
GENIUS_GENCFG0_13
 70
     0
  0
APPID
  2
GENIUS_GENCFG1_13
 70
     0
  0
APPID
  2
GENIUS_GENCFG2_13
 70
     0
  0
APPID
  2
GENIUS_GENCFG3_13
 70
     0
  0
APPID
  2
GENIUS_GEVCFG0_13
 70
     0
  0
APPID
  2
GENIUS_GENCFG4_13
 70
     0
  0
APPID
  2
GENIUS_GENOBJ-N-REC_13
 70
     0
  0
APPID
  2
GENIUS_GENFIL_13
 70
     0
  0
APPID
  2
GENIUS_GENOBJ-N-CHA_13
 70
     0
  0
APPID
  2
GENIUS_GENREC_13
 70
     0
  0
APPID
  2
ACAD_MLEADERVER
 70
     0
  0
APPID
  2
ACAD_NAV_VCDISPLAY
 70
     0
  0
ENDTAB
  0
TABLE
  2
DIMSTYLE
 70
     1
  0
DIMSTYLE
  2
STANDARD
 70
     0
  3

  4

  5

  6

  7

 40
1.0
 41
0.18
 42
0.0625
 43
0.38
 44
0.18
 45
0.0
 46
0.0
 47
0.0
 48
0.0
140
0.18
141
0.09
142
0.0
143
25.399999999999999
144
1.0
145
0.0
146
1.0
147
0.09
 71
     0
 72
     0
 73
     1
 74
     1
 75
     0
 76
     0
 77
     0
 78
     0
170
     0
171
     2
172
     0
173
     0
174
     0
175
     0
176
     0
177
     0
178
     0
  0
ENDTAB
  0
ENDSEC
  0
SECTION
  2
BLOCKS
  0
BLOCK
  8
0
  2
$MODEL_SPACE
 70
     0
 10
0.0
 20
0.0
 30
0.0
  3
$MODEL_SPACE
  1

  0
ENDBLK
  5
E1D
  8
0
  0
BLOCK
 67
     1
  8
0
  2
$PAPER_SPACE
 70
     0
 10
0.0
 20
0.0
 30
0.0
  3
$PAPER_SPACE
  1

  0
ENDBLK
  5
E1B
 67
     1
  8
0
  0
BLOCK
  8
0
  2
STDGX5
 70
     0
 10
0.0
 20
0.0
 30
0.0
  3
STDGX5
  1

  0
ENDBLK
  5
4F
  8
0
  0
ENDSEC
  0
SECTION
  2
ENTITIES
  0
INSERT
  5
DE
  8
0
  2
STDGX5
 10
0.0
 20
0.0
 30
0.0
  0
INSERT
  5
DF
  8
0
  2
STDGX5
 10
0.0
 20
0.0
 30
0.0
  0
INSERT
  5
15C
  8
0
  2
STDGX5
 10
275.0
 20
0.0
 30
0.0
  0
INSERT
  5
15D
  8
0
  2
STDGX5
 10
275.0
 20
0.0
 30
0.0
  0
INSERT
  5
314
  8
0
  2
STDGX5
 10
0.0
 20
0.0
 30
0.0
  0
INSERT
  5
315
  8
0
  2
STDGX5
 10
0.0
 20
0.0
 30
0.0
  0
INSERT
  5
316
  8
0
  2
STDGX5
 10
275.0
 20
0.0
 30
0.0
  0
INSERT
  5
317
  8
0
  2
STDGX5
 10
275.0
 20
0.0
 30
0.0
  0
INSERT
  5
4EF
  8
0
  2
STDGX5
 10
0.0
 20
0.0
 30
0.0
  0
INSERT
  5
4F0
  8
0
  2
STDGX5
 10
0.0
 20
0.0
 30
0.0
  0
INSERT
  5
4F1
  8
0
  2
STDGX5
 10
275.0
 20
0.0
 30
0.0
  0
INSERT
  5
4F2
  8
0
  2
STDGX5
 10
275.0
 20
0.0
 30
0.0
  0
CIRCLE
  5
C5B
  8
0
 10
120.4568137832343
 20
105.8360522583351
 30
0.0
 40
2.149999999999999
1001
GENIUS_GENOREF_13
1005
0
  0
CIRCLE
  5
C6E
  8
0
 10
140.45681378323431
 20
105.83605225833421
 30
0.0
 40
2.149999999999999
1001
GENIUS_GENOREF_13
1005
0
  0
LINE
  5
C6F
  8
0
 10
137.9568137832342
 20
115.0360522583352
 30
0.0
 11
137.9568137832342
 21
114.33605225833659
 31
0.0
  0
ARC
  5
C70
  8
0
 10
137.65681378323421
 20
114.33605225833659
 30
0.0
 40
0.3000000000000043
 50
269.99999999999858
 51
0.000000000001357
  0
LINE
  5
C71
  8
0
 10
137.65681378323421
 20
114.0360522583366
 30
0.0
 11
135.5392253971429
 21
114.0360522583367
 31
0.0
  0
ARC
  5
C72
  8
0
 10
135.53922539714279
 20
113.20364064442821
 30
0.0
 40
0.8324116139085582
 50
89.999999999996817
 51
225.0000000000183
  0
LINE
  5
C73
  8
0
 10
134.95062150020991
 20
112.6150367474948
 30
0.0
 11
137.20092633293049
 21
110.364731914776
 31
0.0
  0
ARC
  5
C74
  8
0
 10
139.3222466764893
 20
112.4860522583365
 30
0.0
 40
2.9999999999999991
 50
225.0000000000235
 51
269.99999999999773
  0
LINE
  5
C75
  8
0
 10
139.32224667648919
 20
109.4860522583365
 30
0.0
 11
141.59138088998111
 21
109.4860522583364
 31
0.0
  0
ARC
  5
C76
  8
0
 10
141.5913808899812
 20
112.4860522583364
 30
0.0
 40
3.0
 50
269.99999999999721
 51
314.9999999999888
  0
LINE
  5
C77
  8
0
 10
143.71270123354051
 20
110.3647319147764
 30
0.0
 11
145.96300606625871
 21
112.6150367474937
 31
0.0
  0
ARC
  5
C78
  8
0
 10
145.37440216932529
 20
113.2036406444273
 30
0.0
 40
0.8324116139090197
 50
314.9999999999917
 51
89.999999999998039
  0
LINE
  5
C79
  8
0
 10
145.37440216932529
 20
114.0360522583363
 30
0.0
 11
143.25681378323421
 21
114.0360522583364
 31
0.0
  0
ARC
  5
C7A
  8
0
 10
143.25681378323429
 20
114.33605225833639
 30
0.0
 40
0.3000000000000114
 50
180.0
 51
269.99999999999449
  0
LINE
  5
C7B
  8
0
 10
142.95681378323431
 20
114.33605225833639
 30
0.0
 11
142.9568137832342
 21
115.0360522583351
 31
0.0
  0
LINE
  5
C7C
  8
0
 10
149.65681378323441
 20
108.33605225833639
 30
0.0
 11
148.9568137832369
 21
108.33605225833639
 31
0.0
  0
ARC
  5
C7D
  8
0
 10
148.9568137832369
 20
108.63605225833641
 30
0.0
 40
0.3000000000000114
 50
180.00000000002171
 51
270.0
  0
LINE
  5
C7E
  8
0
 10
148.65681378323691
 20
108.63605225833631
 30
0.0
 11
148.656813783236
 21
110.7536406444306
 31
0.0
  0
ARC
  5
C7F
  8
0
 10
147.82440216932989
 20
110.75364064443031
 30
0.0
 40
0.8324116139061175
 50
0.0000000000233533
 51
134.99999999998619
  0
LINE
  5
C80
  8
0
 10
147.2357982723986
 20
111.34224454136189
 30
0.0
 11
144.98549343967821
 21
109.0919397086424
 31
0.0
  0
ARC
  5
C81
  8
0
 10
147.1068137832375
 20
106.9706193650824
 30
0.0
 40
3.0000000000000142
 50
134.999999999989
 51
180.00000000002299
  0
LINE
  5
C82
  8
0
 10
144.1068137832375
 20
106.97061936508121
 30
0.0
 11
144.10681378323841
 21
104.70148515159229
 31
0.0
  0
ARC
  5
C83
  8
0
 10
147.10681378323841
 20
104.7014851515936
 30
0.0
 40
3.000000000000028
 50
180.00000000002399
 51
225.00000000002311
  0
LINE
  5
C84
  8
0
 10
144.9854934396796
 20
102.5801648080331
 30
0.0
 11
147.2357982724038
 21
100.3298599753106
 31
0.0
  0
ARC
  5
C85
  8
0
 10
147.82440216933449
 20
100.9184638722417
 30
0.0
 40
0.832411613905357
 50
225.00000000002251
 51
0.0000000000234756
  0
LINE
  5
C86
  8
0
 10
148.65681378323981
 20
100.9184638722421
 30
0.0
 11
148.65681378323899
 21
103.0360522583363
 31
0.0
  0
ARC
  5
C87
  8
0
 10
148.956813783239
 20
103.0360522583364
 30
0.0
 40
0.3000000000000114
 50
90.0
 51
180.00000000002171
  0
LINE
  5
C88
  8
0
 10
148.956813783239
 20
103.33605225833639
 30
0.0
 11
149.6568137832343
 21
103.33605225833639
 31
0.0
  0
LINE
  5
C89
  8
0
 10
117.9568137832363
 20
115.0360522583352
 30
0.0
 11
117.9568137832363
 21
114.3360522583373
 31
0.0
  0
ARC
  5
C8A
  8
0
 10
117.6568137832362
 20
114.3360522583373
 30
0.0
 40
0.3000000000000114
 50
270.0
 51
0.0
  0
LINE
  5
C8B
  8
0
 10
117.6568137832362
 20
114.03605225833731
 30
0.0
 11
115.5392253971447
 21
114.03605225833741
 31
0.0
  0
ARC
  5
C8C
  8
0
 10
115.5392253971447
 20
113.203640644429
 30
0.0
 40
0.8324116139084267
 50
89.999999999998536
 51
224.99999999999591
  0
LINE
  5
C8D
  8
0
 10
114.9506215002116
 20
112.61503674749601
 30
0.0
 11
117.2009263329294
 21
110.36473191477771
 31
0.0
  0
ARC
  5
C8E
  8
0
 10
119.3222466764892
 20
112.4860522583372
 30
0.0
 40
2.9999999999999991
 50
224.99999999999591
 51
269.99999999999829
  0
LINE
  5
C8F
  8
0
 10
119.3222466764891
 20
109.4860522583372
 30
0.0
 11
121.5913808899822
 21
109.4860522583371
 31
0.0
  0
ARC
  5
C90
  8
0
 10
121.5913808899823
 20
112.4860522583371
 30
0.0
 40
3.0
 50
269.99999999999829
 51
314.99999999999488
  0
LINE
  5
C91
  8
0
 10
123.71270123354179
 20
110.36473191477729
 30
0.0
 11
125.963006066261
 21
112.61503674749611
 31
0.0
  0
ARC
  5
C92
  8
0
 10
125.37440216932821
 20
113.203640644429
 30
0.0
 40
0.8324116139080576
 50
314.99999999999261
 51
89.999999999999275
  0
LINE
  5
C93
  8
0
 10
125.37440216932821
 20
114.03605225833699
 30
0.0
 11
123.2568137832362
 21
114.03605225833709
 31
0.0
  0
ARC
  5
C94
  8
0
 10
123.2568137832363
 20
114.3360522583372
 30
0.0
 40
0.3000000000000114
 50
180.0
 51
269.99999999999449
  0
LINE
  5
C95
  8
0
 10
122.9568137832363
 20
114.3360522583372
 30
0.0
 11
122.9568137832362
 21
115.0360522583351
 31
0.0
  0
LINE
  5
C96
  8
0
 10
112.456813783234
 20
115.8360522583351
 30
0.0
 11
117.1568137832362
 21
115.8360522583351
 31
0.0
  0
ARC
  5
C97
  8
0
 10
117.1568137832362
 20
115.0360522583351
 30
0.0
 40
0.8
 50
0.0000000000012722
 51
90.0
1001
GENIUS_GENODEF_13
1002
{
1000
HIER
1070
     0
1002
}
1002
{
1000
MANEDIT
1070
     0
1002
}
1002
{
1000
NOSEL
1070
     0
1002
}
1002
{
1000
BEHIND
1070
     0
1002
}
1002
{
1000
REACTOR
1002
}
1001
GENIUS_GENOBJ-N-FIL_13
1002
{
1000
OWNER
1000
GEN
1002
}
  0
LINE
  5
C98
  8
0
 10
123.7568137832362
 20
115.8360522583351
 30
0.0
 11
137.15681378323421
 21
115.8360522583351
 31
0.0
  0
ARC
  5
C99
  8
0
 10
123.7568137832362
 20
115.0360522583351
 30
0.0
 40
0.8
 50
90.0
 51
180.00000000000381
1001
GENIUS_GENODEF_13
1002
{
1000
HIER
1070
     0
1002
}
1002
{
1000
MANEDIT
1070
     0
1002
}
1002
{
1000
NOSEL
1070
     0
1002
}
1002
{
1000
BEHIND
1070
     0
1002
}
1002
{
1000
REACTOR
1002
}
1001
GENIUS_GENOBJ-N-FIL_13
1002
{
1000
OWNER
1000
GEN
1002
}
  0
ARC
  5
C9A
  8
0
 10
137.15681378323421
 20
115.0360522583351
 30
0.0
 40
0.8
 50
0.0000000000012722
 51
90.0
1001
GENIUS_GENODEF_13
1002
{
1000
HIER
1070
     0
1002
}
1002
{
1000
MANEDIT
1070
     0
1002
}
1002
{
1000
NOSEL
1070
     0
1002
}
1002
{
1000
BEHIND
1070
     0
1002
}
1002
{
1000
REACTOR
1002
}
1001
GENIUS_GENOBJ-N-FIL_13
1002
{
1000
OWNER
1000
GEN
1002
}
  0
LINE
  5
C9B
  8
0
 10
143.75681378323421
 20
115.8360522583351
 30
0.0
 11
148.45681378323431
 21
115.8360522583351
 31
0.0
  0
ARC
  5
C9C
  8
0
 10
148.45681378323431
 20
113.8360522583351
 30
0.0
 40
2.0
 50
0.0
 51
90.0
  0
LINE
  5
C9D
  8
0
 10
150.45681378323431
 20
113.8360522583351
 30
0.0
 11
150.45681378323431
 21
109.13605225833641
 31
0.0
  0
ARC
  5
C9E
  8
0
 10
143.75681378323421
 20
115.0360522583351
 30
0.0
 40
0.8
 50
90.0
 51
180.0000000000025
1001
GENIUS_GENODEF_13
1002
{
1000
HIER
1070
     0
1002
}
1002
{
1000
MANEDIT
1070
     0
1002
}
1002
{
1000
NOSEL
1070
     0
1002
}
1002
{
1000
BEHIND
1070
     0
1002
}
1002
{
1000
REACTOR
1002
}
1001
GENIUS_GENOBJ-N-FIL_13
1002
{
1000
OWNER
1000
GEN
1002
}
  0
ARC
  5
C9F
  8
0
 10
149.6568137832343
 20
109.13605225833641
 30
0.0
 40
0.8
 50
270.00000000000512
 51
0.0
1001
GENIUS_GENODEF_13
1002
{
1000
HIER
1070
     0
1002
}
1002
{
1000
MANEDIT
1070
     0
1002
}
1002
{
1000
NOSEL
1070
     0
1002
}
1002
{
1000
BEHIND
1070
     0
1002
}
1002
{
1000
REACTOR
1002
}
1001
GENIUS_GENOBJ-N-FIL_13
1002
{
1000
OWNER
1000
GEN
1002
}
  0
LINE
  5
CA0
  8
0
 10
150.45681378323431
 20
102.5360522583364
 30
0.0
 11
150.45681378323431
 21
97.836052258334334
 31
0.0
  0
ARC
  5
CA1
  8
0
 10
148.45681378323431
 20
97.836052258334334
 30
0.0
 40
2.0
 50
270.0
 51
0.0
  0
LINE
  5
CA2
  8
0
 10
148.45681378323431
 20
95.83605225833432
 30
0.0
 11
112.456813783234
 21
95.83605225833432
 31
0.0
  0
ARC
  5
CA3
  8
0
 10
112.456813783234
 20
97.836052258334334
 30
0.0
 40
1.9999999999999989
 50
180.0
 51
270.0
  0
LINE
  5
CA4
  8
0
 10
110.456813783234
 20
97.836052258334334
 30
0.0
 11
110.456813783234
 21
113.8360522583351
 31
0.0
  0
ARC
  5
CA5
  8
0
 10
112.456813783234
 20
113.8360522583351
 30
0.0
 40
2.0
 50
90.0
 51
180.0
  0
ARC
  5
CA6
  8
0
 10
149.6568137832343
 20
102.5360522583364
 30
0.0
 40
0.8
 50
0.0
 51
90.0
1001
GENIUS_GENODEF_13
1002
{
1000
HIER
1070
     0
1002
}
1002
{
1000
MANEDIT
1070
     0
1002
}
1002
{
1000
NOSEL
1070
     0
1002
}
1002
{
1000
BEHIND
1070
     0
1002
}
1002
{
1000
REACTOR
1002
}
1001
GENIUS_GENOBJ-N-FIL_13
1002
{
1000
OWNER
1000
GEN
1002
}
  0
LINE
  5
CC5
  8
0
 10
174.80750461220501
 20
103.33605225833639
 30
0.0
 11
224.80750461220501
 21
103.33605225833639
 31
0.0
  0
LINE
  5
CC6
  8
0
 10
174.80750461220501
 20
108.33605225833639
 30
0.0
 11
224.80750461220501
 21
108.33605225833639
 31
0.0
  0
LINE
  5
CC7
  8
0
 10
142.9568137832342
 20
137.80628828969159
 30
0.0
 11
142.9568137832342
 21
187.80628828969199
 31
0.0
  0
LINE
  5
CC8
  8
0
 10
137.9568137832342
 20
137.80628828969159
 30
0.0
 11
137.9568137832342
 21
187.80628828969199
 31
0.0
  0
LINE
  5
CC9
  8
0
 10
122.9568137832362
 20
137.80628828969159
 30
0.0
 11
122.9568137832362
 21
187.80628828969199
 31
0.0
  0
LINE
  5
CCA
  8
0
 10
117.9568137832363
 20
137.80628828969159
 30
0.0
 11
117.9568137832362
 21
187.80628828969199
 31
0.0
  0
LINE
  5
CCB
  8
0
 10
110.456813783234
 20
74.466521542130039
 30
0.0
 11
150.456813783234
 21
74.466521542130039
 31
0.0
  0
LINE
  5
CCC
  8
0
 10
150.456813783234
 20
74.466521542130039
 30
0.0
 11
150.456813783234
 21
24.466521542130039
 31
0.0
  0
LINE
  5
CCE
  8
0
 10
110.4568137832354
 20
24.466521542130039
 30
0.0
 11
110.456813783234
 21
74.466521542130039
 31
0.0
  0
LINE
  5
CD0
  8
0
 10
150.45681378323431
 20
187.80628828969199
 30
0.0
 11
150.45681378323431
 21
137.80628828969199
 31
0.0
  0
LINE
  5
CD1
  8
0
 10
150.45681378323431
 20
137.80628828969199
 30
0.0
 11
110.456813783234
 21
137.80628828969199
 31
0.0
  0
LINE
  5
CD2
  8
0
 10
110.456813783234
 20
137.80628828969199
 30
0.0
 11
110.456813783234
 21
187.80628828969199
 31
0.0
  0
ARC
  5
CD3
  8
0
 10
133.8068137832343
 20
104.70148515159219
 30
0.0
 40
3.0000000000000342
 50
314.99999999998897
 51
359.99999999999761
  0
LINE
  5
CD4
  8
0
 10
136.8068137832343
 20
104.7014851515921
 30
0.0
 11
136.80681378323439
 21
106.9706193650813
 31
0.0
  0
ARC
  5
CD5
  8
0
 10
133.80681378323439
 20
106.9706193650814
 30
0.0
 40
3.0
 50
359.99999999999812
 51
45.000000000022453
  0
LINE
  5
CD6
  8
0
 10
135.9281341267932
 20
109.0919397086419
 30
0.0
 11
131.87102734560679
 21
113.1490464898249
 31
0.0
  0
ARC
  5
CD7
  8
0
 10
130.45681378323431
 20
111.73483292745119
 30
0.0
 40
1.9999999999999849
 50
45.00000000002332
 51
134.99999999999511
  0
LINE
  5
CD8
  8
0
 10
129.0426002208614
 20
113.1490464898244
 30
0.0
 11
124.9854934396749
 21
109.09193970863871
 31
0.0
  0
ARC
  5
CD9
  8
0
 10
127.1068137832343
 20
106.9706193650789
 30
0.0
 40
2.9999999999999529
 50
134.9999999999944
 51
179.9999999999981
  0
LINE
  5
CDA
  8
0
 10
124.1068137832344
 20
106.970619365079
 30
0.0
 11
124.1068137832343
 21
104.701485151591
 31
0.0
  0
ARC
  5
CDB
  8
0
 10
127.1068137832342
 20
104.7014851515909
 30
0.0
 40
2.9999999999999711
 50
179.99999999999861
 51
224.99999999999599
  0
LINE
  5
CDC
  8
0
 10
124.9854934396745
 20
102.5801648080314
 30
0.0
 11
129.04260022085941
 21
98.523058026845902
 31
0.0
  0
ARC
  5
CDD
  8
0
 10
130.4568137832326
 20
99.937271589218923
 30
0.0
 40
2.0000000000000062
 50
224.99999999999619
 51
314.99999999998988
  0
LINE
  5
CDE
  8
0
 10
131.8710273456054
 20
98.523058026845547
 30
0.0
 11
135.92813412679351
 21
102.58016480803219
 31
0.0
  0
LINE
  5
CDF
  8
0
 10
112.25681378323419
 20
103.0360522583368
 30
0.0
 11
112.25681378323409
 21
100.9184638722443
 31
0.0
  0
ARC
  5
CE0
  8
0
 10
113.0892253971417
 20
100.9184638722443
 30
0.0
 40
0.8324116139076238
 50
180.0
 51
314.99999999999591
  0
LINE
  5
CE1
  8
0
 10
113.6778292940742
 20
100.32985997531171
 30
0.0
 11
115.92813412679369
 21
102.5801648080307
 31
0.0
  0
ARC
  5
CE2
  8
0
 10
113.8068137832343
 20
104.7014851515906
 30
0.0
 40
2.9999999999999729
 50
314.99999999999397
 51
359.99999999999761
  0
LINE
  5
CE3
  8
0
 10
116.8068137832343
 20
104.7014851515905
 30
0.0
 11
116.8068137832344
 21
106.9706193650819
 31
0.0
  0
ARC
  5
CE4
  8
0
 10
113.8068137832344
 20
106.9706193650821
 30
0.0
 40
3.0
 50
359.99999999999761
 51
44.99999999999558
  0
LINE
  5
CE5
  8
0
 10
115.92813412679421
 20
109.0919397086415
 30
0.0
 11
113.6778292940743
 21
111.34224454136159
 31
0.0
  0
ARC
  5
CE6
  8
0
 10
113.0892253971419
 20
110.7536406444293
 30
0.0
 40
0.8324116139073415
 50
44.999999999997932
 51
179.99999999999901
  0
LINE
  5
CE7
  8
0
 10
112.25681378323451
 20
110.7536406444293
 30
0.0
 11
112.25681378323441
 21
108.6360522583367
 31
0.0
  0
ARC
  5
CE8
  8
0
 10
111.9568137832344
 20
108.6360522583367
 30
0.0
 40
0.3000000000000114
 50
269.99999999999449
 51
0.0
  0
LINE
  5
CE9
  8
0
 10
111.9568137832343
 20
108.33605225833669
 30
0.0
 11
111.25681378323441
 21
108.33605225833681
 31
0.0
  0
ARC
  5
CEA
  8
0
 10
111.25681378323441
 20
108.2360522583368
 30
0.0
 40
0.1000000000000085
 50
90.0
 51
180.0000000000081
  0
LINE
  5
CEB
  8
0
 10
111.1568137832344
 20
108.2360522583367
 30
0.0
 11
111.1568137832344
 21
103.4360522583367
 31
0.0
  0
ARC
  5
CEC
  8
0
 10
111.25681378323441
 20
103.4360522583367
 30
0.0
 40
0.0999999999999943
 50
179.99999999999179
 51
270.0
  0
LINE
  5
CED
  8
0
 10
111.25681378323441
 20
103.33605225833669
 30
0.0
 11
111.9568137832342
 21
103.33605225833681
 31
0.0
  0
ARC
  5
CEE
  8
0
 10
111.9568137832342
 20
103.0360522583368
 30
0.0
 40
0.2999999999999971
 50
359.99999999999733
 51
90.000000000005429
  0
LINE
  5
CEF
  8
0
 10
87.296346127684899
 20
115.8360522583352
 30
0.0
 11
37.296346127684899
 21
115.8360522583352
 31
0.0
  0
LINE
  5
CF1
  8
0
 10
37.296346127684899
 20
95.83605225833432
 30
0.0
 11
87.296346127684899
 21
95.83605225833432
 31
0.0
  0
LINE
  5
CF2
  8
0
 10
87.296346127684899
 20
95.83605225833432
 30
0.0
 11
87.296346127684899
 21
115.8360522583352
 31
0.0
  0
ARC
  5
CF3
  8
0
 10
123.25681378323689
 20
97.336052258336508
 30
0.0
 40
0.3000000000000114
 50
90.000000000005429
 51
180.0000000000108
  0
LINE
  5
CF4
  8
0
 10
123.25681378323689
 20
97.63605225833652
 30
0.0
 11
125.3744021693323
 21
97.63605225833652
 31
0.0
  0
ARC
  5
CF5
  8
0
 10
125.3744021693322
 20
98.468463872241117
 30
0.0
 40
0.8324116139045685
 50
270.00000000000188
 51
44.999999999995147
  0
LINE
  5
CF6
  8
0
 10
125.96300606626259
 20
99.057067769171397
 30
0.0
 11
123.7127012335384
 21
101.30737260189591
 31
0.0
  0
ARC
  5
CF7
  8
0
 10
121.59138088997859
 20
99.186052258336517
 30
0.0
 40
2.9999999999999729
 50
44.999999999995957
 51
90.000000000002174
  0
LINE
  5
CF8
  8
0
 10
121.5913808899785
 20
102.1860522583365
 30
0.0
 11
119.32224667649
 21
102.1860522583363
 31
0.0
  0
ARC
  5
CF9
  8
0
 10
119.3222466764901
 20
99.186052258336375
 30
0.0
 40
3.0000000000000142
 50
90.000000000002174
 51
134.9999999999948
  0
LINE
  5
CFA
  8
0
 10
117.20092633293061
 20
101.3073726018962
 30
0.0
 11
114.95062150021231
 21
99.057067769178275
 31
0.0
  0
ARC
  5
CFB
  8
0
 10
115.5392253971455
 20
98.468463872244996
 30
0.0
 40
0.8324116139086482
 50
134.99999999999511
 51
270.00000000000188
  0
LINE
  5
CFC
  8
0
 10
115.5392253971456
 20
97.636052258336363
 30
0.0
 11
117.6568137832369
 21
97.636052258336292
 31
0.0
  0
ARC
  5
CFD
  8
0
 10
117.6568137832369
 20
97.336052258336281
 30
0.0
 40
0.3000000000000256
 50
0.0000000000027141
 51
90.0
  0
LINE
  5
CFE
  8
0
 10
117.9568137832369
 20
97.336052258336281
 30
0.0
 11
117.9568137832369
 21
96.636052258336335
 31
0.0
  0
ARC
  5
CFF
  8
0
 10
118.0568137832369
 20
96.636052258336335
 30
0.0
 40
0.1000000000000227
 50
180.0
 51
270.0
  0
LINE
  5
D00
  8
0
 10
118.0568137832369
 20
96.536052258336326
 30
0.0
 11
122.8568137832369
 21
96.536052258336426
 31
0.0
  0
ARC
  5
D01
  8
0
 10
122.8568137832369
 20
96.636052258336477
 30
0.0
 40
0.1000000000000085
 50
270.00000000001631
 51
0.0000000000081422
  0
LINE
  5
D02
  8
0
 10
122.9568137832369
 20
96.636052258336477
 30
0.0
 11
122.9568137832369
 21
97.336052258336451
 31
0.0
  0
LINE
  5
D03
  8
0
 10
142.95681378323479
 20
97.336052258337133
 30
0.0
 11
142.95681378323479
 21
96.636052258336292
 31
0.0
  0
ARC
  5
D04
  8
0
 10
142.8568137832348
 20
96.636052258336292
 30
0.0
 40
0.0999999999999943
 50
270.00000000001631
 51
0.0000000000162844
  0
LINE
  5
D05
  8
0
 10
142.85681378323491
 20
96.536052258336284
 30
0.0
 11
138.05681378323479
 21
96.536052258336099
 31
0.0
  0
ARC
  5
D06
  8
0
 10
138.05681378323479
 20
96.636052258336136
 30
0.0
 40
0.1000000000000085
 50
179.99999999999179
 51
269.9999999999838
  0
LINE
  5
D07
  8
0
 10
137.95681378323479
 20
96.636052258336136
 30
0.0
 11
137.95681378323479
 21
97.336052258336963
 31
0.0
  0
ARC
  5
D08
  8
0
 10
137.65681378323481
 20
97.336052258336991
 30
0.0
 40
0.2999999999999829
 50
359.99999999999733
 51
90.0
  0
LINE
  5
D09
  8
0
 10
137.65681378323481
 20
97.636052258336974
 30
0.0
 11
135.5392253971429
 21
97.636052258336932
 31
0.0
  0
ARC
  5
D0A
  8
0
 10
135.5392253971429
 20
98.468463872245025
 30
0.0
 40
0.832411613908107
 50
134.99999999999031
 51
270.0
  0
LINE
  5
D0B
  8
0
 10
134.9506215002101
 20
99.057067769177991
 30
0.0
 11
137.20092633293009
 21
101.3073726018972
 31
0.0
  0
ARC
  5
D0C
  8
0
 10
139.32224667648941
 20
99.186052258337213
 30
0.0
 40
3.0000000000000142
 50
90.000000000003254
 51
134.99999999999019
  0
LINE
  5
D0D
  8
0
 10
139.32224667648919
 20
102.1860522583372
 30
0.0
 11
141.59138088998449
 21
102.1860522583373
 31
0.0
  0
ARC
  5
D0E
  8
0
 10
141.59138088998469
 20
99.186052258337327
 30
0.0
 40
2.9999999999999711
 50
45.000000000021871
 51
90.000000000002174
  0
LINE
  5
D0F
  8
0
 10
143.7127012335435
 20
101.3073726018977
 30
0.0
 11
145.9630060662584
 21
99.057067769184584
 31
0.0
  0
ARC
  5
D10
  8
0
 10
145.3744021693231
 20
98.468463872248932
 30
0.0
 40
0.8324116139118032
 50
270.00000000000188
 51
45.000000000020059
  0
LINE
  5
D11
  8
0
 10
145.3744021693231
 20
97.636052258337088
 30
0.0
 11
143.2568137832348
 21
97.636052258337145
 31
0.0
  0
ARC
  5
D12
  8
0
 10
143.2568137832348
 20
97.336052258337133
 30
0.0
 40
0.3000000000000256
 50
90.0
 51
179.99999999999719
  0
LINE
  5
D13
  8
0
 10
224.80750461220501
 20
95.83605225833432
 30
0.0
 11
174.80750461220501
 21
95.83605225833432
 31
0.0
  0
LINE
  5
D14
  8
0
 10
174.80750461220501
 20
95.83605225833432
 30
0.0
 11
174.80750461220501
 21
115.8360522583351
 31
0.0
  0
LINE
  5
D15
  8
0
 10
174.80750461220501
 20
115.8360522583351
 30
0.0
 11
224.80750461220501
 21
115.8360522583351
 31
0.0
  0
LINE
  5
D17
  8
1
 10
140.45681378323459
 20
192.80628828969199
 30
0.0
 11
140.4568137832344
 21
132.80628828969199
 31
0.0
  0
LINE
  5
D18
  8
1
 10
120.45681378323469
 20
192.80628828969199
 30
0.0
 11
120.45681378323479
 21
132.80628828969199
 31
0.0
  0
LINE
  5
D19
  8
1
 10
229.80750461220501
 20
105.83605225833421
 30
0.0
 11
169.80750461220501
 21
105.83605225833421
 31
0.0
  0
LINE
  5
D1A
  8
0
 10
110.456813783234
 20
24.466521542130039
 30
0.0
 11
150.456813783234
 21
24.466521542130039
 31
0.0
  0
LINE
  5
D1B
  8
0
 10
224.80750461220501
 20
95.83605225833432
 30
0.0
 11
224.80750461220501
 21
115.8360522583351
 31
0.0
  0
LINE
  5
D1C
  8
0
 10
150.45681378323431
 20
187.80628828969199
 30
0.0
 11
110.456813783234
 21
187.80628828969199
 31
0.0
  0
LINE
  5
D1D
  8
0
 10
37.296346127684899
 20
95.83605225833432
 30
0.0
 11
37.296346127684899
 21
115.8360522583352
 31
0.0
  0
LINE
  5
DC5
  8
1
 10
140.45681378323431
 20
120.8360522583351
 30
0.0
 11
140.4568137832342
 21
90.83605225833432
 31
0.0
  0
LINE
  5
DC6
  8
1
 10
120.45681378323479
 20
120.8360522583351
 30
0.0
 11
120.45681378323479
 21
90.83605225833432
 31
0.0
  0
LINE
  5
DC7
  8
1
 10
92.296346127684899
 20
105.83605225833421
 30
0.0
 11
32.296346127684899
 21
105.83605225833421
 31
0.0
  0
LINE
  5
DC8
  8
1
 10
140.4568137832342
 20
79.466521542130025
 30
0.0
 11
140.45681378323391
 21
19.466521542130039
 31
0.0
  0
LINE
  5
DC9
  8
1
 10
120.45681378323479
 20
79.466521542130025
 30
0.0
 11
120.45681378323491
 21
19.466521542130039
 31
0.0
  0
LINE
  5
DCA
  8
1
 10
155.45681378323431
 20
105.83605225833421
 30
0.0
 11
105.456813783234
 21
105.83605225833421
 31
0.0
  0
TEXT
  5
ECE
  8
0
 62
     3
 10
0.0
 20
0.0
 30
0.0
 40
10.0
  1
L5-SPH4020N3
  7
STANDARD1
  0
ENDSEC
  0
EOF
