  0
SECTION
  2
HEADER
  9
$ACADVER
  1
AC1009
  9
$INSBASE
 10
0.0
 20
0.0
 30
0.0
  9
$EXTMIN
 10
0.0
 20
-2.960436562073669
 30
0.0
  9
$EXTMAX
 10
203.59526693020319
 20
154.2149576948043
 30
0.0
  9
$LIMMIN
 10
0.0
 20
0.0
  9
$LIMMAX
 10
375.0
 20
278.0
  9
$ORTHOMODE
 70
     0
  9
$REGENMODE
 70
     1
  9
$FILLMODE
 70
     1
  9
$QTEXTMODE
 70
     0
  9
$MIRRTEXT
 70
     0
  9
$DRAGMODE
 70
     2
  9
$LTSCALE
 40
10.0
  9
$OSMODE
 70
  3071
  9
$ATTMODE
 70
     1
  9
$TEXTSIZE
 40
0.2
  9
$TRACEWID
 40
0.05
  9
$TEXTSTYLE
  7
STANDARD
  9
$CLAYER
  8
0
  9
$CELTYPE
  6
BYLAYER
  9
$CECOLOR
 62
   256
  9
$DIMSCALE
 40
1.0
  9
$DIMASZ
 40
3.0
  9
$DIMEXO
 40
1.0
  9
$DIMDLI
 40
6.0
  9
$DIMRND
 40
0.0
  9
$DIMDLE
 40
0.0
  9
$DIMEXE
 40
1.0
  9
$DIMTP
 40
495.0
  9
$DIMTM
 40
0.0
  9
$DIMTXT
 40
3.0
  9
$DIMCEN
 40
0.0
  9
$DIMTSZ
 40
0.0
  9
$DIMTOL
 70
     0
  9
$DIMLIM
 70
     0
  9
$DIMTIH
 70
     0
  9
$DIMTOH
 70
     0
  9
$DIMSE1
 70
     0
  9
$DIMSE2
 70
     0
  9
$DIMTAD
 70
     1
  9
$DIMZIN
 70
     0
  9
$DIMBLK
  1

  9
$DIMASO
 70
     0
  9
$DIMSHO
 70
     0
  9
$DIMPOST
  1

  9
$DIMAPOST
  1

  9
$DIMALT
 70
     0
  9
$DIMALTD
 70
     2
  9
$DIMALTF
 40
25.399999999999999
  9
$DIMLFAC
 40
1.0
  9
$DIMTOFL
 70
     1
  9
$DIMTVP
 40
0.0
  9
$DIMTIX
 70
     1
  9
$DIMSOXD
 70
     0
  9
$DIMSAH
 70
     0
  9
$DIMBLK1
  1

  9
$DIMBLK2
  1

  9
$DIMSTYLE
  2
STANDARD
  9
$DIMCLRD
 70
     0
  9
$DIMCLRE
 70
     0
  9
$DIMCLRT
 70
     4
  9
$DIMTFAC
 40
1.0
  9
$DIMGAP
 40
1.0
  9
$LUNITS
 70
     2
  9
$LUPREC
 70
     4
  9
$SKETCHINC
 40
0.1
  9
$FILLETRAD
 40
0.0
  9
$AUNITS
 70
     0
  9
$AUPREC
 70
     0
  9
$MENU
  1
C:\R13\WIN\SUPPORT\ACAD-I
  9
$ELEVATION
 40
0.0
  9
$PELEVATION
 40
0.0
  9
$THICKNESS
 40
0.0
  9
$LIMCHECK
 70
     0
  9
$BLIPMODE
 70
     0
  9
$CHAMFERA
 40
0.0
  9
$CHAMFERB
 40
0.0
  9
$SKPOLY
 70
     0
  9
$TDCREATE
 40
2450834.4199027782
  9
$TDUPDATE
 40
2456597.5470822798
  9
$TDINDWG
 40
0.1028983333
  9
$TDUSRTIMER
 40
0.1028983333
  9
$USRTIMER
 70
     1
  9
$ANGBASE
 50
0.0
  9
$ANGDIR
 70
     0
  9
$PDMODE
 70
     0
  9
$PDSIZE
 40
0.0
  9
$PLINEWID
 40
0.0
  9
$COORDS
 70
     1
  9
$SPLFRAME
 70
     0
  9
$SPLINETYPE
 70
     6
  9
$SPLINESEGS
 70
     8
  9
$ATTDIA
 70
     0
  9
$ATTREQ
 70
     1
  9
$HANDLING
 70
     1
  9
$HANDSEED
  5
10EC
  9
$SURFTAB1
 70
     6
  9
$SURFTAB2
 70
     6
  9
$SURFTYPE
 70
     6
  9
$SURFU
 70
     6
  9
$SURFV
 70
     6
  9
$UCSNAME
  2

  9
$UCSORG
 10
0.0
 20
0.0
 30
0.0
  9
$UCSXDIR
 10
1.0
 20
0.0
 30
0.0
  9
$UCSYDIR
 10
0.0
 20
1.0
 30
0.0
  9
$PUCSNAME
  2

  9
$PUCSORG
 10
0.0
 20
0.0
 30
0.0
  9
$PUCSXDIR
 10
1.0
 20
0.0
 30
0.0
  9
$PUCSYDIR
 10
0.0
 20
1.0
 30
0.0
  9
$USERI1
 70
     4
  9
$USERI2
 70
     1
  9
$USERI3
 70
     0
  9
$USERI4
 70
     0
  9
$USERI5
 70
     0
  9
$USERR1
 40
1.0
  9
$USERR2
 40
3.0
  9
$USERR3
 40
3.0
  9
$USERR4
 40
3.0
  9
$USERR5
 40
10.0
  9
$WORLDVIEW
 70
     1
  9
$SHADEDGE
 70
     3
  9
$SHADEDIF
 70
    70
  9
$TILEMODE
 70
     1
  9
$MAXACTVP
 70
    16
  9
$PLIMCHECK
 70
     0
  9
$PEXTMIN
 10
1.0000000000000000E+020
 20
1.0000000000000000E+020
 30
1.0000000000000000E+020
  9
$PEXTMAX
 10
-1.0000000000000000E+020
 20
-1.0000000000000000E+020
 30
-1.0000000000000000E+020
  9
$PLIMMIN
 10
0.0
 20
0.0
  9
$PLIMMAX
 10
12.0
 20
9.0
  9
$UNITMODE
 70
     0
  9
$VISRETAIN
 70
     0
  9
$PLINEGEN
 70
     0
  9
$PSLTSCALE
 70
     0
  0
ENDSEC
  0
SECTION
  2
TABLES
  0
TABLE
  2
VPORT
 70
     1
  0
VPORT
  2
*ACTIVE
 70
     0
 10
0.0
 20
0.0
 11
1.0
 21
1.0
 12
187.4942783906524
 22
167.7204668657281
 13
0.0
 23
0.0
 14
10.0
 24
10.0
 15
10.0
 25
10.0
 16
0.0
 26
0.0
 36
1.0
 17
0.0
 27
0.0
 37
0.0
 40
344.62625130655709
 41
1.9089595375722539
 42
50.0
 43
0.0
 44
0.0
 50
0.0
 51
0.0
 71
     0
 72
   100
 73
     1
 74
     0
 75
     0
 76
     0
 77
     0
 78
     0
  0
ENDTAB
  0
TABLE
  2
LTYPE
 70
     3
  0
LTYPE
  2
CONTINUOUS
 70
     0
  3
Solid Line
 72
    65
 73
     0
 40
0.0
  0
LTYPE
  2
CENTER
 70
     0
  3
____ _ ____ _ ____ _ ____ _ ____ _ ____ _ ____
 72
    65
 73
     4
 40
2.0
 49
1.25
 49
-0.25
 49
0.25
 49
-0.25
  0
LTYPE
  2
PHANTOM2
 70
     0
  3
___ _ _ ___ _ _ ___ _ _ ___ _ _
 72
    65
 73
     6
 40
1.25
 49
0.625
 49
-0.125
 49
0.125
 49
-0.125
 49
0.125
 49
-0.125
  0
ENDTAB
  0
TABLE
  2
LAYER
 70
     2
  0
LAYER
  2
0
 70
     0
 62
     7
  6
CONTINUOUS
  0
LAYER
  2
1
 70
     0
 62
     1
  6
CENTER
  0
ENDTAB
  0
TABLE
  2
STYLE
 70
     2
  0
STYLE
  2
STANDARD
 70
     0
 40
0.0
 41
1.0
 50
0.0
 71
     0
 42
0.2
  3
SIMPLEX
  4
BIGFONT
  0
STYLE
  2
STANDARD1
 70
     0
 40
0.0
 41
1.0
 50
0.0
 71
     0
 42
3.0
  3
txt
  4

  0
ENDTAB
  0
TABLE
  2
VIEW
 70
     0
  0
ENDTAB
  0
TABLE
  2
UCS
 70
     0
  0
ENDTAB
  0
TABLE
  2
APPID
 70
    38
  0
APPID
  2
ACAD
 70
     0
  0
APPID
  2
GENIUS_GENOBJ_13
 70
     0
  0
APPID
  2
GENIUS_GENODEF_13
 70
     0
  0
APPID
  2
GENIUS_GENOENT_13
 70
     0
  0
APPID
  2
GENIUS_GENOLIS_13
 70
     0
  0
APPID
  2
GENIUS_GENOREF_13
 70
     0
  0
APPID
  2
GENIUS_GENOBJ-N-TIT_13
 70
     0
  0
APPID
  2
GENIUS_GENTITLE_13
 70
     0
  0
APPID
  2
GENIUS_GENZVEED_13
 70
     0
  0
APPID
  2
GENIUS_GENOBJ-N-FIL_13
 70
     0
  0
APPID
  2
GENIUS_GENOBJ-N-CRS_13
 70
     0
  0
APPID
  2
GENIUS_GEFINERT_13
 70
     0
  0
APPID
  2
GENIUS_GENOBJ-F-INER_13
 70
     0
  0
APPID
  2
GENIUS_GENOBJ-N-ZOO_13
 70
     0
  0
APPID
  2
GENIUS_GENZOO_13
 70
     0
  0
APPID
  2
GENIUS_GENOBJ-F-TOL_13
 70
     0
  0
APPID
  2
GENIUS_GENOBJ-N-RSSYM_13
 70
     0
  0
APPID
  2
GENIUS_GENSYMENT_13
 70
     0
  0
APPID
  2
GENIUS_GENBH_13
 70
     0
  0
APPID
  2
GENIUS_GENOBJ-NBEHI-BHF_13
 70
     0
  0
APPID
  2
GENIUS_GENOBJ-NBEHI-BHB_13
 70
     0
  0
APPID
  2
GENIUS_GENOBJ-F-PART_13
 70
     0
  0
APPID
  2
GENIUS_GEFSTDP_13
 70
     0
  0
APPID
  2
GENIUS_GENOBJ-N-LEADER_13
 70
     0
  0
APPID
  2
GENIUS_GENOBJ-N-REV_13
 70
     0
  0
APPID
  2
GENIUS_GENCFG_13
 70
     0
  0
APPID
  2
GENIUS_GENCFG0_13
 70
     0
  0
APPID
  2
GENIUS_GENCFG1_13
 70
     0
  0
APPID
  2
GENIUS_GENCFG2_13
 70
     0
  0
APPID
  2
GENIUS_GENCFG3_13
 70
     0
  0
APPID
  2
GENIUS_GEVCFG0_13
 70
     0
  0
APPID
  2
GENIUS_GENCFG4_13
 70
     0
  0
APPID
  2
GENIUS_GENOBJ-N-REC_13
 70
     0
  0
APPID
  2
GENIUS_GENFIL_13
 70
     0
  0
APPID
  2
GENIUS_GENOBJ-N-CHA_13
 70
     0
  0
APPID
  2
GENIUS_GENREC_13
 70
     0
  0
APPID
  2
ACAD_MLEADERVER
 70
     0
  0
APPID
  2
ACAD_NAV_VCDISPLAY
 70
     0
  0
ENDTAB
  0
TABLE
  2
DIMSTYLE
 70
     1
  0
DIMSTYLE
  2
STANDARD
 70
     0
  3

  4

  5

  6

  7

 40
1.0
 41
0.18
 42
0.0625
 43
0.38
 44
0.18
 45
0.0
 46
0.0
 47
0.0
 48
0.0
140
0.18
141
0.09
142
0.0
143
25.399999999999999
144
1.0
145
0.0
146
1.0
147
0.09
 71
     0
 72
     0
 73
     1
 74
     1
 75
     0
 76
     0
 77
     0
 78
     0
170
     0
171
     2
172
     0
173
     0
174
     0
175
     0
176
     0
177
     0
178
     0
  0
ENDTAB
  0
ENDSEC
  0
SECTION
  2
BLOCKS
  0
BLOCK
  8
0
  2
$MODEL_SPACE
 70
     0
 10
0.0
 20
0.0
 30
0.0
  3
$MODEL_SPACE
  1

  0
ENDBLK
  5
FAD
  8
0
  0
BLOCK
 67
     1
  8
0
  2
$PAPER_SPACE
 70
     0
 10
0.0
 20
0.0
 30
0.0
  3
$PAPER_SPACE
  1

  0
ENDBLK
  5
FAB
 67
     1
  8
0
  0
BLOCK
  8
0
  2
STDGX5
 70
     0
 10
0.0
 20
0.0
 30
0.0
  3
STDGX5
  1

  0
ENDBLK
  5
4F
  8
0
  0
ENDSEC
  0
SECTION
  2
ENTITIES
  0
INSERT
  5
DE
  8
0
  2
STDGX5
 10
0.0
 20
0.0
 30
0.0
  0
INSERT
  5
DF
  8
0
  2
STDGX5
 10
0.0
 20
0.0
 30
0.0
  0
INSERT
  5
15C
  8
0
  2
STDGX5
 10
275.0
 20
0.0
 30
0.0
  0
INSERT
  5
15D
  8
0
  2
STDGX5
 10
275.0
 20
0.0
 30
0.0
  0
INSERT
  5
314
  8
0
  2
STDGX5
 10
0.0
 20
0.0
 30
0.0
  0
INSERT
  5
315
  8
0
  2
STDGX5
 10
0.0
 20
0.0
 30
0.0
  0
INSERT
  5
316
  8
0
  2
STDGX5
 10
275.0
 20
0.0
 30
0.0
  0
INSERT
  5
317
  8
0
  2
STDGX5
 10
275.0
 20
0.0
 30
0.0
  0
INSERT
  5
4EF
  8
0
  2
STDGX5
 10
0.0
 20
0.0
 30
0.0
  0
INSERT
  5
4F0
  8
0
  2
STDGX5
 10
0.0
 20
0.0
 30
0.0
  0
INSERT
  5
4F1
  8
0
  2
STDGX5
 10
275.0
 20
0.0
 30
0.0
  0
INSERT
  5
4F2
  8
0
  2
STDGX5
 10
275.0
 20
0.0
 30
0.0
  0
CIRCLE
  5
E89
  8
0
 10
96.931063963906112
 20
139.2149576948033
 30
0.0
 40
2.149999999999999
1001
GENIUS_GENOREF_13
1005
0
  0
CIRCLE
  5
EBC
  8
0
 10
116.9310639639061
 20
139.2149576948033
 30
0.0
 40
2.149999999999999
1001
GENIUS_GENOREF_13
1005
0
  0
LINE
  5
EBD
  8
0
 10
87.731063963906109
 20
136.7149576948033
 30
0.0
 11
88.431063963905359
 21
136.7149576948033
 31
0.0
  0
ARC
  5
EBE
  8
0
 10
88.431063963905359
 20
136.41495769480329
 30
0.0
 40
0.3000000000000114
 50
0.0
 51
90.0
  0
LINE
  5
EBF
  8
0
 10
88.731063963905385
 20
136.41495769480329
 30
0.0
 11
88.731063963905342
 21
134.29736930871309
 31
0.0
  0
ARC
  5
EC0
  8
0
 10
89.563475577815169
 20
134.29736930871309
 30
0.0
 40
0.8324116139098425
 50
180.0
 51
315.0000000000594
  0
LINE
  5
EC1
  8
0
 10
90.152079474749897
 20
133.70876541177969
 30
0.0
 11
92.402384307466519
 21
135.95907024450091
 31
0.0
  0
ARC
  5
EC2
  8
0
 10
90.281063963904757
 20
138.08039058805841
 30
0.0
 40
3.0000000000000191
 50
315.00000000005667
 51
359.99999999999892
  0
LINE
  5
EC3
  8
0
 10
93.281063963904785
 20
138.08039058805841
 30
0.0
 11
93.281063963904785
 21
140.3495248015515
 31
0.0
  0
ARC
  5
EC4
  8
0
 10
90.281063963904757
 20
140.3495248015515
 30
0.0
 40
3.0000000000000262
 50
0.0
 51
45.000000000026127
  0
LINE
  5
EC5
  8
0
 10
92.402384307463436
 20
142.47084514511221
 30
0.0
 11
90.152079474745065
 21
144.7211499778285
 31
0.0
  0
ARC
  5
EC6
  8
0
 10
89.563475577812881
 20
144.13254608089579
 30
0.0
 40
0.8324116139075043
 50
45.000000000024073
 51
180.0
  0
LINE
  5
EC7
  8
0
 10
88.731063963905385
 20
144.13254608089579
 30
0.0
 11
88.731063963905385
 21
142.01495769480329
 31
0.0
  0
ARC
  5
EC8
  8
0
 10
88.431063963905373
 20
142.01495769480329
 30
0.0
 40
0.3000000000000114
 50
270.0
 51
0.0
  0
LINE
  5
EC9
  8
0
 10
88.431063963905373
 20
141.7149576948033
 30
0.0
 11
87.731063963906109
 21
141.7149576948033
 31
0.0
  0
LINE
  5
ECA
  8
0
 10
126.1310639639061
 20
141.7149576948033
 30
0.0
 11
125.43106396390451
 21
141.7149576948033
 31
0.0
  0
ARC
  5
ECB
  8
0
 10
125.43106396390451
 20
142.01495769480329
 30
0.0
 40
0.3000000000000114
 50
180.0
 51
269.99999999999449
  0
LINE
  5
ECC
  8
0
 10
125.1310639639045
 20
142.01495769480329
 30
0.0
 11
125.1310639639045
 21
144.1325460808857
 31
0.0
  0
ARC
  5
ECD
  8
0
 10
124.2986523499868
 20
144.1325460808857
 30
0.0
 40
0.8324116139176992
 50
0.0
 51
135.00000000004289
  0
LINE
  5
ECE
  8
0
 10
123.7100484530467
 20
144.72114997782489
 30
0.0
 11
121.459743620347
 21
142.4708451451217
 31
0.0
  0
ARC
  5
ECF
  8
0
 10
123.58106396390809
 20
140.34952480156369
 30
0.0
 40
2.9999999999999432
 50
135.000000000043
 51
180.00000000007921
  0
LINE
  5
ED0
  8
0
 10
120.58106396390821
 20
140.34952480155951
 30
0.0
 11
120.5810639639114
 21
138.08039058805801
 31
0.0
  0
ARC
  5
ED1
  8
0
 10
123.5810639639114
 20
138.0803905880621
 30
0.0
 40
3.0
 50
180.00000000007921
 51
225.0000000000403
  0
LINE
  5
ED2
  8
0
 10
121.45974362035319
 20
135.95907024450099
 30
0.0
 11
123.71004845308251
 21
133.708765411775
 31
0.0
  0
ARC
  5
ED3
  8
0
 10
124.2986523500072
 20
134.29736930870061
 30
0.0
 40
0.8324116138971724
 50
225.0000000000436
 51
359.99999999999608
  0
LINE
  5
ED4
  8
0
 10
125.1310639639044
 20
134.2973693087005
 30
0.0
 11
125.1310639639045
 21
136.41495769480341
 31
0.0
  0
ARC
  5
ED5
  8
0
 10
125.43106396390451
 20
136.41495769480341
 30
0.0
 40
0.3000000000000114
 50
90.0
 51
180.0
  0
LINE
  5
ED6
  8
0
 10
125.43106396390451
 20
136.7149576948035
 30
0.0
 11
126.1310639639061
 21
136.71495769480339
 31
0.0
  0
LINE
  5
ED7
  8
0
 10
86.931063963906084
 20
142.51495769480329
 30
0.0
 11
86.931063963906084
 21
147.21495769480291
 31
0.0
  0
ARC
  5
ED8
  8
0
 10
88.931063963906098
 20
147.21495769480291
 30
0.0
 40
2.0
 50
90.0
 51
180.0
  0
ARC
  5
ED9
  8
0
 10
87.731063963906109
 20
142.51495769480329
 30
0.0
 40
0.8
 50
180.0
 51
270.0
1001
GENIUS_GENODEF_13
1002
{
1000
HIER
1070
     0
1002
}
1002
{
1000
MANEDIT
1070
     0
1002
}
1002
{
1000
NOSEL
1070
     0
1002
}
1002
{
1000
BEHIND
1070
     0
1002
}
1002
{
1000
REACTOR
1002
}
1001
GENIUS_GENOBJ-N-FIL_13
1002
{
1000
OWNER
1000
GEN
1002
}
  0
LINE
  5
EDA
  8
0
 10
126.9310639639061
 20
135.91495769480341
 30
0.0
 11
126.9310639639061
 21
131.21495769480291
 31
0.0
  0
ARC
  5
EDB
  8
0
 10
124.9310639639061
 20
131.21495769480291
 30
0.0
 40
2.0
 50
270.0
 51
0.0
  0
LINE
  5
EDC
  8
0
 10
124.9310639639061
 20
129.21495769480291
 30
0.0
 11
88.931063963906098
 21
129.21495769480291
 31
0.0
  0
ARC
  5
EDD
  8
0
 10
88.931063963906098
 20
131.21495769480291
 30
0.0
 40
2.0
 50
180.0
 51
270.0
  0
LINE
  5
EDE
  8
0
 10
86.931063963906084
 20
131.21495769480291
 30
0.0
 11
86.931063963906084
 21
135.91495769480329
 31
0.0
  0
ARC
  5
EDF
  8
0
 10
87.731063963906109
 20
135.91495769480329
 30
0.0
 40
0.8
 50
90.0
 51
180.0
1001
GENIUS_GENODEF_13
1002
{
1000
HIER
1070
     0
1002
}
1002
{
1000
MANEDIT
1070
     0
1002
}
1002
{
1000
NOSEL
1070
     0
1002
}
1002
{
1000
BEHIND
1070
     0
1002
}
1002
{
1000
REACTOR
1002
}
1001
GENIUS_GENOBJ-N-FIL_13
1002
{
1000
OWNER
1000
GEN
1002
}
  0
LINE
  5
EE0
  8
0
 10
88.931063963906098
 20
149.21495769480291
 30
0.0
 11
124.9310639639061
 21
149.21495769480291
 31
0.0
  0
ARC
  5
EE1
  8
0
 10
124.9310639639061
 20
147.21495769480291
 30
0.0
 40
2.0
 50
0.0
 51
90.0
  0
LINE
  5
EE2
  8
0
 10
126.9310639639061
 20
147.21495769480291
 30
0.0
 11
126.9310639639061
 21
142.51495769480329
 31
0.0
  0
ARC
  5
EE3
  8
0
 10
126.1310639639061
 20
142.51495769480329
 30
0.0
 40
0.8
 50
270.0
 51
0.0
1001
GENIUS_GENODEF_13
1002
{
1000
HIER
1070
     0
1002
}
1002
{
1000
MANEDIT
1070
     0
1002
}
1002
{
1000
NOSEL
1070
     0
1002
}
1002
{
1000
BEHIND
1070
     0
1002
}
1002
{
1000
REACTOR
1002
}
1001
GENIUS_GENOBJ-N-FIL_13
1002
{
1000
OWNER
1000
GEN
1002
}
  0
ARC
  5
EE4
  8
0
 10
126.1310639639061
 20
135.91495769480341
 30
0.0
 40
0.8
 50
0.0
 51
89.999999999994913
1001
GENIUS_GENODEF_13
1002
{
1000
HIER
1070
     0
1002
}
1002
{
1000
MANEDIT
1070
     0
1002
}
1002
{
1000
NOSEL
1070
     0
1002
}
1002
{
1000
BEHIND
1070
     0
1002
}
1002
{
1000
REACTOR
1002
}
1001
GENIUS_GENOBJ-N-FIL_13
1002
{
1000
OWNER
1000
GEN
1002
}
  0
LINE
  5
EE5
  8
0
 10
198.59526693020319
 20
141.7149576948033
 30
0.0
 11
148.59526693020319
 21
141.7149576948033
 31
0.0
  0
LINE
  5
EE6
  8
0
 10
198.59526693020319
 20
136.7149576948033
 30
0.0
 11
148.59526693020319
 21
136.7149576948033
 31
0.0
  0
LINE
  5
EF7
  8
0
 10
126.9310639639051
 20
108.3740582803476
 30
0.0
 11
86.931063963906084
 21
108.3740582803476
 31
0.0
  0
LINE
  5
EF8
  8
0
 10
86.931063963906084
 20
108.3740582803476
 30
0.0
 11
86.931063963906126
 21
58.374058280347583
 31
0.0
  0
LINE
  5
EFA
  8
0
 10
126.9310639639052
 20
58.374058280347583
 30
0.0
 11
126.9310639639051
 21
108.3740582803476
 31
0.0
  0
ARC
  5
EFB
  8
0
 10
94.131063963905433
 20
130.7149576948041
 30
0.0
 40
0.3000000000000114
 50
359.99999999987517
 51
89.999999999891443
  0
LINE
  5
EFC
  8
0
 10
94.131063963906016
 20
131.01495769480411
 30
0.0
 11
92.013475577803703
 21
131.01495769480809
 31
0.0
  0
ARC
  5
EFD
  8
0
 10
92.013475577805252
 20
131.84736930870861
 30
0.0
 40
0.83241161390049
 50
135.0000000000567
 51
269.99999999989433
  0
LINE
  5
EFE
  8
0
 10
91.424871680877203
 20
132.43597320563549
 30
0.0
 11
93.675176513598373
 21
134.68627803836119
 31
0.0
  0
ARC
  5
EFF
  8
0
 10
95.796496857160093
 20
132.5649576948037
 30
0.0
 40
2.999999999999964
 50
89.999999999995666
 51
135.00000000005639
  0
LINE
  5
F00
  8
0
 10
95.796496857160335
 20
135.5649576948037
 30
0.0
 11
98.065631070660174
 21
135.5649576948035
 31
0.0
  0
ARC
  5
F01
  8
0
 10
98.065631070660061
 20
132.5649576948035
 30
0.0
 40
3.0
 50
45.000000000026859
 51
89.999999999997826
  0
LINE
  5
F02
  8
0
 10
100.1869514142187
 20
134.68627803836409
 30
0.0
 11
102.43725624692669
 21
132.4359732056582
 31
0.0
  0
ARC
  5
F03
  8
0
 10
101.8486523499881
 20
131.84736930871901
 30
0.0
 40
0.8324116139166367
 50
270.00000000003132
 51
45.00000000002629
  0
LINE
  5
F04
  8
0
 10
101.8486523499885
 20
131.0149576948024
 30
0.0
 11
99.731063963905285
 21
131.01495769480121
 31
0.0
  0
ARC
  5
F05
  8
0
 10
99.731063963905456
 20
130.71495769480109
 30
0.0
 40
0.3000000000000114
 50
90.000000000032571
 51
180.0000000001248
  0
LINE
  5
F06
  8
0
 10
99.431063963905444
 20
130.71495769480049
 30
0.0
 11
99.431063963905842
 21
130.0149576948036
 31
0.0
  0
ARC
  5
F07
  8
0
 10
99.331063963905834
 20
130.0149576948034
 30
0.0
 40
0.0999999999999943
 50
270.00000000001631
 51
0.0000000001302755
  0
LINE
  5
F08
  8
0
 10
99.331063963905876
 20
129.91495769480341
 30
0.0
 11
94.531063963905069
 21
129.9149576948025
 31
0.0
  0
ARC
  5
F09
  8
0
 10
94.531063963905069
 20
130.01495769480249
 30
0.0
 40
0.1000000000000227
 50
179.999999999886
 51
270.0
  0
LINE
  5
F0A
  8
0
 10
94.431063963905046
 20
130.01495769480269
 30
0.0
 11
94.431063963905444
 21
130.71495769480339
 31
0.0
  0
LINE
  5
F0B
  8
0
 10
98.065631070637494
 20
142.8649576948068
 30
0.0
 11
95.796496857159624
 21
142.86495769480669
 31
0.0
  0
ARC
  5
F0C
  8
0
 10
95.796496857159624
 20
145.8649576948068
 30
0.0
 40
3.000000000000028
 50
225.00000000002541
 51
269.99999999999949
  0
LINE
  5
F0D
  8
0
 10
93.675176513600917
 20
143.74363735124609
 30
0.0
 11
91.424871680879136
 21
145.99394218396591
 31
0.0
  0
ARC
  5
F0E
  8
0
 10
92.013475577808947
 20
146.58254608089621
 30
0.0
 40
0.832411613904116
 50
90.000000000046938
 51
225.0000000000222
  0
LINE
  5
F0F
  8
0
 10
92.013475577808265
 20
147.41495769480039
 30
0.0
 11
94.131063963905717
 21
147.41495769480221
 31
0.0
  0
ARC
  5
F10
  8
0
 10
94.131063963905433
 20
147.71495769480219
 30
0.0
 40
0.3000000000000398
 50
270.00000000005429
 51
359.99999999987517
  0
LINE
  5
F11
  8
0
 10
94.431063963905473
 20
147.7149576948016
 30
0.0
 11
94.431063963905885
 21
148.4149576948038
 31
0.0
  0
ARC
  5
F12
  8
0
 10
94.531063963905865
 20
148.4149576948036
 30
0.0
 40
0.0999999999999943
 50
90.000000000048857
 51
179.999999999886
  0
LINE
  5
F13
  8
0
 10
94.531063963905794
 20
148.5149576948036
 30
0.0
 11
99.331063963904711
 21
148.5149576948082
 31
0.0
  0
ARC
  5
F14
  8
0
 10
99.331063963904796
 20
148.41495769480821
 30
0.0
 40
0.0999999999999943
 50
359.99999999998369
 51
90.000000000048857
  0
LINE
  5
F15
  8
0
 10
99.431063963904791
 20
148.41495769480821
 30
0.0
 11
99.431063963904791
 21
147.6898428445416
 31
0.0
  0
ARC
  5
F16
  8
0
 10
99.731063963904845
 20
147.6898428445416
 30
0.0
 40
0.3000000000000398
 50
180.0
 51
270.34872863342548
  0
LINE
  5
F17
  8
0
 10
99.732889891485968
 20
147.3898484012789
 30
0.0
 11
101.85226116434259
 21
147.40274803508461
 31
0.0
  0
ARC
  5
F18
  8
0
 10
101.8572750937395
 20
146.5789744235139
 30
0.0
 40
0.8237888701652929
 50
315.0000000000573
 51
90.348728633428394
  0
LINE
  5
F19
  8
0
 10
102.4397817901
 20
145.9964677271546
 30
0.0
 11
100.1869514141992
 21
143.7436373512493
 31
0.0
  0
ARC
  5
F1A
  8
0
 10
98.065631070637494
 20
145.8649576948068
 30
0.0
 40
2.999999999999964
 50
270.0
 51
315.00000000005798
  0
LINE
  5
F1B
  8
0
 10
114.1310639639055
 20
131.01495769480351
 30
0.0
 11
112.01347557780871
 21
131.01495769480411
 31
0.0
  0
ARC
  5
F1C
  8
0
 10
112.013475577809
 20
131.84736930870829
 30
0.0
 40
0.8324116139042133
 50
135.00000000004289
 51
269.99999999998238
  0
LINE
  5
F1D
  8
0
 10
111.4248716808784
 20
132.43597320563799
 30
0.0
 11
113.6751765135988
 21
134.68627803836171
 31
0.0
  0
ARC
  5
F1E
  8
0
 10
115.79649685715999
 20
132.5649576948037
 30
0.0
 40
2.999999999999964
 50
89.999999999995666
 51
135.0000000000426
  0
LINE
  5
F1F
  8
0
 10
115.79649685716019
 20
135.5649576948037
 30
0.0
 11
118.0656310706601
 21
135.56495769480361
 31
0.0
  0
ARC
  5
F20
  8
0
 10
118.06563107066
 20
132.56495769480361
 30
0.0
 40
2.9999999999999711
 50
45.000000000039918
 51
89.999999999997286
  0
LINE
  5
F21
  8
0
 10
120.1869514142181
 20
134.68627803836469
 30
0.0
 11
122.43725624692649
 21
132.43597320565951
 31
0.0
  0
ARC
  5
F22
  8
0
 10
121.8486523499874
 20
131.84736930871961
 30
0.0
 40
0.8324116139175208
 50
270.00000000003132
 51
45.00000000004011
  0
LINE
  5
F23
  8
0
 10
121.8486523499878
 20
131.01495769480209
 30
0.0
 11
119.73106396390889
 21
131.01495769480121
 31
0.0
  0
ARC
  5
F24
  8
0
 10
119.73106396390909
 20
130.71495769480109
 30
0.0
 40
0.3000000000000114
 50
90.000000000032571
 51
180.0000000008196
  0
LINE
  5
F25
  8
0
 10
119.4310639639091
 20
130.71495769479691
 30
0.0
 11
119.4310639639119
 21
130.01495769480491
 31
0.0
  0
ARC
  5
F26
  8
0
 10
119.3310639639119
 20
130.0149576948034
 30
0.0
 40
0.0999999999999943
 50
270.00000000001631
 51
0.000000000814222
  0
LINE
  5
F27
  8
0
 10
119.3310639639119
 20
129.91495769480341
 30
0.0
 11
114.531063963905
 21
129.91495769480241
 31
0.0
  0
ARC
  5
F28
  8
0
 10
114.531063963905
 20
130.0149576948024
 30
0.0
 40
0.0999999999999943
 50
179.99999999986969
 51
270.00000000001631
  0
LINE
  5
F29
  8
0
 10
114.431063963905
 20
130.0149576948026
 30
0.0
 11
114.4310639639054
 21
130.71495769480279
 31
0.0
  0
ARC
  5
F2A
  8
0
 10
114.1310639639054
 20
130.7149576948035
 30
0.0
 40
0.3000000000000114
 50
359.99999999987517
 51
89.999999999983714
  0
LINE
  5
F2B
  8
0
 10
108.3452775262889
 20
131.9019634633172
 30
0.0
 11
112.40238430746589
 21
135.9590702445004
 31
0.0
  0
ARC
  5
F2C
  8
0
 10
110.2810639639047
 20
138.08039058805849
 30
0.0
 40
2.999999999999984
 50
315.00000000004297
 51
0.0000000000005428
  0
LINE
  5
F2D
  8
0
 10
113.2810639639047
 20
138.08039058805849
 30
0.0
 11
113.2810639639046
 21
140.34952480154789
 31
0.0
  0
ARC
  5
F2E
  8
0
 10
110.2810639639046
 20
140.34952480154789
 30
0.0
 40
2.9999999999999711
 50
0.0000000000005428
 51
45.000000000040309
  0
LINE
  5
F2F
  8
0
 10
112.4023843074628
 20
142.470845145109
 30
0.0
 11
108.3452775262617
 21
146.52795192630421
 31
0.0
  0
ARC
  5
F30
  8
0
 10
106.9310639638896
 20
145.11373836393011
 30
0.0
 40
1.999999999999996
 50
45.000000000040878
 51
135.00000000005821
  0
LINE
  5
F31
  8
0
 10
105.5168504015151
 20
146.52795192630171
 30
0.0
 11
101.4597436203464
 21
142.470845145125
 31
0.0
  0
ARC
  5
F32
  8
0
 10
103.58106396390821
 20
140.3495248015675
 30
0.0
 40
2.999999999999984
 50
135.00000000005829
 51
180.0000000000787
  0
LINE
  5
F33
  8
0
 10
100.58106396390821
 20
140.3495248015634
 30
0.0
 11
100.5810639639114
 21
138.08039058805801
 31
0.0
  0
ARC
  5
F34
  8
0
 10
103.5810639639114
 20
138.08039058806219
 30
0.0
 40
3.0
 50
180.0000000000787
 51
225.00000000002581
  0
LINE
  5
F35
  8
0
 10
101.4597436203527
 20
135.95907024450159
 30
0.0
 11
105.5168504015423
 21
131.90196346331561
 31
0.0
  0
ARC
  5
F36
  8
0
 10
106.9310639639147
 20
133.31617702568931
 30
0.0
 40
1.9999999999999549
 50
225.0000000000247
 51
315.00000000004258
  0
LINE
  5
F37
  8
0
 10
118.0656310706415
 20
142.86495769480561
 30
0.0
 11
115.7964968571598
 21
142.8649576948045
 31
0.0
  0
ARC
  5
F38
  8
0
 10
115.7964968571582
 20
145.8649576948045
 30
0.0
 40
2.9999999999999711
 50
225.0000000000399
 51
270.00000000002871
  0
LINE
  5
F39
  8
0
 10
113.67517651360011
 20
143.74363735124339
 30
0.0
 11
111.4248716808808
 21
145.9939421839596
 31
0.0
  0
ARC
  5
F3A
  8
0
 10
112.01347557781401
 20
146.58254608089371
 30
0.0
 40
0.8324116139092408
 50
89.999999999986315
 51
225.0000000000401
  0
LINE
  5
F3B
  8
0
 10
112.01347557781421
 20
147.41495769480289
 30
0.0
 11
114.13106396390531
 21
147.41495769480241
 31
0.0
  0
ARC
  5
F3C
  8
0
 10
114.1310639639054
 20
147.71495769480251
 30
0.0
 40
0.3000000000000398
 50
269.99999999998909
 51
359.99999999987517
  0
LINE
  5
F3D
  8
0
 10
114.4310639639054
 20
147.7149576948018
 30
0.0
 11
114.4310639639059
 21
148.41495769480841
 31
0.0
  0
ARC
  5
F3E
  8
0
 10
114.53106396390589
 20
148.41495769480821
 30
0.0
 40
0.0999999999999943
 50
90.0
 51
179.999999999886
  0
LINE
  5
F3F
  8
0
 10
114.53106396390589
 20
148.5149576948082
 30
0.0
 11
119.3310639639049
 21
148.5149576948082
 31
0.0
  0
ARC
  5
F40
  8
0
 10
119.3310639639049
 20
148.41495769480821
 30
0.0
 40
0.0999999999999943
 50
0.0000000001139911
 51
90.0
  0
LINE
  5
F41
  8
0
 10
119.4310639639049
 20
148.41495769480841
 30
0.0
 11
119.4310639639054
 21
147.71495769480251
 31
0.0
  0
ARC
  5
F42
  8
0
 10
119.7310639639054
 20
147.7149576948031
 30
0.0
 40
0.3000000000000114
 50
180.0000000001248
 51
269.9999999999402
  0
LINE
  5
F43
  8
0
 10
119.7310639639051
 20
147.41495769480309
 30
0.0
 11
121.84865235001121
 21
147.4149576948009
 31
0.0
  0
ARC
  5
F44
  8
0
 10
121.8486523500103
 20
146.58254608090641
 30
0.0
 40
0.8324116138945782
 50
315.00000000004428
 51
89.999999999939348
  0
LINE
  5
F45
  8
0
 10
122.437256246934
 20
145.99394218398351
 30
0.0
 11
120.1869514142013
 21
143.7436373512476
 31
0.0
  0
ARC
  5
F46
  8
0
 10
118.06563107063999
 20
145.8649576948057
 30
0.0
 40
3.000000000000024
 50
270.00000000002768
 51
315.00000000004383
  0
LINE
  5
F47
  8
0
 10
148.59526693020319
 20
149.21495769480291
 30
0.0
 11
198.59526693020319
 21
149.21495769480291
 31
0.0
  0
LINE
  5
F49
  8
0
 10
198.59526693020319
 20
129.21495769480291
 30
0.0
 11
148.59526693020319
 21
129.21495769480291
 31
0.0
  0
LINE
  5
F4A
  8
0
 10
148.59526693020319
 20
129.21495769480291
 30
0.0
 11
148.59526693020319
 21
149.21495769480291
 31
0.0
  0
LINE
  5
F4B
  8
0
 10
198.59526693020319
 20
129.21495769480291
 30
0.0
 11
198.59526693020319
 21
149.21495769480291
 31
0.0
  0
LINE
  5
F4C
  8
0
 10
126.9310639639051
 20
58.374058280347583
 30
0.0
 11
86.931063963906084
 21
58.374058280347583
 31
0.0
  0
LINE
  5
F4D
  8
1
 10
96.931063963906595
 20
154.2149576948043
 30
0.0
 11
96.931063963906595
 21
124.21495769480291
 31
0.0
  0
LINE
  5
F4E
  8
1
 10
116.9310639639061
 20
154.2149576948043
 30
0.0
 11
116.9310639639059
 21
124.21495769480291
 31
0.0
  0
LINE
  5
F4F
  8
1
 10
203.59526693020319
 20
139.21495769480339
 30
0.0
 11
143.59526693020319
 21
139.21495769480339
 31
0.0
  0
LINE
  5
F58
  8
1
 10
116.9310639639059
 20
113.3740582803476
 30
0.0
 11
116.9310639639056
 21
53.374058280347583
 31
0.0
  0
LINE
  5
F59
  8
1
 10
96.931063963906624
 20
113.3740582803476
 30
0.0
 11
96.931063963906681
 21
53.374058280347583
 31
0.0
  0
LINE
  5
F5A
  8
1
 10
131.9310639639061
 20
139.21495769480339
 30
0.0
 11
81.931063963905785
 21
139.2149576948033
 31
0.0
  0
TEXT
  5
105E
  8
0
 62
     3
 10
0.0
 20
0.0
 30
0.0
 40
10.0
  1
L5-SPH4020N4-3M
  7
STANDARD1
  0
ENDSEC
  0
EOF
