  0
SECTION
  2
HEADER
  9
$ACADVER
  1
AC1009
  9
$INSBASE
 10
0.0
 20
0.0
 30
0.0
  9
$EXTMIN
 10
0.0
 20
-2.960436562073669
 30
0.0
  9
$EXTMAX
 10
165.82677901440459
 20
97.214466663772498
 30
0.0
  9
$LIMMIN
 10
0.0
 20
0.0
  9
$LIMMAX
 10
275.0
 20
175.0
  9
$ORTHOMODE
 70
     0
  9
$REGENMODE
 70
     1
  9
$FILLMODE
 70
     1
  9
$QTEXTMODE
 70
     0
  9
$MIRRTEXT
 70
     0
  9
$DRAGMODE
 70
     2
  9
$LTSCALE
 40
10.0
  9
$OSMODE
 70
  3071
  9
$ATTMODE
 70
     1
  9
$TEXTSIZE
 40
0.2
  9
$TRACEWID
 40
0.05
  9
$TEXTSTYLE
  7
STANDARD
  9
$CLAYER
  8
0
  9
$CELTYPE
  6
BYLAYER
  9
$CECOLOR
 62
   256
  9
$DIMSCALE
 40
1.0
  9
$DIMASZ
 40
3.0
  9
$DIMEXO
 40
1.0
  9
$DIMDLI
 40
6.0
  9
$DIMRND
 40
0.0
  9
$DIMDLE
 40
0.0
  9
$DIMEXE
 40
1.0
  9
$DIMTP
 40
495.0
  9
$DIMTM
 40
0.0
  9
$DIMTXT
 40
3.0
  9
$DIMCEN
 40
0.0
  9
$DIMTSZ
 40
0.0
  9
$DIMTOL
 70
     0
  9
$DIMLIM
 70
     0
  9
$DIMTIH
 70
     0
  9
$DIMTOH
 70
     0
  9
$DIMSE1
 70
     0
  9
$DIMSE2
 70
     0
  9
$DIMTAD
 70
     1
  9
$DIMZIN
 70
     0
  9
$DIMBLK
  1

  9
$DIMASO
 70
     0
  9
$DIMSHO
 70
     0
  9
$DIMPOST
  1

  9
$DIMAPOST
  1

  9
$DIMALT
 70
     0
  9
$DIMALTD
 70
     2
  9
$DIMALTF
 40
25.399999999999999
  9
$DIMLFAC
 40
1.0
  9
$DIMTOFL
 70
     1
  9
$DIMTVP
 40
0.0
  9
$DIMTIX
 70
     1
  9
$DIMSOXD
 70
     0
  9
$DIMSAH
 70
     0
  9
$DIMBLK1
  1

  9
$DIMBLK2
  1

  9
$DIMSTYLE
  2
STANDARD
  9
$DIMCLRD
 70
     0
  9
$DIMCLRE
 70
     0
  9
$DIMCLRT
 70
     4
  9
$DIMTFAC
 40
1.0
  9
$DIMGAP
 40
1.0
  9
$LUNITS
 70
     2
  9
$LUPREC
 70
     4
  9
$SKETCHINC
 40
0.1
  9
$FILLETRAD
 40
0.0
  9
$AUNITS
 70
     0
  9
$AUPREC
 70
     0
  9
$MENU
  1
E:\r13\win\SUPPORT\ACAD
  9
$ELEVATION
 40
0.0
  9
$PELEVATION
 40
0.0
  9
$THICKNESS
 40
0.0
  9
$LIMCHECK
 70
     0
  9
$BLIPMODE
 70
     0
  9
$CHAMFERA
 40
0.0
  9
$CHAMFERB
 40
0.0
  9
$SKPOLY
 70
     0
  9
$TDCREATE
 40
2450653.5278402781
  9
$TDUPDATE
 40
2456597.5470896759
  9
$TDINDWG
 40
0.0362904861
  9
$TDUSRTIMER
 40
0.0362904861
  9
$USRTIMER
 70
     1
  9
$ANGBASE
 50
0.0
  9
$ANGDIR
 70
     0
  9
$PDMODE
 70
     0
  9
$PDSIZE
 40
0.0
  9
$PLINEWID
 40
0.0
  9
$COORDS
 70
     1
  9
$SPLFRAME
 70
     0
  9
$SPLINETYPE
 70
     6
  9
$SPLINESEGS
 70
     8
  9
$ATTDIA
 70
     0
  9
$ATTREQ
 70
     1
  9
$HANDLING
 70
     1
  9
$HANDSEED
  5
34C
  9
$SURFTAB1
 70
     6
  9
$SURFTAB2
 70
     6
  9
$SURFTYPE
 70
     6
  9
$SURFU
 70
     6
  9
$SURFV
 70
     6
  9
$UCSNAME
  2

  9
$UCSORG
 10
0.0
 20
0.0
 30
0.0
  9
$UCSXDIR
 10
1.0
 20
0.0
 30
0.0
  9
$UCSYDIR
 10
0.0
 20
1.0
 30
0.0
  9
$PUCSNAME
  2

  9
$PUCSORG
 10
0.0
 20
0.0
 30
0.0
  9
$PUCSXDIR
 10
1.0
 20
0.0
 30
0.0
  9
$PUCSYDIR
 10
0.0
 20
1.0
 30
0.0
  9
$USERI1
 70
     4
  9
$USERI2
 70
     1
  9
$USERI3
 70
     1
  9
$USERI4
 70
     0
  9
$USERI5
 70
     0
  9
$USERR1
 40
1.0
  9
$USERR2
 40
3.0
  9
$USERR3
 40
3.0
  9
$USERR4
 40
3.0
  9
$USERR5
 40
10.0
  9
$WORLDVIEW
 70
     1
  9
$SHADEDGE
 70
     3
  9
$SHADEDIF
 70
    70
  9
$TILEMODE
 70
     1
  9
$MAXACTVP
 70
    16
  9
$PLIMCHECK
 70
     0
  9
$PEXTMIN
 10
1.0000000000000000E+020
 20
1.0000000000000000E+020
 30
1.0000000000000000E+020
  9
$PEXTMAX
 10
-1.0000000000000000E+020
 20
-1.0000000000000000E+020
 30
-1.0000000000000000E+020
  9
$PLIMMIN
 10
0.0
 20
0.0
  9
$PLIMMAX
 10
12.0
 20
9.0
  9
$UNITMODE
 70
     0
  9
$VISRETAIN
 70
     0
  9
$PLINEGEN
 70
     0
  9
$PSLTSCALE
 70
     0
  0
ENDSEC
  0
SECTION
  2
TABLES
  0
TABLE
  2
VPORT
 70
     1
  0
VPORT
  2
*ACTIVE
 70
     0
 10
0.0
 20
0.0
 11
1.0
 21
1.0
 12
137.495804153145
 22
105.14973110994291
 13
0.0
 23
0.0
 14
5.0
 24
5.0
 15
10.0
 25
10.0
 16
0.0
 26
0.0
 36
1.0
 17
0.0
 27
0.0
 37
0.0
 40
218.28380694200069
 41
1.9089595375722539
 42
50.0
 43
0.0
 44
0.0
 50
0.0
 51
0.0
 71
     0
 72
   100
 73
     1
 74
     0
 75
     0
 76
     0
 77
     0
 78
     0
  0
ENDTAB
  0
TABLE
  2
LTYPE
 70
     3
  0
LTYPE
  2
CONTINUOUS
 70
     0
  3
Solid Line
 72
    65
 73
     0
 40
0.0
  0
LTYPE
  2
CENTER
 70
     0
  3
____ _ ____ _ ____ _ ____ _ ____ _ ____ _ ____
 72
    65
 73
     4
 40
2.0
 49
1.25
 49
-0.25
 49
0.25
 49
-0.25
  0
LTYPE
  2
PHANTOM2
 70
     0
  3
___ _ _ ___ _ _ ___ _ _ ___ _ _
 72
    65
 73
     6
 40
1.25
 49
0.625
 49
-0.125
 49
0.125
 49
-0.125
 49
0.125
 49
-0.125
  0
ENDTAB
  0
TABLE
  2
LAYER
 70
     2
  0
LAYER
  2
0
 70
     0
 62
     7
  6
CONTINUOUS
  0
LAYER
  2
1
 70
     0
 62
     1
  6
CENTER
  0
ENDTAB
  0
TABLE
  2
STYLE
 70
     2
  0
STYLE
  2
STANDARD
 70
     0
 40
0.0
 41
1.0
 50
0.0
 71
     0
 42
0.2
  3
simplex
  4
bigfont
  0
STYLE
  2
STANDARD1
 70
     0
 40
0.0
 41
1.0
 50
0.0
 71
     0
 42
3.0
  3
txt
  4

  0
ENDTAB
  0
TABLE
  2
VIEW
 70
     0
  0
ENDTAB
  0
TABLE
  2
UCS
 70
     0
  0
ENDTAB
  0
TABLE
  2
APPID
 70
     3
  0
APPID
  2
ACAD
 70
     0
  0
APPID
  2
ACAD_MLEADERVER
 70
     0
  0
APPID
  2
ACAD_NAV_VCDISPLAY
 70
     0
  0
ENDTAB
  0
TABLE
  2
DIMSTYLE
 70
     1
  0
DIMSTYLE
  2
STANDARD
 70
     0
  3

  4

  5

  6

  7

 40
1.0
 41
0.18
 42
0.0625
 43
0.38
 44
0.18
 45
0.0
 46
0.0
 47
0.0
 48
0.0
140
0.18
141
0.09
142
0.0
143
25.399999999999999
144
1.0
145
0.0
146
1.0
147
0.09
 71
     0
 72
     0
 73
     1
 74
     1
 75
     0
 76
     0
 77
     0
 78
     0
170
     0
171
     2
172
     0
173
     0
174
     0
175
     0
176
     0
177
     0
178
     0
  0
ENDTAB
  0
ENDSEC
  0
SECTION
  2
BLOCKS
  0
BLOCK
  8
0
  2
$MODEL_SPACE
 70
     0
 10
0.0
 20
0.0
 30
0.0
  3
$MODEL_SPACE
  1

  0
ENDBLK
  5
7
  8
0
  0
BLOCK
 67
     1
  8
0
  2
$PAPER_SPACE
 70
     0
 10
0.0
 20
0.0
 30
0.0
  3
$PAPER_SPACE
  1

  0
ENDBLK
  5
A
 67
     1
  8
0
  0
ENDSEC
  0
SECTION
  2
ENTITIES
  0
LINE
  5
138
  8
1
 10
108.32677901440459
 20
82.214466663772484
 30
0.0
 11
163.32677901440459
 21
82.214466663772498
 31
0.0
  0
LINE
  5
139
  8
0
 10
110.82677901440459
 20
79.714466663772441
 30
0.0
 11
160.82677901440459
 21
79.714466663772413
 31
0.0
  0
LINE
  5
13A
  8
0
 10
110.82677901440459
 20
84.714466663772455
 30
0.0
 11
160.82677901440459
 21
84.714466663772427
 31
0.0
  0
LINE
  5
13B
  8
1
 10
105.82677901440459
 20
72.214466663772455
 30
0.0
 11
165.82677901440459
 21
72.214466663772455
 31
0.0
  0
LINE
  5
13C
  8
0
 10
110.82677901440459
 20
92.214466663772498
 30
0.0
 11
160.82677901440459
 21
92.214466663772498
 31
0.0
  0
LINE
  5
13D
  8
1
 10
108.32677901440459
 20
62.214466663772463
 30
0.0
 11
163.32677901440459
 21
62.214466663772463
 31
0.0
  0
LINE
  5
13E
  8
0
 10
110.82677901440459
 20
59.714466663772463
 30
0.0
 11
160.82677901440459
 21
59.714466663772427
 31
0.0
  0
LINE
  5
13F
  8
0
 10
110.82677901440459
 20
64.714466663772455
 30
0.0
 11
160.82677901440459
 21
64.714466663772441
 31
0.0
  0
LINE
  5
140
  8
0
 10
110.82677901440459
 20
52.214466663772463
 30
0.0
 11
160.82677901440459
 21
52.214466663772477
 31
0.0
  0
LINE
  5
141
  8
0
 10
50.493326243178927
 20
52.214466663772612
 30
0.0
 11
63.893326243178841
 21
52.214466663772612
 31
0.0
  0
LINE
  5
142
  8
0
 10
50.493326243178927
 20
92.214466663772555
 30
0.0
 11
63.893326243178841
 21
92.214466663772555
 31
0.0
  0
LINE
  5
143
  8
0
 10
58.60753924317882
 20
54.901472663772381
 30
0.0
 11
62.664646243178851
 21
58.958579663772582
 31
0.0
  0
LINE
  5
144
  8
0
 10
58.60753924317882
 20
89.527460663772558
 30
0.0
 11
62.664646243178851
 21
85.470354663772568
 31
0.0
  0
LINE
  5
145
  8
0
 10
59.193326243178923
 20
92.214466663772555
 30
0.0
 11
57.193326243178923
 21
92.214466663772555
 31
0.0
  0
LINE
  5
146
  8
1
 10
78.343326243178922
 20
82.214466663772484
 30
0.0
 11
34.043326243178953
 21
82.214466663772498
 31
0.0
  0
LINE
  5
147
  8
1
 10
81.193326243178888
 20
72.214466663772455
 30
0.0
 11
31.19332624317892
 21
72.214466663772455
 31
0.0
  0
LINE
  5
148
  8
1
 10
78.343326243178922
 20
62.214466663772463
 30
0.0
 11
34.043326243178953
 21
62.214466663772463
 31
0.0
  0
ARC
  5
149
  8
0
 10
37.993326243178807
 20
65.514466663772566
 30
0.0
 40
0.8
 50
180.0
 51
270.0
  0
LINE
  5
14A
  8
0
 10
49.401190243178938
 20
65.864466663772404
 30
0.0
 11
50.122258243178841
 21
65.143398663772416
 31
0.0
  0
LINE
  5
14B
  8
0
 10
38.993326243178927
 20
65.014466663772566
 30
0.0
 11
38.993326243178927
 21
67.132054663772578
 31
0.0
  0
ARC
  5
14C
  8
0
 10
40.543326243178818
 20
63.349033663772559
 30
0.0
 40
3.0
 50
0.0
 51
44.999999999999851
  0
LINE
  5
14D
  8
1
 10
47.193326243178923
 20
94.364466663772546
 30
0.0
 11
47.193326243178923
 21
50.064466663772521
 31
0.0
  0
LINE
  5
14E
  8
1
 10
56.193326243178923
 20
97.214466663772498
 30
0.0
 11
56.193326243178923
 21
47.214466663772463
 31
0.0
  0
LINE
  5
14F
  8
0
 10
46.058759243178912
 20
58.564466663772578
 30
0.0
 11
47.193326243178923
 21
58.564466663772578
 31
0.0
  0
CIRCLE
  5
150
  8
0
 10
47.193326243178923
 20
62.214466663772612
 30
0.0
 40
2.149999999999999
  0
LINE
  5
151
  8
0
 10
39.193326243178923
 20
52.214466663772612
 30
0.0
 11
43.893326243178898
 21
52.214466663772612
 31
0.0
  0
ARC
  5
152
  8
0
 10
39.82573724317885
 20
57.296878663772418
 30
0.0
 40
0.832412
 50
180.0
 51
315.00008799999949
  0
ARC
  5
153
  8
0
 10
39.193326243178923
 20
54.214466663772612
 30
0.0
 40
2.0
 50
180.0
 51
270.0
  0
ARC
  5
154
  8
0
 10
37.993326243178807
 20
58.9144666637726
 30
0.0
 40
0.8
 50
90.0
 51
180.0
  0
LINE
  5
155
  8
0
 10
37.193326243178831
 20
58.9144666637726
 30
0.0
 11
37.193326243178923
 21
54.214466663772612
 31
0.0
  0
ARC
  5
156
  8
0
 10
38.693326243178909
 20
59.41446666377243
 30
0.0
 40
0.3
 50
0.0
 51
90.0
  0
LINE
  5
157
  8
0
 10
37.993326243178807
 20
59.714466663772612
 30
0.0
 11
38.693326243178909
 21
59.714466663772612
 31
0.0
  0
LINE
  5
158
  8
0
 10
38.993326243178927
 20
59.41446666377243
 30
0.0
 11
38.993326243178927
 21
57.296878663772418
 31
0.0
  0
LINE
  5
159
  8
0
 10
37.993326243178807
 20
64.714466663772612
 30
0.0
 11
38.693326243178909
 21
64.714466663772612
 31
0.0
  0
ARC
  5
15A
  8
0
 10
38.693326243178909
 20
65.014466663772566
 30
0.0
 40
0.3
 50
270.0
 51
0.0
  0
LINE
  5
15B
  8
0
 10
44.693326243178923
 20
53.014466663772559
 30
0.0
 11
44.693326243178923
 21
53.714466663772612
 31
0.0
  0
ARC
  5
15C
  8
0
 10
43.893326243178898
 20
53.014466663772559
 30
0.0
 40
0.8
 50
270.0
 51
0.0
  0
LINE
  5
15D
  8
0
 10
41.687134243178917
 20
55.435483663772573
 30
0.0
 11
43.937438243178939
 21
57.685786663772369
 31
0.0
  0
LINE
  5
15E
  8
0
 10
44.393326243178841
 20
54.014466663772573
 30
0.0
 11
42.275737243178838
 21
54.014466663772573
 31
0.0
  0
ARC
  5
15F
  8
0
 10
40.543326243178818
 20
61.07989966377238
 30
0.0
 40
3.0
 50
315.00000000000023
 51
0.0
  0
ARC
  5
160
  8
0
 10
42.275737243178838
 20
54.846878663772422
 30
0.0
 40
0.832412
 50
134.999911999999
 51
270.0
  0
LINE
  5
161
  8
0
 10
40.414342243178822
 20
56.708275663772383
 30
0.0
 11
42.664646243178851
 21
58.958579663772582
 31
0.0
  0
ARC
  5
162
  8
0
 10
46.058759243178912
 20
55.564466663772578
 30
0.0
 40
3.0
 50
90.0
 51
135.00000000000011
  0
ARC
  5
163
  8
0
 10
44.393326243178841
 20
53.714466663772612
 30
0.0
 40
0.3
 50
0.0
 51
90.0
  0
LINE
  5
164
  8
0
 10
43.543326243178832
 20
61.07989966377238
 30
0.0
 11
43.543326243178832
 21
62.214466663772612
 31
0.0
  0
LINE
  5
165
  8
0
 10
43.543326243178832
 20
63.349033663772559
 30
0.0
 11
43.543326243178832
 21
62.214466663772612
 31
0.0
  0
ARC
  5
166
  8
0
 10
52.110914243178819
 20
54.846878663772422
 30
0.0
 40
0.832412
 50
270.0
 51
45.000088000000929
  0
LINE
  5
167
  8
0
 10
52.69951724317891
 20
55.435483663772573
 30
0.0
 11
50.449213243178939
 21
57.685786663772369
 31
0.0
  0
LINE
  5
168
  8
0
 10
55.779112243178929
 20
54.901472663772381
 30
0.0
 11
51.722005243178927
 21
58.958579663772582
 31
0.0
  0
LINE
  5
169
  8
0
 10
49.693326243178923
 20
53.014466663772559
 30
0.0
 11
49.693326243178923
 21
53.714466663772612
 31
0.0
  0
ARC
  5
16A
  8
0
 10
50.493326243178927
 20
53.014466663772559
 30
0.0
 40
0.8
 50
180.0
 51
270.0
  0
ARC
  5
16B
  8
0
 10
48.327893243178828
 20
55.564466663772578
 30
0.0
 40
3.0
 50
44.999999999999851
 51
90.0
  0
LINE
  5
16C
  8
0
 10
48.327893243178828
 20
58.564466663772578
 30
0.0
 11
47.193326243178923
 21
58.564466663772578
 31
0.0
  0
ARC
  5
16D
  8
0
 10
49.993326243178927
 20
53.714466663772612
 30
0.0
 40
0.3
 50
90.0
 51
180.0
  0
LINE
  5
16E
  8
0
 10
49.993326243178927
 20
54.014466663772573
 30
0.0
 11
52.110914243178819
 21
54.014466663772573
 31
0.0
  0
LINE
  5
16F
  8
0
 10
50.843326243178844
 20
61.07989966377238
 30
0.0
 11
50.843326243178844
 21
64.422330663772414
 31
0.0
  0
LINE
  5
170
  8
0
 10
50.843326243178844
 20
64.422330663772414
 30
0.0
 11
50.122258243178841
 21
65.143398663772416
 31
0.0
  0
ARC
  5
171
  8
0
 10
53.843326243178844
 20
61.07989966377238
 30
0.0
 40
3.0
 50
180.0
 51
224.99999999999989
  0
ARC
  5
172
  8
0
 10
57.193326243178923
 20
56.315685663772513
 30
0.0
 40
2.0
 50
224.99999999999989
 51
315.00000000000023
  0
CIRCLE
  5
173
  8
0
 10
47.193326243178923
 20
82.214466663772555
 30
0.0
 40
2.149999999999999
  0
LINE
  5
174
  8
0
 10
46.058759243178912
 20
85.864466663772404
 30
0.0
 11
47.193326243178923
 21
85.864466663772404
 31
0.0
  0
LINE
  5
175
  8
0
 10
46.058759243178912
 20
78.564466663772578
 30
0.0
 11
49.401190243178938
 21
78.564466663772578
 31
0.0
  0
LINE
  5
176
  8
0
 10
46.058759243178912
 20
65.864466663772404
 30
0.0
 11
49.401190243178938
 21
65.864466663772404
 31
0.0
  0
LINE
  5
177
  8
0
 10
37.193326243178923
 20
90.214466663772555
 30
0.0
 11
37.193326243178923
 21
85.514466663772396
 31
0.0
  0
ARC
  5
178
  8
0
 10
42.275737243178838
 20
89.582054663772396
 30
0.0
 40
0.832412
 50
90.0
 51
225.00008800000089
  0
LINE
  5
179
  8
0
 10
39.880332243178913
 20
73.62868066377257
 30
0.0
 11
43.937438243178939
 21
77.685786663772433
 31
0.0
  0
ARC
  5
17A
  8
0
 10
39.82573724317885
 20
87.132054663772578
 30
0.0
 40
0.832412
 50
44.999912000000514
 51
180.0
  0
ARC
  5
17B
  8
0
 10
39.82573724317885
 20
77.296878663772418
 30
0.0
 40
0.832412
 50
180.0
 51
315.00008799999949
  0
LINE
  5
17C
  8
0
 10
39.880332243178913
 20
70.800253663772423
 30
0.0
 11
43.937438243178939
 21
66.743146663772563
 31
0.0
  0
ARC
  5
17D
  8
0
 10
39.82573724317885
 20
67.132054663772578
 30
0.0
 40
0.832412
 50
44.999912000000514
 51
180.0
  0
LINE
  5
17E
  8
0
 10
37.193326243178923
 20
78.9144666637726
 30
0.0
 11
37.193326243178831
 21
65.514466663772566
 31
0.0
  0
ARC
  5
17F
  8
0
 10
41.294545243178931
 20
72.214466663772612
 30
0.0
 40
2.0
 50
135.00000000000011
 51
224.99999999999989
  0
ARC
  5
180
  8
0
 10
37.993326243178927
 20
85.514466663772396
 30
0.0
 40
0.8
 50
180.0
 51
270.0
  0
ARC
  5
181
  8
0
 10
37.993326243178927
 20
78.9144666637726
 30
0.0
 40
0.8
 50
90.0
 51
180.0
  0
ARC
  5
184
  8
0
 10
38.693326243178909
 20
85.014466663772396
 30
0.0
 40
0.3
 50
270.0
 51
0.0
  0
LINE
  5
185
  8
0
 10
37.993326243178927
 20
84.714466663772555
 30
0.0
 11
38.693326243178909
 21
84.714466663772555
 31
0.0
  0
LINE
  5
186
  8
0
 10
38.993326243178927
 20
85.014466663772396
 30
0.0
 11
38.993326243178927
 21
87.132054663772578
 31
0.0
  0
LINE
  5
187
  8
0
 10
38.993326243178927
 20
79.4144666637726
 30
0.0
 11
38.993326243178927
 21
77.296878663772418
 31
0.0
  0
LINE
  5
188
  8
0
 10
37.993326243178927
 20
79.714466663772555
 30
0.0
 11
38.693326243178909
 21
79.714466663772555
 31
0.0
  0
ARC
  5
189
  8
0
 10
38.693326243178909
 20
79.4144666637726
 30
0.0
 40
0.3
 50
0.0
 51
90.0
  0
LINE
  5
18A
  8
0
 10
40.414342243178822
 20
76.708275663772611
 30
0.0
 11
42.664646243178851
 21
78.958579663772412
 31
0.0
  0
LINE
  5
18B
  8
0
 10
40.414342243178822
 20
67.720657663772499
 30
0.0
 11
42.664646243178851
 21
65.470354663772582
 31
0.0
  0
ARC
  5
18C
  8
0
 10
46.058759243178912
 20
68.864466663772419
 30
0.0
 40
3.0
 50
224.99999999999989
 51
270.0
  0
LINE
  5
18D
  8
0
 10
41.687134243178917
 20
88.993450663772592
 30
0.0
 11
43.937438243178939
 21
86.743146663772563
 31
0.0
  0
ARC
  5
18E
  8
0
 10
40.543326243178818
 20
83.349033663772374
 30
0.0
 40
3.0
 50
0.0
 51
44.999999999999851
  0
ARC
  5
18F
  8
0
 10
40.543326243178818
 20
81.079899663772593
 30
0.0
 40
3.0
 50
315.00000000000023
 51
0.0
  0
LINE
  5
190
  8
0
 10
40.414342243178822
 20
87.720657663772386
 30
0.0
 11
42.664646243178851
 21
85.470354663772568
 31
0.0
  0
ARC
  5
191
  8
0
 10
46.058759243178912
 20
88.864466663772419
 30
0.0
 40
3.0
 50
224.99999999999989
 51
270.0
  0
ARC
  5
192
  8
0
 10
46.058759243178912
 20
75.564466663772578
 30
0.0
 40
3.0
 50
90.0
 51
135.00000000000011
  0
LINE
  5
193
  8
0
 10
43.543326243178832
 20
83.349033663772374
 30
0.0
 11
43.543326243178832
 21
82.214466663772555
 31
0.0
  0
LINE
  5
194
  8
0
 10
43.543326243178832
 20
81.079899663772593
 30
0.0
 11
43.543326243178832
 21
82.214466663772555
 31
0.0
  0
LINE
  5
195
  8
0
 10
39.193326243178923
 20
92.214466663772555
 30
0.0
 11
43.893326243178898
 21
92.214466663772555
 31
0.0
  0
ARC
  5
196
  8
0
 10
39.193326243178923
 20
90.214466663772555
 30
0.0
 40
2.0
 50
90.0
 51
180.0
  0
LINE
  5
197
  8
0
 10
44.393326243178841
 20
90.414466663772586
 30
0.0
 11
42.275737243178838
 21
90.414466663772586
 31
0.0
  0
ARC
  5
198
  8
0
 10
43.893326243178898
 20
91.414466663772615
 30
0.0
 40
0.8
 50
0.0
 51
90.0
  0
LINE
  5
199
  8
0
 10
44.693326243178923
 20
91.414466663772615
 30
0.0
 11
44.693326243178923
 21
90.714466663772555
 31
0.0
  0
ARC
  5
19A
  8
0
 10
44.393326243178841
 20
90.714466663772555
 30
0.0
 40
0.3
 50
270.0
 51
0.0
  0
ARC
  5
19B
  8
0
 10
52.110914243178819
 20
89.582054663772396
 30
0.0
 40
0.832412
 50
314.99991199999909
 51
90.0
  0
LINE
  5
19C
  8
0
 10
55.779112243178929
 20
89.527460663772558
 30
0.0
 11
51.722005243178927
 21
85.470354663772568
 31
0.0
  0
LINE
  5
19D
  8
0
 10
52.69951724317891
 20
88.993450663772592
 30
0.0
 11
50.449213243178939
 21
86.743146663772563
 31
0.0
  0
ARC
  5
19E
  8
0
 10
48.327893243178828
 20
88.864466663772419
 30
0.0
 40
3.0
 50
270.0
 51
315.00000000000023
  0
LINE
  5
19F
  8
0
 10
49.401190243178938
 20
78.564466663772578
 30
0.0
 11
50.122258243178841
 21
79.28553466377241
 31
0.0
  0
LINE
  5
1A0
  8
0
 10
48.327893243178828
 20
85.864466663772404
 30
0.0
 11
47.193326243178923
 21
85.864466663772404
 31
0.0
  0
LINE
  5
1A1
  8
0
 10
50.843326243178844
 20
83.349033663772374
 30
0.0
 11
50.843326243178844
 21
80.006602663772568
 31
0.0
  0
LINE
  5
1A2
  8
0
 10
50.843326243178844
 20
80.006602663772568
 30
0.0
 11
50.122258243178841
 21
79.28553466377241
 31
0.0
  0
ARC
  5
1A3
  8
0
 10
53.843326243178844
 20
83.349033663772374
 30
0.0
 40
3.0
 50
135.00000000000011
 51
180.0
  0
ARC
  5
1A4
  8
0
 10
50.493326243178927
 20
91.414466663772615
 30
0.0
 40
0.8
 50
90.0
 51
180.0
  0
ARC
  5
1A5
  8
0
 10
49.993326243178927
 20
90.714466663772555
 30
0.0
 40
0.3
 50
180.0
 51
270.0
  0
LINE
  5
1A6
  8
0
 10
49.693326243178923
 20
91.414466663772615
 30
0.0
 11
49.693326243178923
 21
90.714466663772555
 31
0.0
  0
LINE
  5
1A7
  8
0
 10
49.993326243178927
 20
90.414466663772586
 30
0.0
 11
52.110914243178819
 21
90.414466663772586
 31
0.0
  0
LINE
  5
1A8
  8
0
 10
55.193326243178909
 20
92.214466663772555
 30
0.0
 11
57.193326243178923
 21
92.214466663772555
 31
0.0
  0
ARC
  5
1A9
  8
0
 10
57.193326243178923
 20
88.113247663772427
 30
0.0
 40
2.0
 50
44.999999999999851
 51
135.00000000000011
  0
ARC
  5
1AA
  8
0
 10
76.393326243178905
 20
65.514466663772566
 30
0.0
 40
0.8
 50
270.0
 51
0.0
  0
ARC
  5
1AB
  8
0
 10
73.843326243178893
 20
63.349033663772559
 30
0.0
 40
3.0
 50
135.00000000000011
 51
180.0
  0
LINE
  5
1AC
  8
0
 10
75.393326243178848
 20
65.014466663772566
 30
0.0
 11
75.393326243178848
 21
67.132054663772578
 31
0.0
  0
LINE
  5
1AD
  8
0
 10
64.985461243178946
 20
65.864466663772404
 30
0.0
 11
64.264394243178941
 21
65.143398663772416
 31
0.0
  0
LINE
  5
1AE
  8
1
 10
67.193326243178916
 20
94.364466663772546
 30
0.0
 11
67.193326243178916
 21
50.0644666637725
 31
0.0
  0
LINE
  5
1AF
  8
0
 10
70.493326243178927
 20
52.214466663772612
 30
0.0
 11
75.193326243178916
 21
52.214466663772612
 31
0.0
  0
ARC
  5
1B0
  8
0
 10
73.843326243178893
 20
61.07989966377238
 30
0.0
 40
3.0
 50
180.0
 51
224.99999999999989
  0
LINE
  5
1B1
  8
0
 10
69.993326243178814
 20
54.014466663772573
 30
0.0
 11
72.110914243178826
 21
54.014466663772573
 31
0.0
  0
LINE
  5
1B2
  8
0
 10
72.699517243178903
 20
55.435483663772573
 30
0.0
 11
70.449213243178946
 21
57.685786663772369
 31
0.0
  0
ARC
  5
1B3
  8
0
 10
66.058759243178912
 20
55.564466663772578
 30
0.0
 40
3.0
 50
90.0
 51
135.00000000000011
  0
CIRCLE
  5
1B4
  8
0
 10
67.193326243178916
 20
62.214466663772612
 30
0.0
 40
2.149999999999999
  0
LINE
  5
1B5
  8
0
 10
64.693326243178916
 20
53.014466663772559
 30
0.0
 11
64.693326243178916
 21
53.714466663772612
 31
0.0
  0
ARC
  5
1B6
  8
0
 10
63.893326243178841
 20
53.014466663772559
 30
0.0
 40
0.8
 50
270.0
 51
0.0
  0
LINE
  5
1B7
  8
0
 10
61.687134243178917
 20
55.435483663772573
 30
0.0
 11
63.937438243178939
 21
57.685786663772369
 31
0.0
  0
ARC
  5
1B8
  8
0
 10
62.275737243178952
 20
54.846878663772422
 30
0.0
 40
0.832412
 50
134.999911999999
 51
270.0
  0
ARC
  5
1B9
  8
0
 10
60.543326243178832
 20
61.07989966377238
 30
0.0
 40
3.0
 50
315.00000000000023
 51
0.0
  0
LINE
  5
1BA
  8
0
 10
63.543326243178832
 20
64.422330663772414
 30
0.0
 11
64.264394243178941
 21
65.143398663772416
 31
0.0
  0
LINE
  5
1BB
  8
0
 10
63.543326243178832
 20
61.07989966377238
 30
0.0
 11
63.543326243178832
 21
64.422330663772414
 31
0.0
  0
LINE
  5
1BC
  8
0
 10
64.393326243178834
 20
54.014466663772573
 30
0.0
 11
62.275737243178952
 21
54.014466663772573
 31
0.0
  0
ARC
  5
1BD
  8
0
 10
64.393326243178834
 20
53.714466663772612
 30
0.0
 40
0.3
 50
0.0
 51
90.0
  0
LINE
  5
1BE
  8
0
 10
69.693326243178916
 20
53.014466663772559
 30
0.0
 11
69.693326243178916
 21
53.714466663772612
 31
0.0
  0
ARC
  5
1BF
  8
0
 10
70.493326243178927
 20
53.014466663772559
 30
0.0
 40
0.8
 50
180.0
 51
269.99999999999841
  0
LINE
  5
1C0
  8
0
 10
68.32789324317892
 20
58.564466663772578
 30
0.0
 11
67.193326243178916
 21
58.564466663772578
 31
0.0
  0
LINE
  5
1C1
  8
0
 10
66.058759243178912
 20
58.564466663772578
 30
0.0
 11
67.193326243178916
 21
58.564466663772578
 31
0.0
  0
LINE
  5
1C2
  8
0
 10
70.843326243178893
 20
63.349033663772559
 30
0.0
 11
70.843326243178893
 21
62.214466663772612
 31
0.0
  0
LINE
  5
1C3
  8
0
 10
70.843326243178893
 20
61.07989966377238
 30
0.0
 11
70.843326243178893
 21
62.214466663772612
 31
0.0
  0
ARC
  5
1C4
  8
0
 10
69.993326243178814
 20
53.714466663772612
 30
0.0
 40
0.3
 50
90.0
 51
180.0
  0
ARC
  5
1C5
  8
0
 10
68.32789324317892
 20
55.564466663772578
 30
0.0
 40
3.0
 50
44.999999999999851
 51
90.0
  0
ARC
  5
1C6
  8
0
 10
75.193326243178916
 20
54.214466663772612
 30
0.0
 40
2.0
 50
270.0
 51
0.0
  0
ARC
  5
1C7
  8
0
 10
74.560914243178814
 20
57.296878663772418
 30
0.0
 40
0.832412
 50
224.99991200000051
 51
0.0
  0
LINE
  5
1C8
  8
0
 10
73.972309243178842
 20
56.708275663772383
 30
0.0
 11
71.722005243178813
 21
58.958579663772582
 31
0.0
  0
ARC
  5
1C9
  8
0
 10
72.110914243178826
 20
54.846878663772422
 30
0.0
 40
0.832412
 50
270.0
 51
45.000088000000929
  0
LINE
  5
1CA
  8
0
 10
77.193326243178916
 20
58.9144666637726
 30
0.0
 11
77.193326243178916
 21
54.214466663772612
 31
0.0
  0
ARC
  5
1CB
  8
0
 10
76.393326243178905
 20
58.9144666637726
 30
0.0
 40
0.8
 50
0.0
 51
90.0
  0
ARC
  5
1CC
  8
0
 10
75.693326243178916
 20
65.014466663772566
 30
0.0
 40
0.3
 50
180.0
 51
270.0
  0
LINE
  5
1CD
  8
0
 10
76.393326243178905
 20
64.714466663772612
 30
0.0
 11
75.693326243178916
 21
64.714466663772612
 31
0.0
  0
LINE
  5
1CE
  8
0
 10
75.393326243178848
 20
59.41446666377243
 30
0.0
 11
75.393326243178848
 21
57.296878663772418
 31
0.0
  0
LINE
  5
1CF
  8
0
 10
76.393326243178905
 20
59.714466663772612
 30
0.0
 11
75.693326243178916
 21
59.714466663772612
 31
0.0
  0
ARC
  5
1D0
  8
0
 10
75.693326243178916
 20
59.41446666377243
 30
0.0
 40
0.3
 50
90.0
 51
180.0
  0
LINE
  5
1D1
  8
0
 10
70.493326243178927
 20
92.214466663772555
 30
0.0
 11
75.193326243178916
 21
92.214466663772555
 31
0.0
  0
LINE
  5
1D2
  8
0
 10
74.506320243178919
 20
70.800253663772423
 30
0.0
 11
70.449213243178946
 21
66.743146663772563
 31
0.0
  0
LINE
  5
1D3
  8
0
 10
72.699517243178903
 20
88.993450663772592
 30
0.0
 11
70.449213243178946
 21
86.743146663772563
 31
0.0
  0
LINE
  5
1D4
  8
0
 10
69.993326243178814
 20
90.414466663772586
 30
0.0
 11
72.110914243178826
 21
90.414466663772586
 31
0.0
  0
LINE
  5
1D5
  8
0
 10
74.506320243178919
 20
73.62868066377257
 30
0.0
 11
70.449213243178946
 21
77.685786663772433
 31
0.0
  0
ARC
  5
1D6
  8
0
 10
73.843326243178893
 20
83.349033663772374
 30
0.0
 40
3.0
 50
135.00000000000011
 51
180.0
  0
ARC
  5
1D7
  8
0
 10
73.843326243178893
 20
81.079899663772593
 30
0.0
 40
3.0
 50
180.0
 51
224.99999999999989
  0
ARC
  5
1D8
  8
0
 10
62.275737243178952
 20
89.582054663772396
 30
0.0
 40
0.832412
 50
90.0
 51
225.00008800000089
  0
LINE
  5
1D9
  8
0
 10
68.32789324317892
 20
65.864466663772404
 30
0.0
 11
64.985461243178946
 21
65.864466663772404
 31
0.0
  0
ARC
  5
1DA
  8
0
 10
66.058759243178912
 20
88.864466663772419
 30
0.0
 40
3.0
 50
224.99999999999989
 51
270.0
  0
LINE
  5
1DB
  8
0
 10
68.32789324317892
 20
78.564466663772578
 30
0.0
 11
64.985461243178946
 21
78.564466663772578
 31
0.0
  0
CIRCLE
  5
1DC
  8
0
 10
67.193326243178916
 20
82.214466663772555
 30
0.0
 40
2.149999999999999
  0
LINE
  5
1DD
  8
0
 10
61.687134243178917
 20
88.993450663772592
 30
0.0
 11
63.937438243178939
 21
86.743146663772563
 31
0.0
  0
LINE
  5
1DE
  8
0
 10
63.543326243178832
 20
83.349033663772374
 30
0.0
 11
63.543326243178832
 21
80.006602663772568
 31
0.0
  0
LINE
  5
1DF
  8
0
 10
63.543326243178832
 20
80.006602663772568
 30
0.0
 11
64.264394243178941
 21
79.28553466377241
 31
0.0
  0
ARC
  5
1E0
  8
0
 10
60.543326243178832
 20
83.349033663772374
 30
0.0
 40
3.0
 50
0.0
 51
44.999999999999851
  0
LINE
  5
1E1
  8
0
 10
64.985461243178946
 20
78.564466663772578
 30
0.0
 11
64.264394243178941
 21
79.28553466377241
 31
0.0
  0
ARC
  5
1E2
  8
0
 10
68.32789324317892
 20
68.864466663772419
 30
0.0
 40
3.0
 50
270.0
 51
315.00000000000023
  0
LINE
  5
1E3
  8
0
 10
68.32789324317892
 20
85.864466663772404
 30
0.0
 11
67.193326243178916
 21
85.864466663772404
 31
0.0
  0
LINE
  5
1E4
  8
0
 10
66.058759243178912
 20
85.864466663772404
 30
0.0
 11
67.193326243178916
 21
85.864466663772404
 31
0.0
  0
ARC
  5
1E5
  8
0
 10
68.32789324317892
 20
88.864466663772419
 30
0.0
 40
3.0
 50
270.0
 51
315.00000000000023
  0
ARC
  5
1E6
  8
0
 10
68.32789324317892
 20
75.564466663772578
 30
0.0
 40
3.0
 50
44.999999999999851
 51
90.0
  0
LINE
  5
1E7
  8
0
 10
70.843326243178893
 20
83.349033663772374
 30
0.0
 11
70.843326243178893
 21
82.214466663772555
 31
0.0
  0
LINE
  5
1E8
  8
0
 10
70.843326243178893
 20
81.079899663772593
 30
0.0
 11
70.843326243178893
 21
82.214466663772555
 31
0.0
  0
ARC
  5
1E9
  8
0
 10
63.893326243178841
 20
91.414466663772615
 30
0.0
 40
0.8
 50
0.0
 51
90.0
  0
ARC
  5
1EA
  8
0
 10
64.393326243178834
 20
90.714466663772555
 30
0.0
 40
0.3
 50
270.0
 51
0.0
  0
LINE
  5
1EB
  8
0
 10
64.693326243178916
 20
91.414466663772615
 30
0.0
 11
64.693326243178916
 21
90.714466663772555
 31
0.0
  0
LINE
  5
1EC
  8
0
 10
64.393326243178834
 20
90.414466663772586
 30
0.0
 11
62.275737243178952
 21
90.414466663772586
 31
0.0
  0
ARC
  5
1ED
  8
0
 10
70.493326243178927
 20
91.414466663772615
 30
0.0
 40
0.8
 50
90.0
 51
180.0
  0
LINE
  5
1EE
  8
0
 10
69.693326243178916
 20
91.414466663772615
 30
0.0
 11
69.693326243178916
 21
90.714466663772555
 31
0.0
  0
ARC
  5
1EF
  8
0
 10
69.993326243178814
 20
90.714466663772555
 30
0.0
 40
0.3
 50
180.0
 51
270.0
  0
LINE
  5
1F0
  8
0
 10
77.193326243178916
 20
90.214466663772555
 30
0.0
 11
77.193326243178916
 21
85.514466663772396
 31
0.0
  0
ARC
  5
1F1
  8
0
 10
72.110914243178826
 20
89.582054663772396
 30
0.0
 40
0.832412
 50
314.99991199999909
 51
90.0
  0
LINE
  5
1F2
  8
0
 10
77.193326243178916
 20
78.9144666637726
 30
0.0
 11
77.193326243178916
 21
65.514466663772566
 31
0.0
  0
LINE
  5
1F3
  8
0
 10
73.972309243178842
 20
76.708275663772611
 30
0.0
 11
71.722005243178813
 21
78.958579663772412
 31
0.0
  0
ARC
  5
1F4
  8
0
 10
74.560914243178814
 20
77.296878663772418
 30
0.0
 40
0.832412
 50
224.99991200000051
 51
0.0
  0
ARC
  5
1F5
  8
0
 10
74.560914243178814
 20
67.132054663772578
 30
0.0
 40
0.832412
 50
0.0
 51
135.00008799999949
  0
ARC
  5
1F6
  8
0
 10
73.092106243178847
 20
72.214466663772612
 30
0.0
 40
2.0
 50
315.00000000000023
 51
44.999999999999851
  0
LINE
  5
1F7
  8
0
 10
73.972309243178842
 20
67.720657663772499
 30
0.0
 11
71.722005243178813
 21
65.470354663772582
 31
0.0
  0
ARC
  5
1F8
  8
0
 10
74.560914243178814
 20
87.132054663772578
 30
0.0
 40
0.832412
 50
0.0
 51
135.00008799999949
  0
LINE
  5
1F9
  8
0
 10
73.972309243178842
 20
87.720657663772386
 30
0.0
 11
71.722005243178813
 21
85.470354663772568
 31
0.0
  0
ARC
  5
1FA
  8
0
 10
76.393326243178834
 20
78.9144666637726
 30
0.0
 40
0.8
 50
0.0
 51
90.0
  0
ARC
  5
1FB
  8
0
 10
76.393326243178834
 20
85.514466663772396
 30
0.0
 40
0.8
 50
270.0
 51
0.0
  0
ARC
  5
1FC
  8
0
 10
75.693326243178916
 20
85.014466663772396
 30
0.0
 40
0.3
 50
180.0
 51
270.0
  0
LINE
  5
1FD
  8
0
 10
76.393326243178834
 20
84.714466663772555
 30
0.0
 11
75.693326243178916
 21
84.714466663772555
 31
0.0
  0
LINE
  5
1FE
  8
0
 10
75.393326243178848
 20
85.014466663772396
 30
0.0
 11
75.393326243178848
 21
87.132054663772578
 31
0.0
  0
LINE
  5
1FF
  8
0
 10
75.393326243178848
 20
79.4144666637726
 30
0.0
 11
75.393326243178848
 21
77.296878663772418
 31
0.0
  0
LINE
  5
200
  8
0
 10
76.393326243178834
 20
79.714466663772555
 30
0.0
 11
75.693326243178916
 21
79.714466663772555
 31
0.0
  0
ARC
  5
201
  8
0
 10
75.693326243178916
 20
79.4144666637726
 30
0.0
 40
0.3
 50
90.0
 51
180.0
  0
ARC
  5
202
  8
0
 10
75.193326243178916
 20
90.214466663772555
 30
0.0
 40
2.0
 50
0.0
 51
90.0
  0
LINE
  5
203
  8
0
 10
110.82677901440459
 20
92.214466663772484
 30
0.0
 11
110.82677901440459
 21
52.214466663772463
 31
0.0
  0
LINE
  5
204
  8
0
 10
160.82677901440459
 20
92.214466663772455
 30
0.0
 11
160.82677901440459
 21
52.214466663772463
 31
0.0
  0
TEXT
  5
2BE
  8
0
 62
     3
 10
0.0
 20
0.0
 30
0.0
 40
10.0
  1
L5-SPH4040N
  7
STANDARD1
  0
ENDSEC
  0
EOF
