  0
SECTION
  2
HEADER
  9
$ACADVER
  1
AC1009
  9
$INSBASE
 10
0.0
 20
0.0
 30
0.0
  9
$EXTMIN
 10
0.0
 20
-2.960436562073669
 30
0.0
  9
$EXTMAX
 10
162.19606899999999
 20
106.03917199999999
 30
0.0
  9
$LIMMIN
 10
0.0
 20
0.0
  9
$LIMMAX
 10
195.0
 20
135.0
  9
$ORTHOMODE
 70
     1
  9
$REGENMODE
 70
     1
  9
$FILLMODE
 70
     1
  9
$QTEXTMODE
 70
     0
  9
$MIRRTEXT
 70
     0
  9
$DRAGMODE
 70
     2
  9
$LTSCALE
 40
5.0
  9
$OSMODE
 70
  3071
  9
$ATTMODE
 70
     1
  9
$TEXTSIZE
 40
0.2
  9
$TRACEWID
 40
0.05
  9
$TEXTSTYLE
  7
STANDARD
  9
$CLAYER
  8
0
  9
$CELTYPE
  6
BYLAYER
  9
$CECOLOR
 62
   256
  9
$DIMSCALE
 40
0.5
  9
$DIMASZ
 40
3.0
  9
$DIMEXO
 40
1.0
  9
$DIMDLI
 40
6.0
  9
$DIMRND
 40
0.0
  9
$DIMDLE
 40
0.0
  9
$DIMEXE
 40
1.0
  9
$DIMTP
 40
495.0
  9
$DIMTM
 40
0.0
  9
$DIMTXT
 40
3.0
  9
$DIMCEN
 40
0.0
  9
$DIMTSZ
 40
0.0
  9
$DIMTOL
 70
     0
  9
$DIMLIM
 70
     0
  9
$DIMTIH
 70
     0
  9
$DIMTOH
 70
     0
  9
$DIMSE1
 70
     0
  9
$DIMSE2
 70
     0
  9
$DIMTAD
 70
     1
  9
$DIMZIN
 70
     0
  9
$DIMBLK
  1

  9
$DIMASO
 70
     0
  9
$DIMSHO
 70
     0
  9
$DIMPOST
  1

  9
$DIMAPOST
  1

  9
$DIMALT
 70
     0
  9
$DIMALTD
 70
     2
  9
$DIMALTF
 40
25.399999999999999
  9
$DIMLFAC
 40
1.0
  9
$DIMTOFL
 70
     1
  9
$DIMTVP
 40
0.0
  9
$DIMTIX
 70
     1
  9
$DIMSOXD
 70
     0
  9
$DIMSAH
 70
     0
  9
$DIMBLK1
  1

  9
$DIMBLK2
  1

  9
$DIMSTYLE
  2
STANDARD
  9
$DIMCLRD
 70
     0
  9
$DIMCLRE
 70
     0
  9
$DIMCLRT
 70
     0
  9
$DIMTFAC
 40
1.0
  9
$DIMGAP
 40
0.09
  9
$LUNITS
 70
     2
  9
$LUPREC
 70
     2
  9
$SKETCHINC
 40
0.1
  9
$FILLETRAD
 40
0.0
  9
$AUNITS
 70
     0
  9
$AUPREC
 70
     2
  9
$MENU
  1
E:\r13\win\SUPPORT\ACAD
  9
$ELEVATION
 40
0.0
  9
$PELEVATION
 40
0.0
  9
$THICKNESS
 40
0.0
  9
$LIMCHECK
 70
     0
  9
$BLIPMODE
 70
     0
  9
$CHAMFERA
 40
0.0
  9
$CHAMFERB
 40
0.0
  9
$SKPOLY
 70
     0
  9
$TDCREATE
 40
2449840.6549305562
  9
$TDUPDATE
 40
2456597.5471680439
  9
$TDINDWG
 40
0.0094369444
  9
$TDUSRTIMER
 40
0.0094369444
  9
$USRTIMER
 70
     1
  9
$ANGBASE
 50
0.0
  9
$ANGDIR
 70
     0
  9
$PDMODE
 70
     0
  9
$PDSIZE
 40
0.0
  9
$PLINEWID
 40
0.0
  9
$COORDS
 70
     1
  9
$SPLFRAME
 70
     0
  9
$SPLINETYPE
 70
     6
  9
$SPLINESEGS
 70
     8
  9
$ATTDIA
 70
     0
  9
$ATTREQ
 70
     1
  9
$HANDLING
 70
     1
  9
$HANDSEED
  5
3BD
  9
$SURFTAB1
 70
     6
  9
$SURFTAB2
 70
     6
  9
$SURFTYPE
 70
     6
  9
$SURFU
 70
     6
  9
$SURFV
 70
     6
  9
$UCSNAME
  2

  9
$UCSORG
 10
0.0
 20
0.0
 30
0.0
  9
$UCSXDIR
 10
1.0
 20
0.0
 30
0.0
  9
$UCSYDIR
 10
0.0
 20
1.0
 30
0.0
  9
$PUCSNAME
  2

  9
$PUCSORG
 10
0.0
 20
0.0
 30
0.0
  9
$PUCSXDIR
 10
1.0
 20
0.0
 30
0.0
  9
$PUCSYDIR
 10
0.0
 20
1.0
 30
0.0
  9
$USERI1
 70
     3
  9
$USERI2
 70
     1
  9
$USERI3
 70
     0
  9
$USERI4
 70
     1
  9
$USERI5
 70
     0
  9
$USERR1
 40
0.5
  9
$USERR2
 40
3.0
  9
$USERR3
 40
3.0
  9
$USERR4
 40
3.0
  9
$USERR5
 40
10.0
  9
$WORLDVIEW
 70
     1
  9
$SHADEDGE
 70
     3
  9
$SHADEDIF
 70
    70
  9
$TILEMODE
 70
     1
  9
$MAXACTVP
 70
    16
  9
$PLIMCHECK
 70
     0
  9
$PEXTMIN
 10
1.0000000000000000E+020
 20
1.0000000000000000E+020
 30
1.0000000000000000E+020
  9
$PEXTMAX
 10
-1.0000000000000000E+020
 20
-1.0000000000000000E+020
 30
-1.0000000000000000E+020
  9
$PLIMMIN
 10
0.0
 20
0.0
  9
$PLIMMAX
 10
12.0
 20
9.0
  9
$UNITMODE
 70
     0
  9
$VISRETAIN
 70
     0
  9
$PLINEGEN
 70
     0
  9
$PSLTSCALE
 70
     0
  0
ENDSEC
  0
SECTION
  2
TABLES
  0
TABLE
  2
VPORT
 70
     1
  0
VPORT
  2
*ACTIVE
 70
     0
 10
0.0
 20
0.0
 11
1.0
 21
1.0
 12
-3.8310270886650239
 22
-2.9550377884845029
 13
0.0
 23
0.0
 14
5.0
 24
5.0
 15
5.0
 25
5.0
 16
0.0
 26
0.0
 36
1.0
 17
101.3280518518042
 27
83.803741697923513
 37
0.0
 40
169.22413112104309
 41
1.9089595375722539
 42
50.0
 43
0.0
 44
0.0
 50
0.0
 51
0.0
 71
     0
 72
   100
 73
     1
 74
     0
 75
     0
 76
     0
 77
     0
 78
     0
  0
ENDTAB
  0
TABLE
  2
LTYPE
 70
     8
  0
LTYPE
  2
CONTINUOUS
 70
     0
  3
Solid Line
 72
    65
 73
     0
 40
0.0
  0
LTYPE
  2
CENTER
 70
     0
  3
____ _ ____ _ ____ _ ____ _ ____ _ ____ _ ____
 72
    65
 73
     4
 40
2.0
 49
1.25
 49
-0.25
 49
0.25
 49
-0.25
  0
LTYPE
  2
HIDDEN
 70
     0
  3
Hidden __ __ __ __ __ __ __ __ __ __ __ __ __ _
 72
    65
 73
     2
 40
0.375
 49
0.25
 49
-0.125
  0
LTYPE
  2
PHANTOM2
 70
     0
  3
Phantom (.5x) ___ _ _ ___ _ _ ___ _ _ ___ _ _
 72
    65
 73
     6
 40
1.25
 49
0.625
 49
-0.125
 49
0.125
 49
-0.125
 49
0.125
 49
-0.125
  0
LTYPE
  2
AMCONSTR
 70
     0
  3
_______________________
 72
    65
 73
     2
 40
9999.0
 49
9999.0
 49
0.0
  0
LTYPE
  2
CENTER2
 70
     0
  3
Center (.5x) ___ _ ___ _ ___ _ ___ _ ___ _ ___
 72
    65
 73
     4
 40
1.125
 49
0.75
 49
-0.125
 49
0.125
 49
-0.125
  0
LTYPE
  2
HIDDEN2
 70
     0
  3
Hidden (.5x) _ _ _ _ _ _ _ _ _ _ _ _ _ _ _ _ _
 72
    65
 73
     2
 40
0.1875
 49
0.125
 49
-0.0625
  0
LTYPE
  2
AMZIGZAG2
 70
     0
  3
/\/-/\/-/\/-/\/-/\/-/\/
 72
    65
 73
     2
 40
0.4401
 49
0.0001
 49
-0.4400000000000001
  0
ENDTAB
  0
TABLE
  2
LAYER
 70
     2
  0
LAYER
  2
0
 70
     0
 62
     7
  6
CONTINUOUS
  0
LAYER
  2
1
 70
     0
 62
     1
  6
CENTER
  0
ENDTAB
  0
TABLE
  2
STYLE
 70
     3
  0
STYLE
  2
STANDARD
 70
     0
 40
0.0
 41
1.0
 50
0.0
 71
     0
 42
0.2
  3
TXT
  4
BIGFONT
  0
STYLE
  2

 70
     1
 40
0.0
 41
1.0
 50
0.0
 71
     0
 42
0.2
  3
ltypeshp.shx
  4

  0
STYLE
  2
STANDARD1
 70
     0
 40
0.0
 41
1.0
 50
0.0
 71
     0
 42
3.0
  3
txt
  4

  0
ENDTAB
  0
TABLE
  2
VIEW
 70
     0
  0
ENDTAB
  0
TABLE
  2
UCS
 70
     0
  0
ENDTAB
  0
TABLE
  2
APPID
 70
    14
  0
APPID
  2
ACAD
 70
     0
  0
APPID
  2
GENIUS_GENDIM_13
 70
     0
  0
APPID
  2
GENIUS_GENDTOL_13
 70
     0
  0
APPID
  2
GENIUS_GE3DTOL_13
 70
     0
  0
APPID
  2
MCAD_NO_VIS
 70
     0
  0
APPID
  2
ACAD_TEMP_GRAPHIC
 70
     0
  0
APPID
  2
AD_DRAW
 70
     0
  0
APPID
  2
ACATTRIBSERVICES
 70
     0
  0
APPID
  2
ASURF_PCURVE_APPNAME
 70
     0
  0
APPID
  2
DESIGNERASSEMBLIES
 70
     0
  0
APPID
  2
ACADM_DIM_EDIT
 70
     0
  0
APPID
  2
AMDT_DM_ADJ
 70
     0
  0
APPID
  2
ACAD_MLEADERVER
 70
     0
  0
APPID
  2
ACAD_NAV_VCDISPLAY
 70
     0
  0
ENDTAB
  0
TABLE
  2
DIMSTYLE
 70
     1
  0
DIMSTYLE
  2
STANDARD
 70
     0
  3

  4

  5

  6

  7

 40
1.0
 41
0.18
 42
0.0625
 43
0.38
 44
0.18
 45
0.0
 46
0.0
 47
0.0
 48
0.0
140
0.18
141
0.09
142
0.0
143
25.399999999999999
144
1.0
145
0.0
146
1.0
147
0.09
 71
     0
 72
     0
 73
     1
 74
     1
 75
     0
 76
     0
 77
     0
 78
     0
170
     0
171
     2
172
     0
173
     0
174
     0
175
     0
176
     0
177
     0
178
     0
  0
ENDTAB
  0
ENDSEC
  0
SECTION
  2
BLOCKS
  0
BLOCK
  8
0
  2
$MODEL_SPACE
 70
     0
 10
0.0
 20
0.0
 30
0.0
  3
$MODEL_SPACE
  1

  0
ENDBLK
  5
183
  8
0
  0
BLOCK
 67
     1
  8
0
  2
$PAPER_SPACE
 70
     0
 10
0.0
 20
0.0
 30
0.0
  3
$PAPER_SPACE
  1

  0
ENDBLK
  5
181
 67
     1
  8
0
  0
BLOCK
  8
0
  2
ACAD
 70
     0
 10
0.0
 20
0.0
 30
0.0
  3
ACAD
  1

  0
ENDBLK
  5
36
  8
0
  0
BLOCK
  8
0
  2
*U1
 70
     1
 10
0.0
 20
0.0
 30
0.0
  3
*U1
  1

  0
ENDBLK
  5
24E
  8
0
  0
ENDSEC
  0
SECTION
  2
ENTITIES
  0
INSERT
  5
40
  8
0
  2
ACAD
 10
-44.797308999999998
 20
-526.77067699999998
 30
0.0
  0
ARC
  5
41
  8
0
 10
100.88126699999999
 20
45.899917999999992
 30
0.0
 40
2.0
 50
225.0
 51
315.0
  0
ARC
  5
42
  8
0
 10
80.881267000000008
 20
45.899917999999992
 30
0.0
 40
2.0
 50
225.0
 51
315.0
  0
ARC
  5
43
  8
0
 10
60.881267000000001
 20
45.899917999999992
 30
0.0
 40
2.0
 50
225.0
 51
315.0
  0
LINE
  5
44
  8
0
 10
87.231266999999988
 20
50.664132000000002
 30
0.0
 11
87.231266999999988
 21
51.798698999999992
 31
0.0
  0
ARC
  5
45
  8
0
 10
84.231267000000003
 20
50.664132000000002
 30
0.0
 40
3.0
 50
315.0
 51
0.0
  0
LINE
  5
46
  8
0
 10
82.295479999999984
 20
44.485704999999989
 30
0.0
 11
86.352586999999986
 21
48.542811999999991
 31
0.0
  0
LINE
  5
47
  8
0
 10
79.467053000000007
 20
44.485704999999989
 30
0.0
 11
75.409945999999991
 21
48.542811999999991
 31
0.0
  0
ARC
  5
48
  8
0
 10
77.531267
 20
50.664132000000002
 30
0.0
 40
3.0
 50
180.0
 51
225.0
  0
LINE
  5
49
  8
0
 10
74.531267
 20
50.664132000000002
 30
0.0
 11
74.531267
 21
51.798698999999992
 31
0.0
  0
ARC
  5
4A
  8
0
 10
70.881267000000008
 20
51.798698999999992
 30
0.0
 40
2.149999999999999
 50
180.0
 51
0.0
  0
ARC
  5
4B
  8
0
 10
64.231267000000003
 20
50.664132000000002
 30
0.0
 40
3.0
 50
315.0
 51
0.0
  0
LINE
  5
4C
  8
0
 10
62.295480000000012
 20
44.485704999999989
 30
0.0
 11
66.352587
 21
48.542811999999991
 31
0.0
  0
LINE
  5
4D
  8
0
 10
67.231267000000003
 20
50.664132000000002
 30
0.0
 11
67.231267000000003
 21
51.798698999999992
 31
0.0
  0
ARC
  5
4E
  8
0
 10
73.681267000000005
 20
43.298698999999999
 30
0.0
 40
0.3
 50
90.0
 51
180.0
  0
ARC
  5
4F
  8
0
 10
72.015833999999998
 20
45.148698999999993
 30
0.0
 40
3.0
 50
45.0
 51
90.0
  0
ARC
  5
50
  8
0
 10
75.798855000000003
 20
44.431111000000001
 30
0.0
 40
0.832412
 50
270.0
 51
45.000087999999991
  0
LINE
  5
51
  8
0
 10
73.381267000000008
 20
42.65751199999999
 30
0.0
 11
73.381267000000008
 21
43.298698999999999
 31
0.0
  0
LINE
  5
52
  8
0
 10
73.681267000000005
 20
43.598698999999989
 30
0.0
 11
75.798855000000003
 21
43.598698999999989
 31
0.0
  0
LINE
  5
53
  8
0
 10
76.387457999999995
 20
45.019716000000003
 30
0.0
 11
74.137153999999995
 21
47.270018999999998
 31
0.0
  0
LINE
  5
54
  8
0
 10
72.015833999999998
 20
48.148699000000001
 30
0.0
 11
70.881267000000008
 21
48.148699000000001
 31
0.0
  0
LINE
  5
55
  8
0
 10
69.746700000000004
 20
48.148699000000001
 30
0.0
 11
70.881267000000008
 21
48.148699000000001
 31
0.0
  0
LINE
  5
56
  8
0
 10
65.375074999999995
 20
45.019716000000003
 30
0.0
 11
67.625379000000009
 21
47.270018999999998
 31
0.0
  0
LINE
  5
57
  8
0
 10
68.081267000000011
 20
43.598698999999989
 30
0.0
 11
65.963678000000002
 21
43.598698999999989
 31
0.0
  0
LINE
  5
58
  8
0
 10
68.381267000000008
 20
42.65751199999999
 30
0.0
 11
68.381267000000008
 21
43.298698999999999
 31
0.0
  0
ARC
  5
59
  8
0
 10
65.963678000000002
 20
44.431111000000001
 30
0.0
 40
0.832412
 50
134.99991199999999
 51
270.0
  0
ARC
  5
5A
  8
0
 10
69.746700000000004
 20
45.148698999999993
 30
0.0
 40
3.0
 50
90.0
 51
135.0
  0
ARC
  5
5B
  8
0
 10
68.081267000000011
 20
43.298698999999999
 30
0.0
 40
0.3
 50
0.0
 51
90.0
  0
LINE
  5
5C
  8
0
 10
47.231266999999988
 20
50.664132000000002
 30
0.0
 11
47.231266999999988
 21
51.798698999999992
 31
0.0
  0
LINE
  5
5D
  8
0
 10
44.102282999999993
 20
46.292507999999998
 30
0.0
 11
46.352587
 21
48.542811999999991
 31
0.0
  0
LINE
  5
5E
  8
0
 10
42.681266999999991
 20
48.998699000000002
 30
0.0
 11
42.681266999999991
 21
46.88111099999999
 31
0.0
  0
LINE
  5
5F
  8
0
 10
41.681266999999998
 20
49.298698999999992
 30
0.0
 11
42.381267000000001
 21
49.298698999999992
 31
0.0
  0
ARC
  5
60
  8
0
 10
43.513678000000013
 20
46.88111099999999
 30
0.0
 40
0.832412
 50
180.0
 51
315.00008800000001
  0
ARC
  5
61
  8
0
 10
44.231267000000003
 20
50.664132000000002
 30
0.0
 40
3.0
 50
315.0
 51
0.0
  0
ARC
  5
62
  8
0
 10
42.381267000000001
 20
48.998699000000002
 30
0.0
 40
0.3
 50
0.0
 51
90.0
  0
ARC
  5
63
  8
0
 10
57.531267000000007
 20
50.664132000000002
 30
0.0
 40
3.0
 50
180.0
 51
225.0
  0
LINE
  5
64
  8
0
 10
59.467053
 20
44.485704999999989
 30
0.0
 11
55.409945999999998
 21
48.542811999999991
 31
0.0
  0
LINE
  5
65
  8
0
 10
54.531267000000007
 20
50.664132000000002
 30
0.0
 11
54.531267000000007
 21
51.798698999999992
 31
0.0
  0
ARC
  5
66
  8
0
 10
48.08126699999999
 20
43.298698999999999
 30
0.0
 40
0.3
 50
0.0
 51
90.0
  0
ARC
  5
67
  8
0
 10
49.74669999999999
 20
45.148698999999993
 30
0.0
 40
3.0
 50
90.0
 51
135.0
  0
ARC
  5
68
  8
0
 10
45.963678000000002
 20
44.431111000000001
 30
0.0
 40
0.832412
 50
134.99991199999999
 51
270.0
  0
LINE
  5
69
  8
0
 10
48.381267000000001
 20
42.65751199999999
 30
0.0
 11
48.381267000000001
 21
43.298698999999999
 31
0.0
  0
LINE
  5
6A
  8
0
 10
48.08126699999999
 20
43.598698999999989
 30
0.0
 11
45.963678000000002
 21
43.598698999999989
 31
0.0
  0
LINE
  5
6B
  8
0
 10
45.375075000000002
 20
45.019716000000003
 30
0.0
 11
47.625378999999988
 21
47.270018999999998
 31
0.0
  0
LINE
  5
6C
  8
0
 10
49.74669999999999
 20
48.148699000000001
 30
0.0
 11
50.881267000000001
 21
48.148699000000001
 31
0.0
  0
LINE
  5
6D
  8
0
 10
52.015833999999998
 20
48.148699000000001
 30
0.0
 11
50.881267000000001
 21
48.148699000000001
 31
0.0
  0
LINE
  5
6E
  8
0
 10
56.387457999999988
 20
45.019716000000003
 30
0.0
 11
54.137154000000002
 21
47.270018999999998
 31
0.0
  0
LINE
  5
6F
  8
0
 10
53.681267000000013
 20
43.598698999999989
 30
0.0
 11
55.798855000000003
 21
43.598698999999989
 31
0.0
  0
LINE
  5
70
  8
0
 10
53.381267000000001
 20
42.65751199999999
 30
0.0
 11
53.381267000000001
 21
43.298698999999999
 31
0.0
  0
ARC
  5
71
  8
0
 10
55.798855000000003
 20
44.431111000000001
 30
0.0
 40
0.832412
 50
270.0
 51
45.000087999999991
  0
ARC
  5
72
  8
0
 10
52.015833999999998
 20
45.148698999999993
 30
0.0
 40
3.0
 50
45.0
 51
90.0
  0
ARC
  5
73
  8
0
 10
53.681267000000013
 20
43.298698999999999
 30
0.0
 40
0.3
 50
90.0
 51
180.0
  0
ARC
  5
74
  8
0
 10
50.881267000000001
 20
51.798698999999992
 30
0.0
 40
2.149999999999999
 50
180.0
 51
0.0
  0
ARC
  5
75
  8
0
 10
42.881267000000001
 20
43.798698999999999
 30
0.0
 40
2.0
 50
180.0
 51
270.0
  0
ARC
  5
76
  8
0
 10
118.88126699999999
 20
43.798698999999999
 30
0.0
 40
2.0
 50
270.0
 51
0.0
  0
ARC
  5
77
  8
0
 10
110.88126699999999
 20
51.798698999999992
 30
0.0
 40
2.149999999999999
 50
180.0
 51
0.0
  0
LINE
  5
78
  8
0
 10
114.531267
 20
50.664132000000002
 30
0.0
 11
114.531267
 21
51.798698999999992
 31
0.0
  0
LINE
  5
79
  8
0
 10
117.66025
 20
46.292507999999998
 30
0.0
 11
115.40994600000001
 21
48.542811999999991
 31
0.0
  0
LINE
  5
7A
  8
0
 10
119.081267
 20
48.998699000000002
 30
0.0
 11
119.081267
 21
46.88111099999999
 31
0.0
  0
LINE
  5
7B
  8
0
 10
120.081267
 20
49.298698999999992
 30
0.0
 11
119.38126699999999
 21
49.298698999999992
 31
0.0
  0
ARC
  5
7C
  8
0
 10
118.24885500000001
 20
46.88111099999999
 30
0.0
 40
0.832412
 50
224.99991199999999
 51
0.0
  0
ARC
  5
7D
  8
0
 10
117.531267
 20
50.664132000000002
 30
0.0
 40
3.0
 50
180.0
 51
225.0
  0
ARC
  5
7E
  8
0
 10
119.38126699999999
 20
48.998699000000002
 30
0.0
 40
0.3
 50
90.0
 51
180.0
  0
ARC
  5
7F
  8
0
 10
104.231267
 20
50.664132000000002
 30
0.0
 40
3.0
 50
315.0
 51
0.0
  0
LINE
  5
80
  8
0
 10
102.29548
 20
44.485704999999989
 30
0.0
 11
106.352587
 21
48.542811999999991
 31
0.0
  0
LINE
  5
81
  8
0
 10
107.231267
 20
50.664132000000002
 30
0.0
 11
107.231267
 21
51.798698999999992
 31
0.0
  0
ARC
  5
82
  8
0
 10
113.68126700000001
 20
43.298698999999999
 30
0.0
 40
0.3
 50
90.0
 51
180.0
  0
ARC
  5
83
  8
0
 10
112.015834
 20
45.148698999999993
 30
0.0
 40
3.0
 50
45.0
 51
90.0
  0
ARC
  5
84
  8
0
 10
115.798855
 20
44.431111000000001
 30
0.0
 40
0.832412
 50
270.0
 51
45.000087999999991
  0
LINE
  5
85
  8
0
 10
113.38126699999999
 20
42.65751199999999
 30
0.0
 11
113.38126699999999
 21
43.298698999999999
 31
0.0
  0
LINE
  5
86
  8
0
 10
113.68126700000001
 20
43.598698999999989
 30
0.0
 11
115.798855
 21
43.598698999999989
 31
0.0
  0
LINE
  5
87
  8
0
 10
116.387458
 20
45.019716000000003
 30
0.0
 11
114.137154
 21
47.270018999999998
 31
0.0
  0
LINE
  5
88
  8
0
 10
112.015834
 20
48.148699000000001
 30
0.0
 11
110.88126699999999
 21
48.148699000000001
 31
0.0
  0
LINE
  5
89
  8
0
 10
109.7467
 20
48.148699000000001
 30
0.0
 11
110.88126699999999
 21
48.148699000000001
 31
0.0
  0
LINE
  5
8A
  8
0
 10
105.375075
 20
45.019716000000003
 30
0.0
 11
107.625379
 21
47.270018999999998
 31
0.0
  0
LINE
  5
8B
  8
0
 10
108.081267
 20
43.598698999999989
 30
0.0
 11
105.963678
 21
43.598698999999989
 31
0.0
  0
LINE
  5
8C
  8
0
 10
108.38126699999999
 20
42.65751199999999
 30
0.0
 11
108.38126699999999
 21
43.298698999999999
 31
0.0
  0
ARC
  5
8D
  8
0
 10
105.963678
 20
44.431111000000001
 30
0.0
 40
0.832412
 50
134.99991199999999
 51
270.0
  0
ARC
  5
8E
  8
0
 10
109.7467
 20
45.148698999999993
 30
0.0
 40
3.0
 50
90.0
 51
135.0
  0
ARC
  5
8F
  8
0
 10
108.081267
 20
43.298698999999999
 30
0.0
 40
0.3
 50
0.0
 51
90.0
  0
ARC
  5
90
  8
0
 10
97.531267000000014
 20
50.664132000000002
 30
0.0
 40
3.0
 50
180.0
 51
225.0
  0
LINE
  5
91
  8
0
 10
99.467053000000007
 20
44.485704999999989
 30
0.0
 11
95.409945999999991
 21
48.542811999999991
 31
0.0
  0
LINE
  5
92
  8
0
 10
94.531267
 20
50.664132000000002
 30
0.0
 11
94.531267
 21
51.798698999999992
 31
0.0
  0
ARC
  5
93
  8
0
 10
88.081266999999997
 20
43.298698999999999
 30
0.0
 40
0.3
 50
0.0
 51
90.0
  0
ARC
  5
94
  8
0
 10
89.746700000000004
 20
45.148698999999993
 30
0.0
 40
3.0
 50
90.0
 51
135.0
  0
ARC
  5
95
  8
0
 10
85.963678000000016
 20
44.431111000000001
 30
0.0
 40
0.832412
 50
134.99991199999999
 51
270.0
  0
LINE
  5
96
  8
0
 10
88.381267000000008
 20
42.65751199999999
 30
0.0
 11
88.381267000000008
 21
43.298698999999999
 31
0.0
  0
LINE
  5
97
  8
0
 10
88.081266999999997
 20
43.598698999999989
 30
0.0
 11
85.963678000000016
 21
43.598698999999989
 31
0.0
  0
LINE
  5
98
  8
0
 10
85.375074999999995
 20
45.019716000000003
 30
0.0
 11
87.625379000000009
 21
47.270018999999998
 31
0.0
  0
LINE
  5
99
  8
0
 10
89.746700000000004
 20
48.148699000000001
 30
0.0
 11
90.881267000000008
 21
48.148699000000001
 31
0.0
  0
LINE
  5
9A
  8
0
 10
92.015833999999998
 20
48.148699000000001
 30
0.0
 11
90.881267000000008
 21
48.148699000000001
 31
0.0
  0
LINE
  5
9B
  8
0
 10
96.387457999999995
 20
45.019716000000003
 30
0.0
 11
94.137153999999995
 21
47.270018999999998
 31
0.0
  0
LINE
  5
9C
  8
0
 10
93.681267000000005
 20
43.598698999999989
 30
0.0
 11
95.798855000000003
 21
43.598698999999989
 31
0.0
  0
LINE
  5
9D
  8
0
 10
93.381267000000008
 20
42.65751199999999
 30
0.0
 11
93.381267000000008
 21
43.298698999999999
 31
0.0
  0
ARC
  5
9E
  8
0
 10
95.798855000000003
 20
44.431111000000001
 30
0.0
 40
0.832412
 50
270.0
 51
45.000087999999991
  0
ARC
  5
9F
  8
0
 10
92.015833999999998
 20
45.148698999999993
 30
0.0
 40
3.0
 50
45.0
 51
90.0
  0
ARC
  5
A0
  8
0
 10
93.681267000000005
 20
43.298698999999999
 30
0.0
 40
0.3
 50
90.0
 51
180.0
  0
ARC
  5
A1
  8
0
 10
90.881267000000008
 20
51.798698999999992
 30
0.0
 40
2.149999999999999
 50
180.0
 51
0.0
  0
ARC
  5
A2
  8
0
 10
90.881267000000008
 20
51.798698999999992
 30
0.0
 40
2.149999999999999
 50
0.0
 51
180.0
  0
ARC
  5
A3
  8
0
 10
93.681267000000005
 20
60.298698999999999
 30
0.0
 40
0.3
 50
180.0
 51
270.0
  0
ARC
  5
A4
  8
0
 10
92.015833999999998
 20
58.448698999999991
 30
0.0
 40
3.0
 50
270.0
 51
315.0
  0
ARC
  5
A5
  8
0
 10
95.798855000000003
 20
59.166286999999997
 30
0.0
 40
0.832412
 50
314.99991199999999
 51
90.0
  0
LINE
  5
A6
  8
0
 10
93.381267000000008
 20
60.998699000000002
 30
0.0
 11
93.381267000000008
 21
60.298698999999999
 31
0.0
  0
LINE
  5
A7
  8
0
 10
93.681267000000005
 20
59.998699000000002
 30
0.0
 11
95.798855000000003
 21
59.998699000000002
 31
0.0
  0
LINE
  5
A8
  8
0
 10
96.387457999999995
 20
58.577683
 30
0.0
 11
94.137153999999995
 21
56.327379000000001
 31
0.0
  0
LINE
  5
A9
  8
0
 10
92.015833999999998
 20
55.448698999999998
 30
0.0
 11
90.881267000000008
 21
55.448698999999998
 31
0.0
  0
LINE
  5
AA
  8
0
 10
89.746700000000004
 20
55.448698999999998
 30
0.0
 11
90.881267000000008
 21
55.448698999999998
 31
0.0
  0
LINE
  5
AB
  8
0
 10
85.375074999999995
 20
58.577683
 30
0.0
 11
87.625379000000009
 21
56.327379000000001
 31
0.0
  0
LINE
  5
AC
  8
0
 10
88.081266999999997
 20
59.998699000000002
 30
0.0
 11
85.963678000000016
 21
59.998699000000002
 31
0.0
  0
LINE
  5
AD
  8
0
 10
88.381267000000008
 20
60.998699000000002
 30
0.0
 11
88.381267000000008
 21
60.298698999999999
 31
0.0
  0
ARC
  5
AE
  8
0
 10
85.963678000000016
 20
59.166286999999997
 30
0.0
 40
0.832412
 50
90.0
 51
225.00008800000001
  0
ARC
  5
AF
  8
0
 10
89.746700000000004
 20
58.448698999999991
 30
0.0
 40
3.0
 50
225.0
 51
270.0
  0
ARC
  5
B0
  8
0
 10
88.081266999999997
 20
60.298698999999999
 30
0.0
 40
0.3
 50
270.0
 51
0.0
  0
LINE
  5
B1
  8
0
 10
94.531267
 20
52.933266000000003
 30
0.0
 11
94.531267
 21
51.798698999999992
 31
0.0
  0
LINE
  5
B2
  8
0
 10
99.467053000000007
 20
59.111693000000002
 30
0.0
 11
95.409945999999991
 21
55.054586999999998
 31
0.0
  0
ARC
  5
B3
  8
0
 10
97.531267000000014
 20
52.933266000000003
 30
0.0
 40
3.0
 50
135.0
 51
180.0
  0
LINE
  5
B4
  8
0
 10
98.881266999999994
 20
61.798698999999992
 30
0.0
 11
100.88126699999999
 21
61.798698999999992
 31
0.0
  0
ARC
  5
B5
  8
0
 10
108.081267
 20
60.298698999999999
 30
0.0
 40
0.3
 50
270.0
 51
0.0
  0
ARC
  5
B6
  8
0
 10
109.7467
 20
58.448698999999991
 30
0.0
 40
3.0
 50
225.0
 51
270.0
  0
ARC
  5
B7
  8
0
 10
105.963678
 20
59.166286999999997
 30
0.0
 40
0.832412
 50
90.0
 51
225.00008800000001
  0
LINE
  5
B8
  8
0
 10
108.38126699999999
 20
60.998699000000002
 30
0.0
 11
108.38126699999999
 21
60.298698999999999
 31
0.0
  0
LINE
  5
B9
  8
0
 10
108.081267
 20
59.998699000000002
 30
0.0
 11
105.963678
 21
59.998699000000002
 31
0.0
  0
LINE
  5
BA
  8
0
 10
105.375075
 20
58.577683
 30
0.0
 11
107.625379
 21
56.327379000000001
 31
0.0
  0
LINE
  5
BB
  8
0
 10
109.7467
 20
55.448698999999998
 30
0.0
 11
110.88126699999999
 21
55.448698999999998
 31
0.0
  0
LINE
  5
BC
  8
0
 10
112.015834
 20
55.448698999999998
 30
0.0
 11
110.88126699999999
 21
55.448698999999998
 31
0.0
  0
LINE
  5
BD
  8
0
 10
116.387458
 20
58.577683
 30
0.0
 11
114.137154
 21
56.327379000000001
 31
0.0
  0
LINE
  5
BE
  8
0
 10
113.68126700000001
 20
59.998699000000002
 30
0.0
 11
115.798855
 21
59.998699000000002
 31
0.0
  0
LINE
  5
BF
  8
0
 10
113.38126699999999
 20
60.998699000000002
 30
0.0
 11
113.38126699999999
 21
60.298698999999999
 31
0.0
  0
ARC
  5
C0
  8
0
 10
115.798855
 20
59.166286999999997
 30
0.0
 40
0.832412
 50
314.99991199999999
 51
90.0
  0
ARC
  5
C1
  8
0
 10
112.015834
 20
58.448698999999991
 30
0.0
 40
3.0
 50
270.0
 51
315.0
  0
ARC
  5
C2
  8
0
 10
113.68126700000001
 20
60.298698999999999
 30
0.0
 40
0.3
 50
180.0
 51
270.0
  0
LINE
  5
C3
  8
0
 10
107.231267
 20
52.933266000000003
 30
0.0
 11
107.231267
 21
51.798698999999992
 31
0.0
  0
LINE
  5
C4
  8
0
 10
102.29548
 20
59.111693000000002
 30
0.0
 11
106.352587
 21
55.054586999999998
 31
0.0
  0
ARC
  5
C5
  8
0
 10
104.231267
 20
52.933266000000003
 30
0.0
 40
3.0
 50
0.0
 51
45.0
  0
LINE
  5
C6
  8
0
 10
102.88126699999999
 20
61.798698999999992
 30
0.0
 11
100.88126699999999
 21
61.798698999999992
 31
0.0
  0
ARC
  5
C7
  8
0
 10
119.38126699999999
 20
54.598699000000003
 30
0.0
 40
0.3
 50
180.0
 51
270.0
  0
ARC
  5
C8
  8
0
 10
117.531267
 20
52.933266000000003
 30
0.0
 40
3.0
 50
135.0
 51
180.0
  0
ARC
  5
C9
  8
0
 10
118.24885500000001
 20
56.716287000000001
 30
0.0
 40
0.832412
 50
0.0
 51
135.00008800000001
  0
LINE
  5
CA
  8
0
 10
120.081267
 20
54.298698999999992
 30
0.0
 11
119.38126699999999
 21
54.298698999999992
 31
0.0
  0
LINE
  5
CB
  8
0
 10
119.081267
 20
54.598699000000003
 30
0.0
 11
119.081267
 21
56.716287000000001
 31
0.0
  0
LINE
  5
CC
  8
0
 10
117.66025
 20
57.30489
 30
0.0
 11
115.40994600000001
 21
55.054586999999998
 31
0.0
  0
LINE
  5
CD
  8
0
 10
114.531267
 20
52.933266000000003
 30
0.0
 11
114.531267
 21
51.798698999999992
 31
0.0
  0
ARC
  5
CE
  8
0
 10
110.88126699999999
 20
51.798698999999992
 30
0.0
 40
2.149999999999999
 50
0.0
 51
180.0
  0
ARC
  5
CF
  8
0
 10
118.88126699999999
 20
59.798698999999999
 30
0.0
 40
2.0
 50
0.0
 51
90.0
  0
ARC
  5
D0
  8
0
 10
42.881267000000001
 20
59.798698999999999
 30
0.0
 40
2.0
 50
90.0
 51
180.0
  0
ARC
  5
D1
  8
0
 10
50.881267000000001
 20
51.798698999999992
 30
0.0
 40
2.149999999999999
 50
0.0
 51
180.0
  0
ARC
  5
D2
  8
0
 10
53.681267000000013
 20
60.298698999999999
 30
0.0
 40
0.3
 50
180.0
 51
270.0
  0
ARC
  5
D3
  8
0
 10
52.015833999999998
 20
58.448698999999991
 30
0.0
 40
3.0
 50
270.0
 51
315.0
  0
ARC
  5
D4
  8
0
 10
55.798855000000003
 20
59.166286999999997
 30
0.0
 40
0.832412
 50
314.99991199999999
 51
90.0
  0
LINE
  5
D5
  8
0
 10
53.381267000000001
 20
60.998699000000002
 30
0.0
 11
53.381267000000001
 21
60.298698999999999
 31
0.0
  0
LINE
  5
D6
  8
0
 10
53.681267000000013
 20
59.998699000000002
 30
0.0
 11
55.798855000000003
 21
59.998699000000002
 31
0.0
  0
LINE
  5
D7
  8
0
 10
56.387457999999988
 20
58.577683
 30
0.0
 11
54.137154000000002
 21
56.327379000000001
 31
0.0
  0
LINE
  5
D8
  8
0
 10
52.015833999999998
 20
55.448698999999998
 30
0.0
 11
50.881267000000001
 21
55.448698999999998
 31
0.0
  0
LINE
  5
D9
  8
0
 10
49.74669999999999
 20
55.448698999999998
 30
0.0
 11
50.881267000000001
 21
55.448698999999998
 31
0.0
  0
LINE
  5
DA
  8
0
 10
45.375075000000002
 20
58.577683
 30
0.0
 11
47.625378999999988
 21
56.327379000000001
 31
0.0
  0
LINE
  5
DB
  8
0
 10
48.08126699999999
 20
59.998699000000002
 30
0.0
 11
45.963678000000002
 21
59.998699000000002
 31
0.0
  0
LINE
  5
DC
  8
0
 10
48.381267000000001
 20
60.998699000000002
 30
0.0
 11
48.381267000000001
 21
60.298698999999999
 31
0.0
  0
ARC
  5
DD
  8
0
 10
45.963678000000002
 20
59.166286999999997
 30
0.0
 40
0.832412
 50
90.0
 51
225.00008800000001
  0
ARC
  5
DE
  8
0
 10
49.74669999999999
 20
58.448698999999991
 30
0.0
 40
3.0
 50
225.0
 51
270.0
  0
ARC
  5
DF
  8
0
 10
48.08126699999999
 20
60.298698999999999
 30
0.0
 40
0.3
 50
270.0
 51
0.0
  0
LINE
  5
E0
  8
0
 10
54.531267000000007
 20
52.933266000000003
 30
0.0
 11
54.531267000000007
 21
51.798698999999992
 31
0.0
  0
LINE
  5
E1
  8
0
 10
59.467053
 20
59.111693000000002
 30
0.0
 11
55.409945999999998
 21
55.054586999999998
 31
0.0
  0
ARC
  5
E2
  8
0
 10
57.531267000000007
 20
52.933266000000003
 30
0.0
 40
3.0
 50
135.0
 51
180.0
  0
LINE
  5
E3
  8
0
 10
58.881267000000001
 20
61.798698999999992
 30
0.0
 11
60.881267000000001
 21
61.798698999999992
 31
0.0
  0
ARC
  5
E4
  8
0
 10
42.381267000000001
 20
54.598699000000003
 30
0.0
 40
0.3
 50
270.0
 51
0.0
  0
ARC
  5
E5
  8
0
 10
44.231267000000003
 20
52.933266000000003
 30
0.0
 40
3.0
 50
0.0
 51
45.0
  0
ARC
  5
E6
  8
0
 10
43.513678000000013
 20
56.716287000000001
 30
0.0
 40
0.832412
 50
44.999912000000002
 51
180.0
  0
LINE
  5
E7
  8
0
 10
41.681266999999998
 20
54.298698999999992
 30
0.0
 11
42.381267000000001
 21
54.298698999999992
 31
0.0
  0
LINE
  5
E8
  8
0
 10
42.681266999999991
 20
54.598699000000003
 30
0.0
 11
42.681266999999991
 21
56.716287000000001
 31
0.0
  0
LINE
  5
E9
  8
0
 10
44.102282999999993
 20
57.30489
 30
0.0
 11
46.352587
 21
55.054586999999998
 31
0.0
  0
LINE
  5
EA
  8
0
 10
47.231266999999988
 20
52.933266000000003
 30
0.0
 11
47.231266999999988
 21
51.798698999999992
 31
0.0
  0
ARC
  5
EB
  8
0
 10
68.081267000000011
 20
60.298698999999999
 30
0.0
 40
0.3
 50
270.0
 51
0.0
  0
ARC
  5
EC
  8
0
 10
69.746700000000004
 20
58.448698999999991
 30
0.0
 40
3.0
 50
225.0
 51
270.0
  0
ARC
  5
ED
  8
0
 10
65.963678000000002
 20
59.166286999999997
 30
0.0
 40
0.832412
 50
90.0
 51
225.00008800000001
  0
LINE
  5
EE
  8
0
 10
68.381267000000008
 20
60.998699000000002
 30
0.0
 11
68.381267000000008
 21
60.298698999999999
 31
0.0
  0
LINE
  5
EF
  8
0
 10
68.081267000000011
 20
59.998699000000002
 30
0.0
 11
65.963678000000002
 21
59.998699000000002
 31
0.0
  0
LINE
  5
F0
  8
0
 10
65.375074999999995
 20
58.577683
 30
0.0
 11
67.625379000000009
 21
56.327379000000001
 31
0.0
  0
LINE
  5
F1
  8
0
 10
69.746700000000004
 20
55.448698999999998
 30
0.0
 11
70.881267000000008
 21
55.448698999999998
 31
0.0
  0
LINE
  5
F2
  8
0
 10
72.015833999999998
 20
55.448698999999998
 30
0.0
 11
70.881267000000008
 21
55.448698999999998
 31
0.0
  0
LINE
  5
F3
  8
0
 10
76.387457999999995
 20
58.577683
 30
0.0
 11
74.137153999999995
 21
56.327379000000001
 31
0.0
  0
LINE
  5
F4
  8
0
 10
73.681267000000005
 20
59.998699000000002
 30
0.0
 11
75.798855000000003
 21
59.998699000000002
 31
0.0
  0
LINE
  5
F5
  8
0
 10
73.381267000000008
 20
60.998699000000002
 30
0.0
 11
73.381267000000008
 21
60.298698999999999
 31
0.0
  0
ARC
  5
F6
  8
0
 10
75.798855000000003
 20
59.166286999999997
 30
0.0
 40
0.832412
 50
314.99991199999999
 51
90.0
  0
ARC
  5
F7
  8
0
 10
72.015833999999998
 20
58.448698999999991
 30
0.0
 40
3.0
 50
270.0
 51
315.0
  0
ARC
  5
F8
  8
0
 10
73.681267000000005
 20
60.298698999999999
 30
0.0
 40
0.3
 50
180.0
 51
270.0
  0
LINE
  5
F9
  8
0
 10
67.231267000000003
 20
52.933266000000003
 30
0.0
 11
67.231267000000003
 21
51.798698999999992
 31
0.0
  0
LINE
  5
FA
  8
0
 10
62.295480000000012
 20
59.111693000000002
 30
0.0
 11
66.352587
 21
55.054586999999998
 31
0.0
  0
ARC
  5
FB
  8
0
 10
64.231267000000003
 20
52.933266000000003
 30
0.0
 40
3.0
 50
0.0
 51
45.0
  0
LINE
  5
FC
  8
0
 10
62.881267000000001
 20
61.798698999999992
 30
0.0
 11
60.881267000000001
 21
61.798698999999992
 31
0.0
  0
ARC
  5
FD
  8
0
 10
70.881267000000008
 20
51.798698999999992
 30
0.0
 40
2.149999999999999
 50
0.0
 51
180.0
  0
LINE
  5
FE
  8
0
 10
74.531267
 20
52.933266000000003
 30
0.0
 11
74.531267
 21
51.798698999999992
 31
0.0
  0
ARC
  5
FF
  8
0
 10
77.531267
 20
52.933266000000003
 30
0.0
 40
3.0
 50
135.0
 51
180.0
  0
LINE
  5
100
  8
0
 10
79.467053000000007
 20
59.111693000000002
 30
0.0
 11
75.409945999999991
 21
55.054586999999998
 31
0.0
  0
LINE
  5
101
  8
0
 10
82.295479999999984
 20
59.111693000000002
 30
0.0
 11
86.352586999999986
 21
55.054586999999998
 31
0.0
  0
ARC
  5
102
  8
0
 10
84.231267000000003
 20
52.933266000000003
 30
0.0
 40
3.0
 50
0.0
 51
45.0
  0
LINE
  5
103
  8
0
 10
87.231266999999988
 20
52.933266000000003
 30
0.0
 11
87.231266999999988
 21
51.798698999999992
 31
0.0
  0
LINE
  5
104
  8
0
 10
78.881266999999994
 20
61.798698999999992
 30
0.0
 11
80.881267000000008
 21
61.798698999999992
 31
0.0
  0
LINE
  5
105
  8
0
 10
82.881267000000008
 20
61.798698999999992
 30
0.0
 11
80.881267000000008
 21
61.798698999999992
 31
0.0
  0
ARC
  5
106
  8
0
 10
60.881267000000001
 20
57.697479999999999
 30
0.0
 40
2.0
 50
45.0
 51
135.0
  0
ARC
  5
107
  8
0
 10
80.881267000000008
 20
57.697479999999999
 30
0.0
 40
2.0
 50
45.0
 51
135.0
  0
ARC
  5
108
  8
0
 10
100.88126699999999
 20
57.697479999999999
 30
0.0
 40
2.0
 50
45.0
 51
135.0
  0
LINE
  5
109
  8
0
 10
42.881267000000001
 20
61.798698999999992
 30
0.0
 11
47.581266999999997
 21
61.798698999999992
 31
0.0
  0
LINE
  5
10A
  8
0
 10
54.181267000000013
 20
61.798698999999992
 30
0.0
 11
67.581267000000011
 21
61.798698999999992
 31
0.0
  0
ARC
  5
10B
  8
0
 10
47.581266999999997
 20
60.998699000000002
 30
0.0
 40
0.8
 50
0.0
 51
90.0
  0
ARC
  5
10C
  8
0
 10
54.181267000000013
 20
60.998699000000002
 30
0.0
 40
0.8
 50
90.0
 51
180.0
  0
LINE
  5
10D
  8
0
 10
74.181267000000005
 20
61.798698999999992
 30
0.0
 11
87.581267000000011
 21
61.798698999999992
 31
0.0
  0
ARC
  5
10E
  8
0
 10
67.581267000000011
 20
60.998699000000002
 30
0.0
 40
0.8
 50
0.0
 51
90.0
  0
ARC
  5
10F
  8
0
 10
74.181267000000005
 20
60.998699000000002
 30
0.0
 40
0.8
 50
90.0
 51
180.0
  0
LINE
  5
110
  8
0
 10
94.181267000000005
 20
61.798698999999992
 30
0.0
 11
107.581267
 21
61.798698999999992
 31
0.0
  0
ARC
  5
111
  8
0
 10
87.581267000000011
 20
60.998699000000002
 30
0.0
 40
0.8
 50
0.0
 51
90.0
  0
ARC
  5
112
  8
0
 10
94.181267000000005
 20
60.998699000000002
 30
0.0
 40
0.8
 50
90.0
 51
180.0
  0
LINE
  5
113
  8
0
 10
114.18126700000001
 20
61.798698999999992
 30
0.0
 11
118.88126699999999
 21
61.798698999999992
 31
0.0
  0
ARC
  5
114
  8
0
 10
107.581267
 20
60.998699000000002
 30
0.0
 40
0.8
 50
0.0
 51
90.0
  0
ARC
  5
115
  8
0
 10
114.18126700000001
 20
60.998699000000002
 30
0.0
 40
0.8
 50
90.0
 51
180.0
  0
LINE
  5
116
  8
0
 10
120.88126699999999
 20
59.798698999999999
 30
0.0
 11
120.88126699999999
 21
55.098698999999989
 31
0.0
  0
LINE
  5
117
  8
0
 10
120.88126699999999
 20
48.498699000000002
 30
0.0
 11
120.88126699999999
 21
43.798698999999999
 31
0.0
  0
ARC
  5
118
  8
0
 10
120.081267
 20
55.098698999999989
 30
0.0
 40
0.8
 50
270.0
 51
0.0
  0
ARC
  5
119
  8
0
 10
120.081267
 20
48.498699000000002
 30
0.0
 40
0.8
 50
0.0
 51
90.0
  0
ARC
  5
11A
  8
0
 10
41.681266999999998
 20
48.498699000000002
 30
0.0
 40
0.8
 50
90.0
 51
180.0
  0
ARC
  5
11B
  8
0
 10
41.681266999999998
 20
55.098698999999989
 30
0.0
 40
0.8
 50
180.0
 51
270.0
  0
LINE
  5
11C
  8
0
 10
40.881267000000001
 20
59.798698999999999
 30
0.0
 11
40.881267000000001
 21
55.098698999999989
 31
0.0
  0
LINE
  5
11D
  8
0
 10
40.881267000000001
 20
48.498699000000002
 30
0.0
 11
40.881267000000001
 21
43.798698999999999
 31
0.0
  0
ARC
  5
11E
  8
0
 10
114.18126700000001
 20
42.598698999999989
 30
0.0
 40
0.8
 50
180.0
 51
270.0
  0
ARC
  5
11F
  8
0
 10
107.581267
 20
42.598698999999989
 30
0.0
 40
0.8
 50
270.0
 51
0.0
  0
LINE
  5
120
  8
0
 10
114.18126700000001
 20
41.798698999999992
 30
0.0
 11
118.88126699999999
 21
41.798698999999992
 31
0.0
  0
ARC
  5
121
  8
0
 10
94.181267000000005
 20
42.598698999999989
 30
0.0
 40
0.8
 50
180.0
 51
270.0
  0
ARC
  5
122
  8
0
 10
87.581267000000011
 20
42.598698999999989
 30
0.0
 40
0.8
 50
270.0
 51
0.0
  0
LINE
  5
123
  8
0
 10
94.181267000000005
 20
41.798698999999992
 30
0.0
 11
107.581267
 21
41.798698999999992
 31
0.0
  0
ARC
  5
124
  8
0
 10
74.181267000000005
 20
42.598698999999989
 30
0.0
 40
0.8
 50
180.0
 51
270.0
  0
ARC
  5
125
  8
0
 10
67.581267000000011
 20
42.598698999999989
 30
0.0
 40
0.8
 50
270.0
 51
0.0
  0
LINE
  5
126
  8
0
 10
74.181267000000005
 20
41.798698999999992
 30
0.0
 11
87.581267000000011
 21
41.798698999999992
 31
0.0
  0
ARC
  5
127
  8
0
 10
54.181267000000013
 20
42.598698999999989
 30
0.0
 40
0.8
 50
180.0
 51
270.0
  0
ARC
  5
128
  8
0
 10
47.581266999999997
 20
42.598698999999989
 30
0.0
 40
0.8
 50
270.0
 51
0.0
  0
LINE
  5
129
  8
0
 10
54.181267000000013
 20
41.798698999999992
 30
0.0
 11
67.581267000000011
 21
41.798698999999992
 31
0.0
  0
LINE
  5
12A
  8
0
 10
42.881267000000001
 20
41.798698999999992
 30
0.0
 11
47.581266999999997
 21
41.798698999999992
 31
0.0
  0
LINE
  5
12B
  8
0
 10
82.881267000000008
 20
41.798698999999992
 30
0.0
 11
80.881267000000008
 21
41.798698999999992
 31
0.0
  0
LINE
  5
12C
  8
0
 10
78.881266999999994
 20
41.798698999999992
 30
0.0
 11
80.881267000000008
 21
41.798698999999992
 31
0.0
  0
LINE
  5
12D
  8
0
 10
62.881267000000001
 20
41.798698999999992
 30
0.0
 11
60.881267000000001
 21
41.798698999999992
 31
0.0
  0
LINE
  5
12E
  8
0
 10
58.881267000000001
 20
41.798698999999992
 30
0.0
 11
60.881267000000001
 21
41.798698999999992
 31
0.0
  0
LINE
  5
12F
  8
0
 10
102.88126699999999
 20
41.798698999999992
 30
0.0
 11
100.88126699999999
 21
41.798698999999992
 31
0.0
  0
LINE
  5
130
  8
0
 10
98.881266999999994
 20
41.798698999999992
 30
0.0
 11
100.88126699999999
 21
41.798698999999992
 31
0.0
  0
LINE
  5
131
  8
0
 10
40.881267000000001
 20
76.039171999999994
 30
0.0
 11
40.881267000000001
 21
106.03917199999999
 31
0.0
  0
LINE
  5
132
  8
0
 10
120.88126699999999
 20
76.039171999999994
 30
0.0
 11
120.88126699999999
 21
106.03917199999999
 31
0.0
  0
LINE
  5
133
  8
0
 10
40.881267000000001
 20
76.039171999999994
 30
0.0
 11
120.88126699999999
 21
76.039171999999994
 31
0.0
  0
LINE
  5
134
  8
0
 10
48.381267000000001
 20
76.039171999999994
 30
0.0
 11
48.381267000000001
 21
106.03917199999999
 31
0.0
  0
LINE
  5
135
  8
0
 10
53.381267000000001
 20
76.039171999999994
 30
0.0
 11
53.381267000000001
 21
106.03917199999999
 31
0.0
  0
LINE
  5
136
  8
0
 10
73.381267000000008
 20
76.039171999999994
 30
0.0
 11
73.381267000000008
 21
106.03917199999999
 31
0.0
  0
LINE
  5
137
  8
0
 10
68.381267000000008
 20
76.039171999999994
 30
0.0
 11
68.381267000000008
 21
106.03917199999999
 31
0.0
  0
LINE
  5
138
  8
0
 10
93.381267000000008
 20
76.039171999999994
 30
0.0
 11
93.381267000000008
 21
106.03917199999999
 31
0.0
  0
LINE
  5
139
  8
0
 10
88.381267000000008
 20
76.039171999999994
 30
0.0
 11
88.381267000000008
 21
106.03917199999999
 31
0.0
  0
LINE
  5
13A
  8
0
 10
113.38126699999999
 20
76.039171999999994
 30
0.0
 11
113.38126699999999
 21
106.03917199999999
 31
0.0
  0
LINE
  5
13B
  8
0
 10
108.38126699999999
 20
76.039171999999994
 30
0.0
 11
108.38126699999999
 21
106.03917199999999
 31
0.0
  0
LINE
  5
13C
  8
0
 10
132.19606899999999
 20
61.798698999999992
 30
0.0
 11
132.19606899999999
 21
41.798698999999992
 31
0.0
  0
LINE
  5
13D
  8
0
 10
132.19606899999999
 20
61.798698999999992
 30
0.0
 11
162.19606899999999
 21
61.798698999999992
 31
0.0
  0
LINE
  5
13E
  8
0
 10
132.19606899999999
 20
41.798698999999992
 30
0.0
 11
162.19606899999999
 21
41.798698999999992
 31
0.0
  0
LINE
  5
13F
  8
0
 10
132.19606899999999
 20
54.298698999999992
 30
0.0
 11
162.19606899999999
 21
54.298698999999992
 31
0.0
  0
LINE
  5
140
  8
0
 10
132.19606899999999
 20
49.298698999999992
 30
0.0
 11
162.19606899999999
 21
49.298698999999992
 31
0.0
  0
LINE
  5
145
  8
0
 10
40.881267000000001
 20
106.03917199999999
 30
0.0
 11
120.88126699999999
 21
106.03917199999999
 31
0.0
  0
LINE
  5
146
  8
0
 10
162.19606899999999
 20
61.798698999999992
 30
0.0
 11
162.19606899999999
 21
41.798698999999992
 31
0.0
  0
LINE
  5
147
  8
1
 10
50.881267000000001
 20
56.948698999999998
 30
0.0
 11
50.881267000000001
 21
46.648699000000001
 31
0.0
  0
LINE
  5
148
  8
1
 10
56.031267
 20
51.798698999999992
 30
0.0
 11
45.731266999999988
 21
51.798698999999992
 31
0.0
  0
LINE
  5
149
  8
1
 10
70.881267000000008
 20
56.948698999999998
 30
0.0
 11
70.881267000000008
 21
46.648699000000001
 31
0.0
  0
LINE
  5
14A
  8
1
 10
76.031267
 20
51.798698999999992
 30
0.0
 11
65.731267000000003
 21
51.798698999999992
 31
0.0
  0
LINE
  5
14B
  8
1
 10
90.881267000000008
 20
56.948698999999998
 30
0.0
 11
90.881267000000008
 21
46.648699000000001
 31
0.0
  0
LINE
  5
14C
  8
1
 10
96.031267
 20
51.798698999999992
 30
0.0
 11
85.731267000000017
 21
51.798698999999992
 31
0.0
  0
LINE
  5
14D
  8
1
 10
110.88126699999999
 20
56.948698999999998
 30
0.0
 11
110.88126699999999
 21
46.648699000000001
 31
0.0
  0
LINE
  5
14E
  8
1
 10
116.031267
 20
51.798698999999992
 30
0.0
 11
105.731267
 21
51.798698999999992
 31
0.0
  0
TEXT
  5
32F
  8
0
 62
     3
 10
0.0
 20
0.0
 30
0.0
 40
10.0
  1
L5-SPH8020N-3M
  7
STANDARD1
  0
ENDSEC
  0
EOF
