  0
SECTION
  2
HEADER
  9
$ACADVER
  1
AC1009
  9
$INSBASE
 10
0.0
 20
0.0
 30
0.0
  9
$EXTMIN
 10
0.0
 20
-1.4802182810368341
 30
0.0
  9
$EXTMAX
 10
63.659099628354348
 20
46.421534061021553
 30
0.0
  9
$LIMMIN
 10
0.0
 20
0.0
  9
$LIMMAX
 10
75.0
 20
54.0
  9
$ORTHOMODE
 70
     0
  9
$REGENMODE
 70
     1
  9
$FILLMODE
 70
     1
  9
$QTEXTMODE
 70
     0
  9
$MIRRTEXT
 70
     0
  9
$DRAGMODE
 70
     2
  9
$LTSCALE
 40
2.0
  9
$OSMODE
 70
  3071
  9
$ATTMODE
 70
     1
  9
$TEXTSIZE
 40
2.5000000000000488
  9
$TRACEWID
 40
0.05
  9
$TEXTSTYLE
  7
STANDARD
  9
$CLAYER
  8
0
  9
$CELTYPE
  6
BYLAYER
  9
$CECOLOR
 62
   256
  9
$DIMSCALE
 40
0.2
  9
$DIMASZ
 40
3.0
  9
$DIMEXO
 40
2.0
  9
$DIMDLI
 40
0.38
  9
$DIMRND
 40
0.0
  9
$DIMDLE
 40
0.0
  9
$DIMEXE
 40
2.0
  9
$DIMTP
 40
0.0
  9
$DIMTM
 40
0.0
  9
$DIMTXT
 40
3.0
  9
$DIMCEN
 40
0.0
  9
$DIMTSZ
 40
0.0
  9
$DIMTOL
 70
     0
  9
$DIMLIM
 70
     0
  9
$DIMTIH
 70
     0
  9
$DIMTOH
 70
     0
  9
$DIMSE1
 70
     0
  9
$DIMSE2
 70
     0
  9
$DIMTAD
 70
     1
  9
$DIMZIN
 70
     0
  9
$DIMBLK
  1

  9
$DIMASO
 70
     0
  9
$DIMSHO
 70
     0
  9
$DIMPOST
  1

  9
$DIMAPOST
  1

  9
$DIMALT
 70
     0
  9
$DIMALTD
 70
     2
  9
$DIMALTF
 40
25.399999999999999
  9
$DIMLFAC
 40
1.0
  9
$DIMTOFL
 70
     1
  9
$DIMTVP
 40
1.6000000000000001
  9
$DIMTIX
 70
     1
  9
$DIMSOXD
 70
     0
  9
$DIMSAH
 70
     0
  9
$DIMBLK1
  1

  9
$DIMBLK2
  1

  9
$DIMSTYLE
  2
STANDARD
  9
$DIMCLRD
 70
     0
  9
$DIMCLRE
 70
     0
  9
$DIMCLRT
 70
     0
  9
$DIMTFAC
 40
1.0
  9
$DIMGAP
 40
0.09
  9
$LUNITS
 70
     2
  9
$LUPREC
 70
     4
  9
$SKETCHINC
 40
0.1
  9
$FILLETRAD
 40
0.1
  9
$AUNITS
 70
     0
  9
$AUPREC
 70
     4
  9
$MENU
  1
E:\r13\win\SUPPORT\ACAD
  9
$ELEVATION
 40
0.0
  9
$PELEVATION
 40
0.0
  9
$THICKNESS
 40
0.0
  9
$LIMCHECK
 70
     0
  9
$BLIPMODE
 70
     0
  9
$CHAMFERA
 40
0.0
  9
$CHAMFERB
 40
0.0
  9
$SKPOLY
 70
     0
  9
$TDCREATE
 40
2449840.6522800932
  9
$TDUPDATE
 40
2456597.5472211228
  9
$TDINDWG
 40
0.0050850116
  9
$TDUSRTIMER
 40
0.0050850116
  9
$USRTIMER
 70
     1
  9
$ANGBASE
 50
0.0
  9
$ANGDIR
 70
     0
  9
$PDMODE
 70
     0
  9
$PDSIZE
 40
0.0
  9
$PLINEWID
 40
0.0
  9
$COORDS
 70
     1
  9
$SPLFRAME
 70
     0
  9
$SPLINETYPE
 70
     6
  9
$SPLINESEGS
 70
     8
  9
$ATTDIA
 70
     0
  9
$ATTREQ
 70
     1
  9
$HANDLING
 70
     1
  9
$HANDSEED
  5
225
  9
$SURFTAB1
 70
     6
  9
$SURFTAB2
 70
     6
  9
$SURFTYPE
 70
     6
  9
$SURFU
 70
     6
  9
$SURFV
 70
     6
  9
$UCSNAME
  2

  9
$UCSORG
 10
0.0
 20
0.0
 30
0.0
  9
$UCSXDIR
 10
1.0
 20
0.0
 30
0.0
  9
$UCSYDIR
 10
0.0
 20
1.0
 30
0.0
  9
$PUCSNAME
  2

  9
$PUCSORG
 10
0.0
 20
0.0
 30
0.0
  9
$PUCSXDIR
 10
1.0
 20
0.0
 30
0.0
  9
$PUCSYDIR
 10
0.0
 20
1.0
 30
0.0
  9
$USERI1
 70
     0
  9
$USERI2
 70
     1
  9
$USERI3
 70
     1
  9
$USERI4
 70
     0
  9
$USERI5
 70
     0
  9
$USERR1
 40
0.0
  9
$USERR2
 40
0.0
  9
$USERR3
 40
0.0
  9
$USERR4
 40
0.0
  9
$USERR5
 40
0.0
  9
$WORLDVIEW
 70
     1
  9
$SHADEDGE
 70
     3
  9
$SHADEDIF
 70
    70
  9
$TILEMODE
 70
     1
  9
$MAXACTVP
 70
    16
  9
$PLIMCHECK
 70
     0
  9
$PEXTMIN
 10
1.0000000000000000E+020
 20
1.0000000000000000E+020
 30
1.0000000000000000E+020
  9
$PEXTMAX
 10
-1.0000000000000000E+020
 20
-1.0000000000000000E+020
 30
-1.0000000000000000E+020
  9
$PLIMMIN
 10
0.0
 20
0.0
  9
$PLIMMAX
 10
12.0
 20
9.0
  9
$UNITMODE
 70
     0
  9
$VISRETAIN
 70
     0
  9
$PLINEGEN
 70
     0
  9
$PSLTSCALE
 70
     0
  0
ENDSEC
  0
SECTION
  2
TABLES
  0
TABLE
  2
VPORT
 70
     1
  0
VPORT
  2
*ACTIVE
 70
     0
 10
0.0
 20
0.0
 11
1.0
 21
1.0
 12
37.498855678130482
 22
32.224675447272617
 13
0.0
 23
0.0
 14
2.0
 24
2.0
 15
2.0
 25
2.0
 16
0.0
 26
0.0
 36
1.0
 17
0.0
 27
0.0
 37
0.0
 40
68.048424383997698
 41
1.9089595375722539
 42
50.0
 43
0.0
 44
0.0
 50
0.0
 51
0.0
 71
     0
 72
   500
 73
     1
 74
     0
 75
     0
 76
     0
 77
     0
 78
     2
  0
ENDTAB
  0
TABLE
  2
LTYPE
 70
     3
  0
LTYPE
  2
CONTINUOUS
 70
     0
  3
Solid Line
 72
    65
 73
     0
 40
0.0
  0
LTYPE
  2
CENTER
 70
     0
  3
____ _ ____ _ ____ _ ____ _ ____ _ ____ _ ____
 72
    65
 73
     4
 40
2.0
 49
1.25
 49
-0.25
 49
0.25
 49
-0.25
  0
LTYPE
  2
PHANTOM2
 70
     0
  3
___ _ _ ___ _ _ ___ _ _ ___ _ _
 72
    65
 73
     6
 40
1.25
 49
0.625
 49
-0.125
 49
0.125
 49
-0.125
 49
0.125
 49
-0.125
  0
ENDTAB
  0
TABLE
  2
LAYER
 70
     4
  0
LAYER
  2
0
 70
     0
 62
     7
  6
CONTINUOUS
  0
LAYER
  2
1
 70
     0
 62
     1
  6
CENTER
  0
LAYER
  2
3
 70
     0
 62
     3
  6
CONTINUOUS
  0
LAYER
  2
11
 70
     0
 62
     3
  6
CONTINUOUS
  0
ENDTAB
  0
TABLE
  2
STYLE
 70
     2
  0
STYLE
  2
STANDARD
 70
     0
 40
0.0
 41
1.0
 50
0.0
 71
     0
 42
2.5000000000000488
  3
TXT
  4
BIGFONT
  0
STYLE
  2
STANDARD1
 70
     0
 40
0.0
 41
1.0
 50
0.0
 71
     0
 42
3.0
  3
txt
  4

  0
ENDTAB
  0
TABLE
  2
VIEW
 70
     1
  0
VIEW
  2
ALL
 70
     0
 40
135.0
 10
110.4957983193277
 20
67.5
 41
0.0
 11
0.0
 21
0.0
 31
1.0
 12
0.0
 22
0.0
 32
0.0
 42
0.0
 43
0.0
 44
0.0
 50
0.0
 71
     0
  0
ENDTAB
  0
TABLE
  2
UCS
 70
     0
  0
ENDTAB
  0
TABLE
  2
APPID
 70
     3
  0
APPID
  2
ACAD
 70
     0
  0
APPID
  2
ACAD_MLEADERVER
 70
     0
  0
APPID
  2
ACAD_NAV_VCDISPLAY
 70
     0
  0
ENDTAB
  0
TABLE
  2
DIMSTYLE
 70
     1
  0
DIMSTYLE
  2
STANDARD
 70
     0
  3

  4

  5

  6

  7

 40
1.0
 41
0.18
 42
0.0625
 43
0.38
 44
0.18
 45
0.0
 46
0.0
 47
0.0
 48
0.0
140
0.18
141
0.09
142
0.0
143
25.399999999999999
144
1.0
145
0.0
146
1.0
147
0.09
 71
     0
 72
     0
 73
     1
 74
     1
 75
     0
 76
     0
 77
     0
 78
     0
170
     0
171
     2
172
     0
173
     0
174
     0
175
     0
176
     0
177
     0
178
     0
  0
ENDTAB
  0
ENDSEC
  0
SECTION
  2
BLOCKS
  0
BLOCK
  8
0
  2
$MODEL_SPACE
 70
     0
 10
0.0
 20
0.0
 30
0.0
  3
$MODEL_SPACE
  1

  0
ENDBLK
  5
8F
  8
0
  0
BLOCK
 67
     1
  8
0
  2
$PAPER_SPACE
 70
     0
 10
0.0
 20
0.0
 30
0.0
  3
$PAPER_SPACE
  1

  0
ENDBLK
  5
8D
 67
     1
  8
0
  0
ENDSEC
  0
SECTION
  2
ENTITIES
  0
LINE
  5
3E
  8
1
 10
36.595136698639443
 20
29.837898552638102
 30
0.0
 11
36.595136698639443
 21
22.037898552638119
 31
0.0
  0
ARC
  5
41
  8
0
 10
36.595136698639443
 20
24.787898552638119
 30
0.0
 40
1.25
 50
185.4302630750887
 51
354.5697369249113
  0
LINE
  5
42
  8
0
 10
40.153625208907563
 20
28.337898552638091
 30
0.0
 11
33.036648188371387
 21
28.337898552638102
 31
0.0
  0
ARC
  5
43
  8
0
 10
36.59513669863945
 20
26.837898552638102
 30
0.0
 40
2.5
 50
235.51304436426361
 51
304.48695563573528
  0
ARC
  5
44
  8
0
 10
40.11207222292802
 20
31.075722565186851
 30
0.0
 40
8.0
 50
203.236203114803
 51
231.9346213609457
  0
ARC
  5
45
  8
0
 10
33.078201174350873
 20
31.075722565186851
 30
0.0
 40
8.0
 50
308.06537863905419
 51
336.76379688519722
  0
ARC
  5
46
  8
0
 10
33.036648188371387
 20
28.037898552638101
 30
0.0
 40
0.3
 50
90.0
 51
203.236203114803
  0
ARC
  5
47
  8
0
 10
40.153625208907563
 20
28.037898552638101
 30
0.0
 40
0.3
 50
336.76379688519711
 51
90.0
  0
CIRCLE
  5
9F
  8
0
 10
59.15909962835434
 20
42.421534061021532
 30
0.0
 40
1.6209999999999991
  0
CIRCLE
  5
A0
  8
3
 10
59.15909962835434
 20
42.421534061021532
 30
0.0
 40
2.0
  0
LINE
  5
A1
  8
0
 10
50.659099628354348
 20
38.421534061021518
 30
0.0
 11
62.159099628354369
 21
38.421534061021518
 31
0.0
  0
LINE
  5
A2
  8
0
 10
50.659099628354348
 20
46.421534061021518
 30
0.0
 11
62.15909962835434
 21
46.421534061021518
 31
0.0
  0
LINE
  5
A4
  8
0
 10
62.159099628354369
 20
38.421534061021561
 30
0.0
 11
62.15909962835434
 21
46.421534061021553
 31
0.0
  0
LINE
  5
A7
  8
0
 10
50.659099628354348
 20
38.421534061021518
 30
0.0
 11
50.65909962835434
 21
46.421534061021518
 31
0.0
  0
ARC
  5
A9
  8
0
 10
59.15909962835434
 20
22.472095419001331
 30
0.0
 40
2.4716112828453829
 50
49.01605931077502
 51
130.98394068922499
  0
LINE
  5
AA
  8
0
 10
50.65909962835434
 20
28.33789855263808
 30
0.0
 11
62.15909962835434
 21
28.33789855263808
 31
0.0
  0
LINE
  5
AB
  8
1
 10
59.159099628354348
 20
29.83789855263808
 30
0.0
 11
59.159099628354362
 21
22.837898552638048
 31
0.0
  0
LINE
  5
AC
  8
0
 10
62.15909962835434
 20
24.337898552638048
 30
0.0
 11
62.15909962835434
 21
28.33789855263808
 31
0.0
  0
LINE
  5
AD
  8
0
 10
60.780099628354343
 20
24.337898552638048
 30
0.0
 11
62.15909962835434
 21
24.337898552638048
 31
0.0
  0
LINE
  5
AE
  8
1
 10
54.159099628354348
 20
26.277260754310461
 30
0.0
 11
54.159099628354369
 21
22.037898552638101
 31
0.0
  0
LINE
  5
AF
  8
0
 10
50.65909962835434
 20
24.337898552638048
 30
0.0
 11
52.7435531387952
 21
24.337898552638048
 31
0.0
  0
ARC
  5
B0
  8
0
 10
54.159099628354348
 20
24.787898552638101
 30
0.0
 40
1.25
 50
194.91779605012431
 51
345.0822039498774
  0
ARC
  5
B1
  8
0
 10
54.15909962835439
 20
22.277260754310799
 30
0.0
 40
2.499999999999666
 50
55.513044364259919
 51
124.48695563574159
  0
LINE
  5
B2
  8
0
 10
55.574646117913566
 20
24.337898552638048
 30
0.0
 11
57.538099628354331
 21
24.337898552638048
 31
0.0
  0
LINE
  5
B3
  8
0
 10
50.65909962835434
 20
24.337898552638048
 30
0.0
 11
50.65909962835434
 21
28.33789855263808
 31
0.0
  0
LINE
  5
BD
  8
1
 10
59.15909962835434
 20
45.921534061021532
 30
0.0
 11
59.15909962835434
 21
38.921534061021532
 31
0.0
  0
LINE
  5
BE
  8
1
 10
63.659099628354348
 20
42.421534061021532
 30
0.0
 11
49.15909962835434
 21
42.421534061021532
 31
0.0
  0
TEXT
  5
194
  8
0
 62
     3
 10
0.0
 20
0.0
 30
0.0
 40
5.0
  1
L5-TST4-SUS
  7
STANDARD1
  0
ENDSEC
  0
EOF
