  0
SECTION
  2
HEADER
  9
$ACADVER
  1
AC1009
  9
$INSBASE
 10
0.0
 20
0.0
 30
0.0
  9
$EXTMIN
 10
0.0
 20
-1.4802182810368341
 30
0.0
  9
$EXTMAX
 10
83.144366287962043
 20
77.910342668646351
 30
0.0
  9
$LIMMIN
 10
0.0
 20
0.0
  9
$LIMMAX
 10
187.5
 20
135.0
  9
$ORTHOMODE
 70
     1
  9
$REGENMODE
 70
     1
  9
$FILLMODE
 70
     1
  9
$QTEXTMODE
 70
     0
  9
$MIRRTEXT
 70
     0
  9
$DRAGMODE
 70
     2
  9
$LTSCALE
 40
5.0
  9
$OSMODE
 70
  3071
  9
$ATTMODE
 70
     1
  9
$TEXTSIZE
 40
2.5000000000000488
  9
$TRACEWID
 40
0.05
  9
$TEXTSTYLE
  7
STANDARD
  9
$CLAYER
  8
0
  9
$CELTYPE
  6
BYLAYER
  9
$CECOLOR
 62
   256
  9
$DIMSCALE
 40
0.5
  9
$DIMASZ
 40
3.0
  9
$DIMEXO
 40
2.0
  9
$DIMDLI
 40
0.38
  9
$DIMRND
 40
0.0
  9
$DIMDLE
 40
0.0
  9
$DIMEXE
 40
2.0
  9
$DIMTP
 40
0.0
  9
$DIMTM
 40
0.0
  9
$DIMTXT
 40
3.2000000000000002
  9
$DIMCEN
 40
0.0
  9
$DIMTSZ
 40
0.0
  9
$DIMTOL
 70
     0
  9
$DIMLIM
 70
     0
  9
$DIMTIH
 70
     0
  9
$DIMTOH
 70
     0
  9
$DIMSE1
 70
     0
  9
$DIMSE2
 70
     0
  9
$DIMTAD
 70
     1
  9
$DIMZIN
 70
     0
  9
$DIMBLK
  1

  9
$DIMASO
 70
     0
  9
$DIMSHO
 70
     0
  9
$DIMPOST
  1

  9
$DIMAPOST
  1

  9
$DIMALT
 70
     0
  9
$DIMALTD
 70
     2
  9
$DIMALTF
 40
25.399999999999999
  9
$DIMLFAC
 40
1.0
  9
$DIMTOFL
 70
     1
  9
$DIMTVP
 40
1.6000000000000001
  9
$DIMTIX
 70
     1
  9
$DIMSOXD
 70
     0
  9
$DIMSAH
 70
     0
  9
$DIMBLK1
  1

  9
$DIMBLK2
  1

  9
$DIMSTYLE
  2
STANDARD
  9
$DIMCLRD
 70
     0
  9
$DIMCLRE
 70
     0
  9
$DIMCLRT
 70
     0
  9
$DIMTFAC
 40
1.0
  9
$DIMGAP
 40
0.09
  9
$LUNITS
 70
     2
  9
$LUPREC
 70
     4
  9
$SKETCHINC
 40
0.1
  9
$FILLETRAD
 40
4.0
  9
$AUNITS
 70
     0
  9
$AUPREC
 70
     4
  9
$MENU
  1
E:\r13\win\SUPPORT\ACAD
  9
$ELEVATION
 40
0.0
  9
$PELEVATION
 40
0.0
  9
$THICKNESS
 40
0.0
  9
$LIMCHECK
 70
     0
  9
$BLIPMODE
 70
     0
  9
$CHAMFERA
 40
0.0
  9
$CHAMFERB
 40
0.0
  9
$SKPOLY
 70
     0
  9
$TDCREATE
 40
2449840.6521875001
  9
$TDUPDATE
 40
2456597.5472863079
  9
$TDINDWG
 40
0.0165928935
  9
$TDUSRTIMER
 40
0.0165928935
  9
$USRTIMER
 70
     1
  9
$ANGBASE
 50
0.0
  9
$ANGDIR
 70
     0
  9
$PDMODE
 70
     0
  9
$PDSIZE
 40
0.0
  9
$PLINEWID
 40
0.0
  9
$COORDS
 70
     1
  9
$SPLFRAME
 70
     0
  9
$SPLINETYPE
 70
     6
  9
$SPLINESEGS
 70
     8
  9
$ATTDIA
 70
     0
  9
$ATTREQ
 70
     1
  9
$HANDLING
 70
     1
  9
$HANDSEED
  5
312
  9
$SURFTAB1
 70
     6
  9
$SURFTAB2
 70
     6
  9
$SURFTYPE
 70
     6
  9
$SURFU
 70
     6
  9
$SURFV
 70
     6
  9
$UCSNAME
  2

  9
$UCSORG
 10
0.0
 20
0.0
 30
0.0
  9
$UCSXDIR
 10
1.0
 20
0.0
 30
0.0
  9
$UCSYDIR
 10
0.0
 20
1.0
 30
0.0
  9
$PUCSNAME
  2

  9
$PUCSORG
 10
0.0
 20
0.0
 30
0.0
  9
$PUCSXDIR
 10
1.0
 20
0.0
 30
0.0
  9
$PUCSYDIR
 10
0.0
 20
1.0
 30
0.0
  9
$USERI1
 70
     0
  9
$USERI2
 70
     1
  9
$USERI3
 70
     0
  9
$USERI4
 70
     0
  9
$USERI5
 70
     0
  9
$USERR1
 40
0.0
  9
$USERR2
 40
0.0
  9
$USERR3
 40
0.0
  9
$USERR4
 40
0.0
  9
$USERR5
 40
0.0
  9
$WORLDVIEW
 70
     1
  9
$SHADEDGE
 70
     3
  9
$SHADEDIF
 70
    70
  9
$TILEMODE
 70
     1
  9
$MAXACTVP
 70
    16
  9
$PLIMCHECK
 70
     0
  9
$PEXTMIN
 10
1.0000000000000000E+020
 20
1.0000000000000000E+020
 30
1.0000000000000000E+020
  9
$PEXTMAX
 10
-1.0000000000000000E+020
 20
-1.0000000000000000E+020
 30
-1.0000000000000000E+020
  9
$PLIMMIN
 10
0.0
 20
0.0
  9
$PLIMMAX
 10
12.0
 20
9.0
  9
$UNITMODE
 70
     0
  9
$VISRETAIN
 70
     0
  9
$PLINEGEN
 70
     0
  9
$PSLTSCALE
 70
     0
  0
ENDSEC
  0
SECTION
  2
TABLES
  0
TABLE
  2
VPORT
 70
     1
  0
VPORT
  2
*ACTIVE
 70
     0
 10
0.0
 20
0.0
 11
1.0
 21
1.0
 12
93.74713919532617
 22
81.430819429735848
 13
0.0
 23
0.0
 14
5.0
 24
5.0
 15
5.0
 25
5.0
 16
0.0
 26
0.0
 36
1.0
 17
0.0
 27
0.0
 37
0.0
 40
167.40500581387491
 41
1.9089595375722539
 42
50.0
 43
0.0
 44
0.0
 50
0.0
 51
0.0
 71
     0
 72
   500
 73
     1
 74
     0
 75
     0
 76
     0
 77
     0
 78
     2
  0
ENDTAB
  0
TABLE
  2
LTYPE
 70
     3
  0
LTYPE
  2
CONTINUOUS
 70
     0
  3
Solid Line
 72
    65
 73
     0
 40
0.0
  0
LTYPE
  2
CENTER
 70
     0
  3
____ _ ____ _ ____ _ ____ _ ____ _ ____ _ ____
 72
    65
 73
     4
 40
2.0
 49
1.25
 49
-0.25
 49
0.25
 49
-0.25
  0
LTYPE
  2
PHANTOM2
 70
     0
  3
___ _ _ ___ _ _ ___ _ _ ___ _ _
 72
    65
 73
     6
 40
1.25
 49
0.625
 49
-0.125
 49
0.125
 49
-0.125
 49
0.125
 49
-0.125
  0
ENDTAB
  0
TABLE
  2
LAYER
 70
     3
  0
LAYER
  2
0
 70
     0
 62
     7
  6
CONTINUOUS
  0
LAYER
  2
1
 70
     0
 62
     1
  6
CENTER
  0
LAYER
  2
3
 70
     0
 62
     3
  6
CONTINUOUS
  0
ENDTAB
  0
TABLE
  2
STYLE
 70
     2
  0
STYLE
  2
STANDARD
 70
     0
 40
0.0
 41
1.0
 50
0.0
 71
     0
 42
2.5000000000000488
  3
TXT
  4
BIGFONT
  0
STYLE
  2
STANDARD1
 70
     0
 40
0.0
 41
1.0
 50
0.0
 71
     0
 42
3.0
  3
txt
  4

  0
ENDTAB
  0
TABLE
  2
VIEW
 70
     1
  0
VIEW
  2
ALL
 70
     0
 40
135.0
 10
110.4957983193277
 20
67.5
 41
0.0
 11
0.0
 21
0.0
 31
1.0
 12
0.0
 22
0.0
 32
0.0
 42
0.0
 43
0.0
 44
0.0
 50
0.0
 71
     0
  0
ENDTAB
  0
TABLE
  2
UCS
 70
     0
  0
ENDTAB
  0
TABLE
  2
APPID
 70
     3
  0
APPID
  2
ACAD
 70
     0
  0
APPID
  2
ACAD_MLEADERVER
 70
     0
  0
APPID
  2
ACAD_NAV_VCDISPLAY
 70
     0
  0
ENDTAB
  0
TABLE
  2
DIMSTYLE
 70
     1
  0
DIMSTYLE
  2
STANDARD
 70
     0
  3

  4

  5

  6

  7

 40
1.0
 41
0.18
 42
0.0625
 43
0.38
 44
0.18
 45
0.0
 46
0.0
 47
0.0
 48
0.0
140
0.18
141
0.09
142
0.0
143
25.399999999999999
144
1.0
145
0.0
146
1.0
147
0.09
 71
     0
 72
     0
 73
     1
 74
     1
 75
     0
 76
     0
 77
     0
 78
     0
170
     0
171
     2
172
     0
173
     0
174
     0
175
     0
176
     0
177
     0
178
     0
  0
ENDTAB
  0
ENDSEC
  0
SECTION
  2
BLOCKS
  0
BLOCK
  8
0
  2
$MODEL_SPACE
 70
     0
 10
0.0
 20
0.0
 30
0.0
  3
$MODEL_SPACE
  1

  0
ENDBLK
  5
CB
  8
0
  0
BLOCK
 67
     1
  8
0
  2
$PAPER_SPACE
 70
     0
 10
0.0
 20
0.0
 30
0.0
  3
$PAPER_SPACE
  1

  0
ENDBLK
  5
C9
 67
     1
  8
0
  0
ENDSEC
  0
SECTION
  2
ENTITIES
  0
ARC
  5
36
  8
0
 10
15.64138338762786
 20
29.388786697092719
 30
0.0
 40
5.9999999999999893
 50
294.6243183521641
 51
65.375681647835862
  0
POLYLINE
  5
37
  8
0
 66
     1
 10
0.0
 20
0.0
 30
0.0
 70
     1
  0
VERTEX
  5
38
  8
0
 10
25.991383387627849
 20
71.488803637729021
 30
0.0
 50
360.0
  0
VERTEX
  5
39
  8
0
 10
25.991383387627881
 20
67.331881699563695
 30
0.0
 50
360.0
  0
VERTEX
  5
3A
  8
0
 10
22.391383387627851
 20
65.253420730481068
 30
0.0
 50
360.0
  0
VERTEX
  5
3B
  8
0
 10
18.791383387627889
 20
67.331881699563695
 30
0.0
 50
360.0
  0
VERTEX
  5
3C
  8
0
 10
18.79138338762786
 20
71.488803637729021
 30
0.0
 50
360.0
  0
VERTEX
  5
3D
  8
0
 10
22.391383387627851
 20
73.567264606811662
 30
0.0
 50
360.0
  0
SEQEND
  5
3E
  8
0
  0
LINE
  5
3F
  8
0
 10
26.641383387627862
 20
75.410342668646379
 30
0.0
 11
21.641383387627862
 21
75.410342668646379
 31
0.0
  0
LINE
  5
40
  8
0
 10
26.641383387627862
 20
63.410342668646379
 30
0.0
 11
21.641383387627879
 21
63.410342668646379
 31
0.0
  0
LINE
  5
41
  8
0
 10
18.141383387627851
 20
71.910342668646379
 30
0.0
 11
18.141383387627851
 21
66.910342668646379
 31
0.0
  0
LINE
  5
42
  8
0
 10
26.641383387627862
 20
75.410342668646379
 30
0.0
 11
26.641383387627862
 21
63.410342668646379
 31
0.0
  0
LINE
  5
43
  8
0
 10
18.141383387627851
 20
71.910342668646379
 30
0.0
 11
21.641383387627862
 21
75.410342668646379
 31
0.0
  0
LINE
  5
44
  8
0
 10
18.141383387627851
 20
66.910342668646379
 30
0.0
 11
21.641383387627862
 21
63.410342668646379
 31
0.0
  0
LINE
  5
45
  8
0
 10
26.441383387627869
 20
21.188786697092731
 30
0.0
 11
26.441383387627869
 21
18.188786697092741
 31
0.0
  0
LINE
  5
46
  8
0
 10
23.641383387627851
 20
21.188786697092699
 30
0.0
 11
23.641383387627851
 21
18.188786697092741
 31
0.0
  0
ARC
  5
47
  8
0
 10
24.107408791412301
 20
21.688786697092731
 30
0.0
 40
0.2
 50
300.00000000000023
 51
59.999999999999851
  0
ARC
  5
48
  8
0
 10
25.975357983843448
 20
21.68878669709272
 30
0.0
 40
0.2
 50
120.0000000000002
 51
240.0
  0
LINE
  5
49
  8
0
 10
23.641383387627851
 20
21.18878669709272
 30
0.0
 11
24.207408791412291
 21
21.51558161633584
 31
0.0
  0
LINE
  5
4A
  8
0
 10
23.641383387627851
 20
22.188786697092731
 30
0.0
 11
24.207408791412291
 21
21.861991777849621
 31
0.0
  0
LINE
  5
4B
  8
0
 10
26.441383387627869
 20
22.188786697092731
 30
0.0
 11
25.875357983843461
 21
21.8619917778496
 31
0.0
  0
LINE
  5
4C
  8
0
 10
26.441383387627869
 20
21.18878669709272
 30
0.0
 11
25.875357983843461
 21
21.51558161633583
 31
0.0
  0
ARC
  5
4D
  8
0
 10
22.39138338762789
 20
17.731932447597149
 30
0.0
 40
6.0000000000032276
 50
77.975300819441074
 51
109.4712206344869
  0
LINE
  5
4E
  8
0
 10
18.791383387627999
 20
35.388786697092748
 30
0.0
 11
18.141383387627851
 21
35.388786697092719
 31
0.0
  0
LINE
  5
4F
  8
0
 10
22.391383387627851
 20
33.715448227649411
 30
0.0
 11
18.79138338762797
 21
35.388786697092719
 31
0.0
  0
LINE
  5
50
  8
0
 10
25.991383387627739
 20
35.388786697092719
 30
0.0
 11
22.391383387627851
 21
33.715448227649411
 31
0.0
  0
LINE
  5
51
  8
0
 10
20.391383387627201
 20
23.388786697092719
 30
0.0
 11
18.141383387627851
 21
23.388786697092719
 31
0.0
  0
LINE
  5
52
  8
0
 10
26.39138338762783
 20
17.688786697092741
 30
0.0
 11
23.641383387627851
 21
17.688786697092731
 31
0.0
  0
LINE
  5
53
  8
0
 10
23.641383387627851
 20
23.934430639774781
 30
0.0
 11
23.641383387627851
 21
22.188786697092731
 31
0.0
  0
LINE
  5
54
  8
0
 10
26.441383387627869
 20
23.934430639774771
 30
0.0
 11
23.641383387627851
 21
23.934430639774781
 31
0.0
  0
LINE
  5
55
  8
0
 10
26.441383387627869
 20
23.934430639774781
 30
0.0
 11
26.441383387627869
 21
22.188786697092731
 31
0.0
  0
LINE
  5
56
  8
0
 10
26.641383387627862
 20
23.388786697092719
 30
0.0
 11
26.441383387627869
 21
23.388786697092719
 31
0.0
  0
LINE
  5
57
  8
0
 10
26.641383387627862
 20
35.388786697092719
 30
0.0
 11
25.991383387627739
 21
35.388786697092748
 31
0.0
  0
LINE
  5
58
  8
0
 10
18.141383387627851
 20
35.388786697092719
 30
0.0
 11
18.141383387627851
 21
23.388786697092719
 31
0.0
  0
LINE
  5
59
  8
0
 10
26.641383387627862
 20
35.388786697092719
 30
0.0
 11
26.641383387627862
 21
23.388786697092719
 31
0.0
  0
LINE
  5
5A
  8
0
 10
77.144366287962043
 20
21.188786697092748
 30
0.0
 11
72.144366287962058
 21
21.188786697092748
 31
0.0
  0
LINE
  5
5B
  8
0
 10
77.144366287962043
 20
22.188786697092741
 30
0.0
 11
72.144366287962058
 21
22.188786697092741
 31
0.0
  0
LINE
  5
5C
  8
0
 10
72.144366287962058
 20
23.934430639774881
 30
0.0
 11
72.144366287962058
 21
18.188786697092741
 31
0.0
  0
LINE
  5
5D
  8
0
 10
77.144366287962043
 20
23.934430639774881
 30
0.0
 11
77.144366287962043
 21
18.188786697092741
 31
0.0
  0
CIRCLE
  5
5E
  8
0
 10
74.644366287962058
 20
29.38878669709274
 30
0.0
 40
6.0
  0
LINE
  5
5F
  8
1
 10
83.144366287962043
 20
29.38878669709274
 30
0.0
 11
66.144366287962043
 21
29.38878669709274
 31
0.0
  0
LINE
  5
60
  8
1
 10
74.644366287962058
 20
37.888786697092733
 30
0.0
 11
74.644366287962058
 21
11.68878669709283
 31
0.0
  0
LINE
  5
61
  8
1
 10
15.64138338762786
 20
29.388786697092719
 30
0.0
 11
29.141383387627862
 21
29.388786697092719
 31
0.0
  0
LINE
  5
62
  8
1
 10
22.391383387627851
 20
36.472319346297077
 30
0.0
 11
22.391383387627851
 21
11.688786697092709
 31
0.0
  0
LINE
  5
63
  8
1
 10
29.141383387627862
 20
69.410342668646379
 30
0.0
 11
12.39138338762784
 21
69.410342668646379
 31
0.0
  0
LINE
  5
64
  8
1
 10
22.391383387627851
 20
77.910342668646351
 30
0.0
 11
22.391383387627851
 21
60.910342668646393
 31
0.0
  0
LINE
  5
65
  8
0
 10
14.89138338762784
 20
17.688786697092741
 30
0.0
 11
26.39138338762783
 21
17.688786697092741
 31
0.0
  0
LINE
  5
66
  8
0
 10
14.89138338762784
 20
13.688786697092739
 30
0.0
 11
15.991383387627829
 21
13.688786697092739
 31
0.0
  0
LINE
  5
67
  8
0
 10
14.89138338762784
 20
17.688786697092741
 30
0.0
 11
14.89138338762784
 21
13.688786697092739
 31
0.0
  0
LINE
  5
68
  8
0
 10
26.39138338762783
 20
17.688786697092741
 30
0.0
 11
26.39138338762783
 21
13.688786697092739
 31
0.0
  0
LINE
  5
69
  8
0
 10
24.39138338762783
 20
13.688786697092739
 30
0.0
 11
26.39138338762783
 21
13.688786697092739
 31
0.0
  0
LINE
  5
6A
  8
0
 10
18.791383387627828
 20
13.688786697092739
 30
0.0
 11
20.39138338762783
 21
13.688786697092739
 31
0.0
  0
ARC
  5
6B
  8
0
 10
17.39138338762784
 20
14.13878669709274
 30
0.0
 40
1.25
 50
196.6122316551276
 51
343.38776834487282
  0
CIRCLE
  5
6C
  8
0
 10
22.39138338762784
 20
69.410342668646393
 30
0.0
 40
3.5
  0
CIRCLE
  5
6D
  8
0
 10
22.39138338762784
 20
69.410342668646393
 30
0.0
 40
2.9803847577293112
  0
LINE
  5
6E
  8
0
 10
21.525357983843541
 20
67.910342668646223
 30
0.0
 11
23.25740879141215
 21
67.910342668646564
 31
0.0
  0
LINE
  5
6F
  8
0
 10
20.659332580058891
 20
69.410342668646393
 30
0.0
 11
21.525357983843541
 21
67.910342668646223
 31
0.0
  0
LINE
  5
70
  8
0
 10
21.525357983843019
 20
70.910342668646393
 30
0.0
 11
20.659332580058891
 21
69.410342668646393
 31
0.0
  0
LINE
  5
71
  8
0
 10
23.25740879141215
 20
70.910342668646393
 30
0.0
 11
21.525357983843019
 21
70.910342668646393
 31
0.0
  0
LINE
  5
72
  8
0
 10
24.123434195196619
 20
69.410342668646564
 30
0.0
 11
23.25740879141215
 21
70.910342668646393
 31
0.0
  0
LINE
  5
73
  8
0
 10
23.25740879141215
 20
67.910342668646564
 30
0.0
 11
24.123434195196619
 21
69.410342668646564
 31
0.0
  0
LINE
  5
74
  8
0
 10
20.391383387627862
 20
23.38878669709273
 30
0.0
 11
20.391383387627862
 21
18.188786697092741
 31
0.0
  0
LINE
  5
75
  8
0
 10
20.7963790488445
 20
14.08379103587608
 30
0.0
 11
21.191383387627869
 21
13.688786697092709
 31
0.0
  0
LINE
  5
76
  8
3
 10
20.770383387629249
 20
23.508813872729839
 30
0.0
 11
20.770383387629249
 21
18.188786697092741
 31
0.0
  0
LINE
  5
77
  8
0
 10
21.538591639218879
 20
14.488786697092699
 30
0.0
 11
23.244175136036901
 21
14.488786697092729
 31
0.0
  0
LINE
  5
78
  8
0
 10
23.986387726411099
 20
14.08379103587596
 30
0.0
 11
23.59138338762784
 21
13.688786697092709
 31
0.0
  0
LINE
  5
79
  8
0
 10
23.59138338762784
 20
13.688786697092709
 30
0.0
 11
21.191383387627869
 21
13.688786697092709
 31
0.0
  0
LINE
  5
7A
  8
0
 10
72.644366287962043
 20
14.48878669709239
 30
0.0
 11
73.444366287962055
 21
13.68878669709237
 31
0.0
  0
LINE
  5
7B
  8
0
 10
72.6443662879621
 20
14.48878669709233
 30
0.0
 11
72.800122278230631
 21
14.48878669709233
 31
0.0
  0
LINE
  5
7C
  8
0
 10
76.644366287962043
 20
14.48878669709239
 30
0.0
 11
75.844366287962032
 21
13.68878669709237
 31
0.0
  0
LINE
  5
7D
  8
0
 10
75.844366287962032
 20
13.68878669709237
 30
0.0
 11
73.444366287962055
 21
13.68878669709237
 31
0.0
  0
LINE
  5
7E
  8
0
 10
72.644366287962043
 20
14.63321598626543
 30
0.0
 11
72.644366287962043
 21
14.48878669709239
 31
0.0
  0
LINE
  5
7F
  8
3
 10
73.023366287963427
 20
14.2945948463002
 30
0.0
 11
73.023366287963427
 21
14.10978669709097
 31
0.0
  0
LINE
  5
80
  8
3
 10
76.26536628796066
 20
14.2945948463002
 30
0.0
 11
76.26536628796066
 21
14.10978669709097
 31
0.0
  0
LINE
  5
81
  8
0
 10
76.644366287962043
 20
14.63321598626521
 30
0.0
 11
76.644366287962043
 21
14.48878669709239
 31
0.0
  0
LINE
  5
82
  8
0
 10
76.488610297693583
 20
14.48878669709241
 30
0.0
 11
76.644366287962043
 21
14.48878669709241
 31
0.0
  0
LINE
  5
83
  8
0
 10
14.89138338762784
 20
65.410342668646379
 30
0.0
 11
14.891383387627849
 21
73.410342668646379
 31
0.0
  0
LINE
  5
84
  8
0
 10
19.641383387627851
 20
73.410342668646365
 30
0.0
 11
14.891383387627849
 21
73.410342668646379
 31
0.0
  0
LINE
  5
85
  8
0
 10
19.641383387627819
 20
65.410342668646379
 30
0.0
 11
14.89138338762784
 21
65.410342668646379
 31
0.0
  0
ARC
  5
86
  8
0
 10
74.644366287962058
 20
14.13878669709273
 30
0.0
 40
1.249999999999996
 50
201.10019602411751
 51
338.89980397588272
  0
ARC
  5
8D
  8
0
 10
22.391383387627808
 20
12.043320300939049
 30
0.0
 40
2.589895685326137
 50
39.445265537107602
 51
140.55473446289199
  0
ARC
  5
8E
  8
0
 10
17.391383387627851
 20
10.90022859092346
 30
0.0
 40
3.1202654232424578
 50
63.340988565058773
 51
116.6590114349416
  0
LINE
  5
158
  8
0
 10
14.891383387627821
 20
18.18878669709278
 30
0.0
 11
26.39138338762783
 21
18.18878669709278
 31
0.0
  0
LINE
  5
159
  8
0
 10
26.39138338762783
 20
18.18878669709278
 30
0.0
 11
26.391383387627808
 21
17.688786697092741
 31
0.0
  0
LINE
  5
15A
  8
0
 10
26.441383387627869
 20
18.188786697092741
 30
0.0
 11
26.39138338762783
 21
18.18878669709278
 31
0.0
  0
LINE
  5
15B
  8
0
 10
14.891383387627821
 20
18.18878669709278
 30
0.0
 11
14.89138338762784
 21
17.688786697092741
 31
0.0
  0
LINE
  5
176
  8
0
 10
72.144366287962058
 20
18.188786697092741
 30
0.0
 11
72.34436628796216
 21
18.188786697092709
 31
0.0
  0
LINE
  5
177
  8
0
 10
72.34436628796216
 20
18.188786697092709
 30
0.0
 11
77.144366287962043
 21
18.188786697092741
 31
0.0
  0
LINE
  5
194
  8
1
 10
68.901332826209924
 20
15.688786697092731
 30
0.0
 11
80.387399749714177
 21
15.68878669709272
 31
0.0
  0
ARC
  5
195
  8
0
 10
78.344696518212771
 20
17.388786697092709
 30
0.0
 40
0.3
 50
336.76379688519751
 51
90.0
  0
ARC
  5
196
  8
0
 10
70.944366287962026
 20
17.388786697092719
 30
0.0
 40
0.3
 50
90.0
 51
203.236203114803
  0
ARC
  5
197
  8
0
 10
71.057589872334432
 20
20.818547283304749
 30
0.0
 40
8.3537216252164335
 50
306.78498190101112
 51
334.86611352763668
  0
ARC
  5
198
  8
0
 10
78.230974552017528
 20
20.817615511187771
 30
0.0
 40
8.3528746990380007
 50
205.12955222016231
 51
233.21211459871961
  0
ARC
  5
199
  8
0
 10
74.644366287962043
 20
16.18878669709272
 30
0.0
 40
2.5
 50
235.51304436426389
 51
304.48695563573608
  0
LINE
  5
19A
  8
0
 10
78.344696518212771
 20
17.688786697092699
 30
0.0
 11
77.344366287962089
 21
17.688786697092709
 31
0.0
  0
ARC
  5
19B
  8
0
 10
74.644366287962072
 20
27.920692985174199
 30
0.0
 40
10.0
 50
256.70292825279148
 51
283.29707174720932
  0
LINE
  5
19C
  8
0
 10
71.944366287962026
 20
17.68878669709272
 30
0.0
 11
70.944366287962026
 21
17.68878669709272
 31
0.0
  0
LINE
  5
19D
  8
0
 10
72.144366287962043
 20
17.988786697092721
 30
0.0
 11
72.144366287962072
 21
17.888786697092709
 31
0.0
  0
ARC
  5
19E
  8
0
 10
71.944366287962055
 20
17.888786697092709
 30
0.0
 40
0.2
 50
270.0
 51
0.0
  0
ARC
  5
19F
  8
0
 10
72.34436628796206
 20
17.988786697092721
 30
0.0
 40
0.2
 50
90.0
 51
180.0
  0
ARC
  5
1A0
  8
0
 10
76.944366287962026
 20
17.988786697092731
 30
0.0
 40
0.2
 50
0.0000000000004071
 51
90.0
  0
LINE
  5
1A1
  8
0
 10
77.144366287962015
 20
17.988786697092731
 30
0.0
 11
77.144366287962015
 21
17.88878669709273
 31
0.0
  0
ARC
  5
1A2
  8
0
 10
77.344366287962004
 20
17.88878669709273
 30
0.0
 40
0.2
 50
180.0000000000004
 51
270.0
  0
LINE
  5
1D4
  8
0
 10
18.141383387627851
 20
71.910342668646365
 30
0.0
 11
14.89138338762784
 21
71.910342668646365
 31
0.0
  0
LINE
  5
1D5
  8
0
 10
18.141383387627851
 20
66.910342668646393
 30
0.0
 11
14.89138338762784
 21
66.910342668646393
 31
0.0
  0
LINE
  5
1D6
  8
0
 10
18.141383387627851
 20
71.710342668646376
 30
0.0
 11
14.89138338762784
 21
71.710342668646376
 31
0.0
  0
LINE
  5
1D7
  8
0
 10
18.141383387627851
 20
67.11034266864641
 30
0.0
 11
14.89138338762784
 21
67.11034266864641
 31
0.0
  0
TEXT
  5
281
  8
0
 62
     3
 10
0.0
 20
0.0
 30
0.0
 40
5.0
  1
L5-UJT12
  7
STANDARD1
  0
ENDSEC
  0
EOF
