  0
SECTION
  2
HEADER
  9
$ACADVER
  1
AC1009
  9
$INSBASE
 10
0.0
 20
0.0
 30
0.0
  9
$EXTMIN
 10
0.0
 20
-2.960436562073669
 30
0.0
  9
$EXTMAX
 10
125.9999999999999
 20
117.9999999999997
 30
0.0
  9
$LIMMIN
 10
0.0
 20
0.0
  9
$LIMMAX
 10
270.0
 20
175.0
  9
$ORTHOMODE
 70
     1
  9
$REGENMODE
 70
     1
  9
$FILLMODE
 70
     1
  9
$QTEXTMODE
 70
     0
  9
$MIRRTEXT
 70
     0
  9
$DRAGMODE
 70
     2
  9
$LTSCALE
 40
10.0
  9
$OSMODE
 70
    37
  9
$ATTMODE
 70
     1
  9
$TEXTSIZE
 40
0.2
  9
$TRACEWID
 40
0.05
  9
$TEXTSTYLE
  7
STANDARD
  9
$CLAYER
  8
0
  9
$CELTYPE
  6
BYLAYER
  9
$CECOLOR
 62
   256
  9
$DIMSCALE
 40
1.0
  9
$DIMASZ
 40
3.0
  9
$DIMEXO
 40
2.0
  9
$DIMDLI
 40
0.38
  9
$DIMRND
 40
0.0
  9
$DIMDLE
 40
0.0
  9
$DIMEXE
 40
2.0
  9
$DIMTP
 40
0.0
  9
$DIMTM
 40
0.0
  9
$DIMTXT
 40
3.2000000000000002
  9
$DIMCEN
 40
0.0
  9
$DIMTSZ
 40
0.0
  9
$DIMTOL
 70
     0
  9
$DIMLIM
 70
     0
  9
$DIMTIH
 70
     0
  9
$DIMTOH
 70
     0
  9
$DIMSE1
 70
     0
  9
$DIMSE2
 70
     0
  9
$DIMTAD
 70
     1
  9
$DIMZIN
 70
     8
  9
$DIMBLK
  1

  9
$DIMASO
 70
     0
  9
$DIMSHO
 70
     0
  9
$DIMPOST
  1

  9
$DIMAPOST
  1

  9
$DIMALT
 70
     0
  9
$DIMALTD
 70
     2
  9
$DIMALTF
 40
25.399999999999999
  9
$DIMLFAC
 40
1.0
  9
$DIMTOFL
 70
     1
  9
$DIMTVP
 40
1.6000000000000001
  9
$DIMTIX
 70
     1
  9
$DIMSOXD
 70
     0
  9
$DIMSAH
 70
     0
  9
$DIMBLK1
  1

  9
$DIMBLK2
  1

  9
$DIMSTYLE
  2
STANDARD
  9
$DIMCLRD
 70
     0
  9
$DIMCLRE
 70
     0
  9
$DIMCLRT
 70
     0
  9
$DIMTFAC
 40
1.0
  9
$DIMGAP
 40
0.09
  9
$LUNITS
 70
     2
  9
$LUPREC
 70
     4
  9
$SKETCHINC
 40
0.1
  9
$FILLETRAD
 40
0.3
  9
$AUNITS
 70
     0
  9
$AUPREC
 70
     4
  9
$MENU
  1
stdgx5
  9
$ELEVATION
 40
0.0
  9
$PELEVATION
 40
0.0
  9
$THICKNESS
 40
0.0
  9
$LIMCHECK
 70
     0
  9
$BLIPMODE
 70
     0
  9
$CHAMFERA
 40
0.0
  9
$CHAMFERB
 40
0.0
  9
$SKPOLY
 70
     0
  9
$TDCREATE
 40
2450848.7240184029
  9
$TDUPDATE
 40
2457501.5559991202
  9
$TDINDWG
 40
0.3225791319
  9
$TDUSRTIMER
 40
0.3225791319
  9
$USRTIMER
 70
     1
  9
$ANGBASE
 50
0.0
  9
$ANGDIR
 70
     0
  9
$PDMODE
 70
     0
  9
$PDSIZE
 40
0.0
  9
$PLINEWID
 40
0.0
  9
$COORDS
 70
     1
  9
$SPLFRAME
 70
     0
  9
$SPLINETYPE
 70
     6
  9
$SPLINESEGS
 70
     8
  9
$ATTDIA
 70
     0
  9
$ATTREQ
 70
     1
  9
$HANDLING
 70
     1
  9
$HANDSEED
  5
566
  9
$SURFTAB1
 70
     6
  9
$SURFTAB2
 70
     6
  9
$SURFTYPE
 70
     6
  9
$SURFU
 70
     6
  9
$SURFV
 70
     6
  9
$UCSNAME
  2

  9
$UCSORG
 10
0.0
 20
0.0
 30
0.0
  9
$UCSXDIR
 10
1.0
 20
0.0
 30
0.0
  9
$UCSYDIR
 10
0.0
 20
1.0
 30
0.0
  9
$PUCSNAME
  2

  9
$PUCSORG
 10
0.0
 20
0.0
 30
0.0
  9
$PUCSXDIR
 10
1.0
 20
0.0
 30
0.0
  9
$PUCSYDIR
 10
0.0
 20
1.0
 30
0.0
  9
$USERI1
 70
     0
  9
$USERI2
 70
     1
  9
$USERI3
 70
     0
  9
$USERI4
 70
     0
  9
$USERI5
 70
     0
  9
$USERR1
 40
0.0
  9
$USERR2
 40
0.0
  9
$USERR3
 40
0.0
  9
$USERR4
 40
0.0
  9
$USERR5
 40
0.0
  9
$WORLDVIEW
 70
     1
  9
$SHADEDGE
 70
     3
  9
$SHADEDIF
 70
    70
  9
$TILEMODE
 70
     1
  9
$MAXACTVP
 70
    16
  9
$PLIMCHECK
 70
     0
  9
$PEXTMIN
 10
1.0000000000000000E+020
 20
1.0000000000000000E+020
 30
1.0000000000000000E+020
  9
$PEXTMAX
 10
-1.0000000000000000E+020
 20
-1.0000000000000000E+020
 30
-1.0000000000000000E+020
  9
$PLIMMIN
 10
0.0
 20
0.0
  9
$PLIMMAX
 10
12.0
 20
9.0
  9
$UNITMODE
 70
     0
  9
$VISRETAIN
 70
     0
  9
$PLINEGEN
 70
     1
  9
$PSLTSCALE
 70
     0
  0
ENDSEC
  0
SECTION
  2
TABLES
  0
TABLE
  2
VPORT
 70
     1
  0
VPORT
  2
*ACTIVE
 70
     0
 10
0.0
 20
0.0
 11
1.0
 21
1.0
 12
172.54273504273499
 22
95.0
 13
0.0
 23
0.0
 14
10.0
 24
10.0
 15
10.0
 25
10.0
 16
0.0
 26
0.0
 36
1.0
 17
0.0
 27
0.0
 37
0.0
 40
190.0
 41
1.816239316239316
 42
50.0
 43
0.0
 44
0.0
 50
0.0
 51
0.0
 71
     0
 72
   100
 73
     1
 74
     0
 75
     0
 76
     0
 77
     0
 78
     2
  0
ENDTAB
  0
TABLE
  2
LTYPE
 70
     4
  0
LTYPE
  2
CONTINUOUS
 70
     0
  3
Solid Line
 72
    65
 73
     0
 40
0.0
  0
LTYPE
  2
CENTER
 70
     0
  3
____ _ ____ _ ____ _ ____ _ ____ _ ____ _ ____
 72
    65
 73
     4
 40
2.0
 49
1.25
 49
-0.25
 49
0.25
 49
-0.25
  0
LTYPE
  2
PHANTOM2
 70
     0
  3
___ _ _ ___ _ _ ___ _ _ ___ _ _
 72
    65
 73
     6
 40
1.25
 49
0.625
 49
-0.125
 49
0.125
 49
-0.125
 49
0.125
 49
-0.125
  0
LTYPE
  2
HIDDEN
 70
     0
  3
_ _ _ _ _ _ _ _ _ _ _ _ _ _ _ _ _ _ _ _ _ _ _
 72
    65
 73
     2
 40
0.375
 49
0.25
 49
-0.125
  0
ENDTAB
  0
TABLE
  2
LAYER
 70
     4
  0
LAYER
  2
0
 70
     0
 62
     7
  6
CONTINUOUS
  0
LAYER
  2
1
 70
     0
 62
     1
  6
CENTER
  0
LAYER
  2
2
 70
     0
 62
     2
  6
HIDDEN
  0
LAYER
  2
DEFPOINTS
 70
     0
 62
     7
  6
CONTINUOUS
  0
ENDTAB
  0
TABLE
  2
STYLE
 70
     2
  0
STYLE
  2
STANDARD
 70
     0
 40
0.0
 41
1.0
 50
0.0
 71
     0
 42
0.2
  3
TXT
  4
BIGFONT
  0
STYLE
  2
STANDARD1
 70
     0
 40
0.0
 41
1.0
 50
0.0
 71
     0
 42
3.0
  3
txt
  4

  0
ENDTAB
  0
TABLE
  2
VIEW
 70
     0
  0
ENDTAB
  0
TABLE
  2
UCS
 70
     0
  0
ENDTAB
  0
TABLE
  2
APPID
 70
    12
  0
APPID
  2
ACAD
 70
     0
  0
APPID
  2
ACAD_MLEADERVER
 70
     0
  0
APPID
  2
ACAD_PSEXT
 70
     0
  0
APPID
  2
ACAD_DSTYLE_DIMJAG
 70
     0
  0
APPID
  2
ACAD_DSTYLE_DIMTALN
 70
     0
  0
APPID
  2
ACAD_DSTYLE_DIMBREAK
 70
     0
  0
APPID
  2
ACAECLAYERSTANDARD
 70
     0
  0
APPID
  2
ACCMTRANSPARENCY
 70
     0
  0
APPID
  2
ACAD_DSTYLE_DIM_LINETYPE
 70
     0
  0
APPID
  2
ACAD_NAV_VCDISPLAY
 70
     0
  0
APPID
  2
ACAD_EXEMPT_FROM_CAD_STANDARDS
 70
     0
  0
APPID
  2
ACAD_DSTYLE_DIMRADIAL_EXTENSION
 70
     0
  0
ENDTAB
  0
TABLE
  2
DIMSTYLE
 70
     1
  0
DIMSTYLE
  2
STANDARD
 70
     0
  3

  4

  5

  6

  7

 40
1.0
 41
0.18
 42
0.0625
 43
0.38
 44
0.18
 45
0.0
 46
0.0
 47
0.0
 48
0.0
140
0.18
141
0.09
142
0.0
143
25.399999999999999
144
1.0
145
0.0
146
1.0
147
0.09
 71
     0
 72
     0
 73
     1
 74
     1
 75
     0
 76
     0
 77
     0
 78
     0
170
     0
171
     2
172
     0
173
     0
174
     0
175
     0
176
     0
177
     0
178
     0
  0
ENDTAB
  0
ENDSEC
  0
SECTION
  2
BLOCKS
  0
BLOCK
  8
0
  2
$MODEL_SPACE
 70
     0
 10
0.0
 20
0.0
 30
0.0
  3
$MODEL_SPACE
  1

  0
ENDBLK
  5
2C
  8
0
  0
BLOCK
 67
     1
  8
0
  2
$PAPER_SPACE
 70
     0
 10
0.0
 20
0.0
 30
0.0
  3
$PAPER_SPACE
  1

  0
ENDBLK
  5
2A
 67
     1
  8
0
  0
ENDSEC
  0
SECTION
  2
ENTITIES
  0
LINE
  5
46
  8
0
 10
30.0
 20
67.999999999999702
 30
0.0
 11
45.999999999999737
 21
67.999999999999702
 31
0.0
  0
LINE
  5
47
  8
0
 10
30.0
 20
117.9999999999997
 30
0.0
 11
30.0
 21
67.999999999999702
 31
0.0
  0
LINE
  5
48
  8
0
 10
37.999999999999858
 20
117.9999999999997
 30
0.0
 11
37.999999999999858
 21
67.999999999999645
 31
0.0
  0
LINE
  5
49
  8
0
 10
45.999999999999737
 20
117.9999999999997
 30
0.0
 11
45.999999999999737
 21
67.999999999999702
 31
0.0
  0
LINE
  5
4A
  8
0
 10
75.999999999999886
 20
37.999999999999687
 30
0.0
 11
75.999999999999829
 21
30.0
 31
0.0
  0
LINE
  5
4B
  8
0
 10
75.999999999999829
 20
30.0
 30
0.0
 11
125.9999999999998
 21
29.999999999999972
 31
0.0
  0
LINE
  5
4C
  8
0
 10
75.999999999999858
 20
32.338119784648171
 30
0.0
 11
125.9999999999998
 21
32.338119784648143
 31
0.0
  0
LINE
  5
4D
  8
0
 10
75.999999999999801
 20
32.799999999999528
 30
0.0
 11
125.9999999999998
 21
32.799999999999507
 31
0.0
  0
LINE
  5
4E
  8
0
 10
75.999999999999829
 20
34.799999999999642
 30
0.0
 11
125.9999999999998
 21
34.79999999999967
 31
0.0
  0
LINE
  5
4F
  8
0
 10
75.999999999999886
 20
37.999999999999687
 30
0.0
 11
125.9999999999999
 21
37.999999999999687
 31
0.0
  0
LINE
  5
69
  8
0
 10
30.0
 20
117.9999999999997
 30
0.0
 11
45.999999999999737
 21
117.9999999999997
 31
0.0
  0
LINE
  5
6A
  8
0
 10
125.9999999999999
 20
37.999999999999332
 30
0.0
 11
125.9999999999998
 21
29.999999999999641
 31
0.0
  0
TEXT
  5
11E
  8
0
 62
     3
 10
0.0
 20
0.0
 30
0.0
 40
10.0
  1
L5-WGF2000B
  7
STANDARD1
  0
LINE
  5
1EF
  8
0
 10
31.399990848938959
 20
34.799999999999642
 30
0.0
 11
30.299999999999962
 21
34.799999999999528
 31
0.0
  0
ARC
  5
1F0
  8
0
 10
44.599999999999909
 20
35.09999999999971
 30
0.0
 40
0.3
 50
180.0
 51
270.00174772389181
  0
ARC
  5
1F1
  8
0
 10
43.999999999999879
 20
35.999999999999687
 30
0.0
 40
0.3
 50
0.0
 51
90.0
  0
ARC
  5
1F2
  8
0
 10
43.399999999999977
 20
35.999999999999687
 30
0.0
 40
0.3
 50
90.0
 51
180.0
  0
ARC
  5
1F3
  8
0
 10
42.799999999999947
 20
35.299999999999642
 30
0.0
 40
0.3
 50
270.0
 51
0.0
  0
ARC
  5
1F4
  8
0
 10
42.199999999999932
 20
35.299999999999528
 30
0.0
 40
0.3
 50
180.0
 51
270.00174919246808
  0
ARC
  5
1F5
  8
0
 10
41.599999999999788
 20
35.999999999999567
 30
0.0
 40
0.3
 50
0.0
 51
89.999999999993491
  0
ARC
  5
1F6
  8
0
 10
40.800000000003017
 20
35.999999999999801
 30
0.0
 40
0.3
 50
89.998250286149656
 51
180.0
  0
LINE
  5
1F7
  8
0
 10
41.599999999999909
 20
36.299999999999642
 30
0.0
 11
40.800009161483437
 21
36.299999999999642
 31
0.0
  0
LINE
  5
1F8
  8
0
 10
44.299999999999841
 20
35.999999999999687
 30
0.0
 11
44.299999999999841
 21
35.09999999999971
 31
0.0
  0
LINE
  5
1F9
  8
0
 10
43.099999999999902
 20
35.999999999999687
 30
0.0
 11
43.099999999999902
 21
35.299999999999642
 31
0.0
  0
LINE
  5
1FA
  8
0
 10
41.899999999999856
 20
35.999999999999567
 30
0.0
 11
41.899999999999856
 21
35.299999999999528
 31
0.0
  0
LINE
  5
1FB
  8
0
 10
42.799999999999947
 20
34.999999999999687
 30
0.0
 11
42.200009158750163
 21
34.99999999999946
 31
0.0
  0
LINE
  5
1FC
  8
0
 10
43.999999999999879
 20
36.299999999999763
 30
0.0
 11
43.399999999999977
 21
36.299999999999763
 31
0.0
  0
LINE
  5
1FD
  8
0
 10
45.999999999999879
 20
35.09999999999971
 30
0.0
 11
45.999999999999879
 21
35.999999999999687
 31
0.0
  0
LINE
  5
1FE
  8
0
 10
41.299999999999827
 20
32.338119784648171
 30
0.0
 11
40.500000000003183
 21
32.799999999999528
 31
0.0
  0
LINE
  5
1FF
  8
0
 10
40.500000000003183
 20
32.799999999999528
 30
0.0
 11
40.50000000000307
 21
35.999999999999801
 31
0.0
  0
LINE
  5
200
  8
0
 10
39.149999999999871
 20
35.799999999999642
 30
0.0
 11
39.149999999999977
 21
30.400000000000009
 31
0.0
  0
LINE
  5
201
  8
0
 10
44.60000915106081
 20
34.799999999999642
 30
0.0
 11
45.699999999999932
 21
34.799999999999642
 31
0.0
  0
ARC
  5
202
  8
0
 10
45.699999999999932
 20
35.09999999999971
 30
0.0
 40
0.3000000000000114
 50
270.00000000000648
 51
0.0
  0
ARC
  5
203
  8
0
 10
43.999999999999879
 20
35.999999999999687
 30
0.0
 40
2.0
 50
0.0
 51
90.0
  0
LINE
  5
204
  8
0
 10
38.519615242270561
 20
37.999999999999687
 30
0.0
 11
37.999999999999893
 21
37.699999999999733
 31
0.0
  0
LINE
  5
205
  8
0
 10
37.999999999999893
 20
37.699999999999733
 30
0.0
 11
37.480384757728991
 21
37.999999999999687
 31
0.0
  0
LINE
  5
206
  8
0
 10
37.480384757728991
 20
37.999999999999687
 30
0.0
 11
31.99999999999989
 21
37.999999999999687
 31
0.0
  0
LINE
  5
207
  8
0
 10
37.349999999999909
 20
36.299999999999763
 30
0.0
 11
38.649999999999856
 21
36.299999999999763
 31
0.0
  0
LINE
  5
208
  8
0
 10
29.99999999999989
 20
35.999999999999687
 30
0.0
 11
30.000000000000121
 21
35.099999999999604
 31
0.0
  0
ARC
  5
209
  8
0
 10
30.300000000000072
 20
35.099999999999483
 30
0.0
 40
0.2999999999999829
 50
179.99999999998039
 51
269.99999999999352
  0
ARC
  5
20A
  8
0
 10
31.99999999999989
 20
35.999999999999687
 30
0.0
 40
2.0
 50
90.0
 51
180.0
  0
LINE
  5
20B
  8
0
 10
43.999999999999879
 20
37.999999999999687
 30
0.0
 11
38.519615242270561
 21
37.999999999999687
 31
0.0
  0
ARC
  5
20C
  8
0
 10
38.649999999999856
 20
35.799999999999642
 30
0.0
 40
0.5
 50
0.0
 51
90.0
  0
LINE
  5
20D
  8
1
 10
37.999999999999893
 20
40.49999999999968
 30
0.0
 11
37.999999999999893
 21
27.49999999999957
 31
0.0
  0
ARC
  5
20E
  8
0
 10
31.399999999999871
 20
35.09999999999971
 30
0.0
 40
0.3
 50
269.99825227610819
 51
0.0
  0
ARC
  5
20F
  8
0
 10
31.99999999999989
 20
35.999999999999687
 30
0.0
 40
0.3
 50
90.0
 51
180.0
  0
ARC
  5
210
  8
0
 10
32.599999999999802
 20
35.999999999999687
 30
0.0
 40
0.3
 50
0.0
 51
90.0
  0
ARC
  5
211
  8
0
 10
33.199999999999818
 20
35.299999999999642
 30
0.0
 40
0.3
 50
180.0
 51
270.0
  0
ARC
  5
212
  8
0
 10
33.799999999999841
 20
35.299999999999528
 30
0.0
 40
0.3
 50
269.99825080753192
 51
0.0
  0
ARC
  5
213
  8
0
 10
34.399999999999977
 20
35.999999999999567
 30
0.0
 40
0.3
 50
90.000000000006509
 51
180.0
  0
ARC
  5
214
  8
0
 10
35.199999999996749
 20
35.999999999999801
 30
0.0
 40
0.3
 50
0.0
 51
90.001749713850344
  0
LINE
  5
215
  8
0
 10
34.399999999999871
 20
36.299999999999642
 30
0.0
 11
35.199990838516328
 21
36.299999999999642
 31
0.0
  0
LINE
  5
216
  8
0
 10
31.699999999999939
 20
35.999999999999687
 30
0.0
 11
31.699999999999939
 21
35.09999999999971
 31
0.0
  0
LINE
  5
217
  8
0
 10
32.899999999999871
 20
35.999999999999687
 30
0.0
 11
32.899999999999871
 21
35.299999999999642
 31
0.0
  0
LINE
  5
218
  8
0
 10
34.099999999999909
 20
35.999999999999567
 30
0.0
 11
34.099999999999909
 21
35.299999999999528
 31
0.0
  0
LINE
  5
219
  8
0
 10
33.199999999999818
 20
34.999999999999687
 30
0.0
 11
33.79999084124961
 21
34.99999999999946
 31
0.0
  0
LINE
  5
21A
  8
0
 10
31.99999999999989
 20
36.299999999999763
 30
0.0
 11
32.599999999999802
 21
36.299999999999763
 31
0.0
  0
LINE
  5
21B
  8
0
 10
35.499999999996817
 20
32.799999999999642
 30
0.0
 11
35.499999999996703
 21
35.999999999999801
 31
0.0
  0
LINE
  5
21C
  8
0
 10
36.849999999999909
 20
35.799999999999642
 30
0.0
 11
36.849999999999802
 21
30.399999999999672
 31
0.0
  0
ARC
  5
21D
  8
0
 10
37.349999999999909
 20
35.799999999999642
 30
0.0
 40
0.5
 50
90.0
 51
180.0
  0
LINE
  5
21E
  8
0
 10
41.299999999999827
 20
32.338119784648171
 30
0.0
 11
39.884442810561609
 21
30.180573459983549
 31
0.0
  0
ARC
  5
21F
  8
0
 10
39.549999999999962
 20
30.400000000000009
 30
0.0
 40
0.4
 50
180.0
 51
326.73128591625738
  0
LINE
  5
220
  8
0
 10
34.699999999999932
 20
32.338119784648171
 30
0.0
 11
35.499999999996589
 21
32.799999999999528
 31
0.0
  0
LINE
  5
221
  8
0
 10
34.699999999999932
 20
32.338119784648171
 30
0.0
 11
36.115557189438157
 21
30.180573459983549
 31
0.0
  0
ARC
  5
222
  8
0
 10
36.449999999999818
 20
30.400000000000009
 30
0.0
 40
0.4
 50
213.26871408374259
 51
0.0
  0
ENDSEC
  0
EOF
