  0
SECTION
  2
HEADER
  9
$ACADVER
  1
AC1009
  9
$INSBASE
 10
0.0
 20
0.0
 30
0.0
  9
$EXTMIN
 10
0.0
 20
-2.960436562073669
 30
0.0
  9
$EXTMAX
 10
254.62675240034929
 20
253.25472662537399
 30
0.0
  9
$LIMMIN
 10
0.0
 20
0.0
  9
$LIMMAX
 10
375.0
 20
270.0
  9
$ORTHOMODE
 70
     0
  9
$REGENMODE
 70
     1
  9
$FILLMODE
 70
     1
  9
$QTEXTMODE
 70
     0
  9
$MIRRTEXT
 70
     0
  9
$DRAGMODE
 70
     2
  9
$LTSCALE
 40
8.0
  9
$OSMODE
 70
  3071
  9
$ATTMODE
 70
     1
  9
$TEXTSIZE
 40
0.2
  9
$TRACEWID
 40
0.05
  9
$TEXTSTYLE
  7
STANDARD
  9
$CLAYER
  8
0
  9
$CELTYPE
  6
BYLAYER
  9
$CECOLOR
 62
   256
  9
$DIMSCALE
 40
1.0
  9
$DIMASZ
 40
3.0
  9
$DIMEXO
 40
1.0
  9
$DIMDLI
 40
6.0
  9
$DIMRND
 40
0.0
  9
$DIMDLE
 40
0.0
  9
$DIMEXE
 40
1.0
  9
$DIMTP
 40
495.0
  9
$DIMTM
 40
0.0
  9
$DIMTXT
 40
3.0
  9
$DIMCEN
 40
0.0
  9
$DIMTSZ
 40
0.0
  9
$DIMTOL
 70
     0
  9
$DIMLIM
 70
     0
  9
$DIMTIH
 70
     0
  9
$DIMTOH
 70
     0
  9
$DIMSE1
 70
     0
  9
$DIMSE2
 70
     0
  9
$DIMTAD
 70
     1
  9
$DIMZIN
 70
     0
  9
$DIMBLK
  1

  9
$DIMASO
 70
     0
  9
$DIMSHO
 70
     0
  9
$DIMPOST
  1

  9
$DIMAPOST
  1

  9
$DIMALT
 70
     0
  9
$DIMALTD
 70
     2
  9
$DIMALTF
 40
25.399999999999999
  9
$DIMLFAC
 40
1.0
  9
$DIMTOFL
 70
     1
  9
$DIMTVP
 40
0.0
  9
$DIMTIX
 70
     1
  9
$DIMSOXD
 70
     0
  9
$DIMSAH
 70
     0
  9
$DIMBLK1
  1

  9
$DIMBLK2
  1

  9
$DIMSTYLE
  2
STANDARD
  9
$DIMCLRD
 70
     0
  9
$DIMCLRE
 70
     0
  9
$DIMCLRT
 70
     4
  9
$DIMTFAC
 40
1.0
  9
$DIMGAP
 40
1.0
  9
$LUNITS
 70
     2
  9
$LUPREC
 70
     4
  9
$SKETCHINC
 40
0.1
  9
$FILLETRAD
 40
3.0
  9
$AUNITS
 70
     0
  9
$AUPREC
 70
     0
  9
$MENU
  1
C:\R13\WIN\SUPPORT\ACAD-I
  9
$ELEVATION
 40
0.0
  9
$PELEVATION
 40
0.0
  9
$THICKNESS
 40
0.0
  9
$LIMCHECK
 70
     0
  9
$BLIPMODE
 70
     0
  9
$CHAMFERA
 40
0.0
  9
$CHAMFERB
 40
0.0
  9
$SKPOLY
 70
     0
  9
$TDCREATE
 40
2450834.7095229169
  9
$TDUPDATE
 40
2456597.5614239699
  9
$TDINDWG
 40
0.071717037
  9
$TDUSRTIMER
 40
0.071717037
  9
$USRTIMER
 70
     1
  9
$ANGBASE
 50
0.0
  9
$ANGDIR
 70
     0
  9
$PDMODE
 70
     0
  9
$PDSIZE
 40
0.0
  9
$PLINEWID
 40
0.0
  9
$COORDS
 70
     1
  9
$SPLFRAME
 70
     0
  9
$SPLINETYPE
 70
     6
  9
$SPLINESEGS
 70
     8
  9
$ATTDIA
 70
     0
  9
$ATTREQ
 70
     1
  9
$HANDLING
 70
     1
  9
$HANDSEED
  5
969
  9
$SURFTAB1
 70
     6
  9
$SURFTAB2
 70
     6
  9
$SURFTYPE
 70
     6
  9
$SURFU
 70
     6
  9
$SURFV
 70
     6
  9
$UCSNAME
  2

  9
$UCSORG
 10
0.0
 20
0.0
 30
0.0
  9
$UCSXDIR
 10
1.0
 20
0.0
 30
0.0
  9
$UCSYDIR
 10
0.0
 20
1.0
 30
0.0
  9
$PUCSNAME
  2

  9
$PUCSORG
 10
0.0
 20
0.0
 30
0.0
  9
$PUCSXDIR
 10
1.0
 20
0.0
 30
0.0
  9
$PUCSYDIR
 10
0.0
 20
1.0
 30
0.0
  9
$USERI1
 70
     4
  9
$USERI2
 70
     1
  9
$USERI3
 70
     0
  9
$USERI4
 70
     0
  9
$USERI5
 70
     0
  9
$USERR1
 40
1.0
  9
$USERR2
 40
3.0
  9
$USERR3
 40
3.0
  9
$USERR4
 40
3.0
  9
$USERR5
 40
10.0
  9
$WORLDVIEW
 70
     1
  9
$SHADEDGE
 70
     3
  9
$SHADEDIF
 70
    70
  9
$TILEMODE
 70
     1
  9
$MAXACTVP
 70
    16
  9
$PLIMCHECK
 70
     0
  9
$PEXTMIN
 10
1.0000000000000000E+020
 20
1.0000000000000000E+020
 30
1.0000000000000000E+020
  9
$PEXTMAX
 10
-1.0000000000000000E+020
 20
-1.0000000000000000E+020
 30
-1.0000000000000000E+020
  9
$PLIMMIN
 10
0.0
 20
0.0
  9
$PLIMMAX
 10
12.0
 20
9.0
  9
$UNITMODE
 70
     0
  9
$VISRETAIN
 70
     0
  9
$PLINEGEN
 70
     0
  9
$PSLTSCALE
 70
     0
  0
ENDSEC
  0
SECTION
  2
TABLES
  0
TABLE
  2
VPORT
 70
     1
  0
VPORT
  2
*ACTIVE
 70
     0
 10
0.0
 20
0.0
 11
1.0
 21
1.0
 12
187.49427839065231
 22
162.8616388594717
 13
0.0
 23
0.0
 14
10.0
 24
10.0
 15
10.0
 25
10.0
 16
0.0
 26
0.0
 36
1.0
 17
0.0
 27
0.0
 37
0.0
 40
334.81001162774987
 41
1.9089595375722539
 42
50.0
 43
0.0
 44
0.0
 50
0.0
 51
0.0
 71
     0
 72
   100
 73
     1
 74
     0
 75
     0
 76
     0
 77
     0
 78
     0
  0
ENDTAB
  0
TABLE
  2
LTYPE
 70
     3
  0
LTYPE
  2
CONTINUOUS
 70
     0
  3
Solid Line
 72
    65
 73
     0
 40
0.0
  0
LTYPE
  2
CENTER
 70
     0
  3
____ _ ____ _ ____ _ ____ _ ____ _ ____ _ ____
 72
    65
 73
     4
 40
2.0
 49
1.25
 49
-0.25
 49
0.25
 49
-0.25
  0
LTYPE
  2
PHANTOM2
 70
     0
  3
___ _ _ ___ _ _ ___ _ _ ___ _ _
 72
    65
 73
     6
 40
1.25
 49
0.625
 49
-0.125
 49
0.125
 49
-0.125
 49
0.125
 49
-0.125
  0
ENDTAB
  0
TABLE
  2
LAYER
 70
     3
  0
LAYER
  2
0
 70
     0
 62
     7
  6
CONTINUOUS
  0
LAYER
  2
1
 70
     0
 62
     1
  6
CENTER
  0
LAYER
  2
3
 70
     0
 62
     3
  6
CONTINUOUS
  0
ENDTAB
  0
TABLE
  2
STYLE
 70
     2
  0
STYLE
  2
STANDARD
 70
     0
 40
0.0
 41
1.0
 50
0.0
 71
     0
 42
0.2
  3
SIMPLEX
  4
BIGFONT
  0
STYLE
  2
STANDARD1
 70
     0
 40
0.0
 41
1.0
 50
0.0
 71
     0
 42
3.0
  3
txt
  4

  0
ENDTAB
  0
TABLE
  2
VIEW
 70
     0
  0
ENDTAB
  0
TABLE
  2
UCS
 70
     0
  0
ENDTAB
  0
TABLE
  2
APPID
 70
    23
  0
APPID
  2
ACAD
 70
     0
  0
APPID
  2
GENIUS_GENOREF_13
 70
     0
  0
APPID
  2
GENIUS_GENOENT_13
 70
     0
  0
APPID
  2
GENIUS_GENBH_13
 70
     0
  0
APPID
  2
GENIUS_GENOBJ_13
 70
     0
  0
APPID
  2
GENIUS_GENODEF_13
 70
     0
  0
APPID
  2
GENIUS_GENOLIS_13
 70
     0
  0
APPID
  2
GENIUS_GENOBJ-NBEHI-BHF_13
 70
     0
  0
APPID
  2
GENIUS_GENOBJ-NBEHI-BHB_13
 70
     0
  0
APPID
  2
GENIUS_GENOBJ-F-PART_13
 70
     0
  0
APPID
  2
GENIUS_GEFSTDP_13
 70
     0
  0
APPID
  2
GENIUS_GENOBJ-N-RSSYM_13
 70
     0
  0
APPID
  2
GENIUS_GENSYMENT_13
 70
     0
  0
APPID
  2
GENIUS_GENOBJ-N-TIT_13
 70
     0
  0
APPID
  2
GENIUS_GENTITLE_13
 70
     0
  0
APPID
  2
GENIUS_GENZVEED_13
 70
     0
  0
APPID
  2
GENIUS_GENOBJ-N-LEADER_13
 70
     0
  0
APPID
  2
GENIUS_GENOBJ-N-FIL_13
 70
     0
  0
APPID
  2
GENIUS_GENOBJ-N-SEC_13
 70
     0
  0
APPID
  2
GENIUS_GENOBJ-F-TOL_13
 70
     0
  0
APPID
  2
GENIUS_GENOBJ-N-REV_13
 70
     0
  0
APPID
  2
ACAD_MLEADERVER
 70
     0
  0
APPID
  2
ACAD_NAV_VCDISPLAY
 70
     0
  0
ENDTAB
  0
TABLE
  2
DIMSTYLE
 70
     1
  0
DIMSTYLE
  2
STANDARD
 70
     0
  3

  4

  5

  6

  7

 40
1.0
 41
0.18
 42
0.0625
 43
0.38
 44
0.18
 45
0.0
 46
0.0
 47
0.0
 48
0.0
140
0.18
141
0.09
142
0.0
143
25.399999999999999
144
1.0
145
0.0
146
1.0
147
0.09
 71
     0
 72
     0
 73
     1
 74
     1
 75
     0
 76
     0
 77
     0
 78
     0
170
     0
171
     2
172
     0
173
     0
174
     0
175
     0
176
     0
177
     0
178
     0
  0
ENDTAB
  0
ENDSEC
  0
SECTION
  2
BLOCKS
  0
BLOCK
  8
0
  2
$MODEL_SPACE
 70
     0
 10
0.0
 20
0.0
 30
0.0
  3
$MODEL_SPACE
  1

  0
ENDBLK
  5
826
  8
0
  0
BLOCK
 67
     1
  8
0
  2
$PAPER_SPACE
 70
     0
 10
0.0
 20
0.0
 30
0.0
  3
$PAPER_SPACE
  1

  0
ENDBLK
  5
824
 67
     1
  8
0
  0
BLOCK
  8
0
  2
STDGX5
 70
     0
 10
0.0
 20
0.0
 30
0.0
  3
STDGX5
  1

  0
ENDBLK
  5
4F
  8
0
  0
ENDSEC
  0
SECTION
  2
ENTITIES
  0
INSERT
  5
DE
  8
0
  2
STDGX5
 10
0.0
 20
0.0
 30
0.0
  0
INSERT
  5
DF
  8
0
  2
STDGX5
 10
0.0
 20
0.0
 30
0.0
  0
INSERT
  5
15C
  8
0
  2
STDGX5
 10
275.0
 20
0.0
 30
0.0
  0
INSERT
  5
15D
  8
0
  2
STDGX5
 10
275.0
 20
0.0
 30
0.0
  0
LINE
  5
535
  8
0
 10
141.13819737564191
 20
53.241068631745463
 30
0.0
 11
141.13819737564191
 21
170.24106863174549
 31
0.0
  0
ARC
  5
536
  8
0
 10
130.51383501962869
 20
162.61670627573719
 30
0.0
 40
1.5
 50
359.99999999999778
 51
90.0
1001
GENIUS_GENODEF_13
1002
{
1000
HIER
1070
     0
1002
}
1002
{
1000
MANEDIT
1070
     0
1002
}
1002
{
1000
NOSEL
1070
     0
1002
}
1002
{
1000
BEHIND
1070
     0
1002
}
1002
{
1000
REACTOR
1002
}
1001
GENIUS_GENOBJ-N-FIL_13
1002
{
1000
OWNER
1000
GEN
1002
}
  0
ARC
  5
537
  8
0
 10
121.7625597316552
 20
162.61670627573719
 30
0.0
 40
1.5
 50
90.0
 51
180.00000000000219
1001
GENIUS_GENODEF_13
1002
{
1000
HIER
1070
     0
1002
}
1002
{
1000
MANEDIT
1070
     0
1002
}
1002
{
1000
NOSEL
1070
     0
1002
}
1002
{
1000
BEHIND
1070
     0
1002
}
1002
{
1000
REACTOR
1002
}
1001
GENIUS_GENOBJ-N-FIL_13
1002
{
1000
OWNER
1000
GEN
1002
}
  0
LINE
  5
538
  8
0
 10
111.13819737564189
 20
53.241068631745463
 30
0.0
 11
111.13819737564189
 21
170.24106863174549
 31
0.0
  0
LINE
  5
539
  8
0
 10
244.53529242648591
 20
173.24106863174549
 30
0.0
 11
244.53529242648591
 21
53.241068631745463
 31
0.0
  0
LINE
  5
53A
  8
0
 10
229.53529242648591
 20
170.24106863174549
 30
0.0
 11
229.53529242648591
 21
74.60853896350153
 31
0.0
  0
ARC
  5
53B
  8
0
 10
223.53529242648571
 20
74.60853896350153
 30
0.0
 40
6.0
 50
271.00000000000011
 51
359.99999999999989
1001
GENIUS_GENODEF_13
1002
{
1000
HIER
1070
     0
1002
}
1002
{
1000
MANEDIT
1070
     0
1002
}
1002
{
1000
NOSEL
1070
     0
1002
}
1002
{
1000
BEHIND
1070
     0
1002
}
1002
{
1000
REACTOR
1002
}
1001
GENIUS_GENOBJ-N-FIL_13
1002
{
1000
OWNER
1000
GEN
1002
}
  0
LINE
  5
53C
  8
0
 10
244.53529242648591
 20
53.241068631745463
 30
0.0
 11
199.5352924264858
 21
53.24106863174552
 31
0.0
  0
LINE
  5
53D
  8
0
 10
111.13819737564199
 20
245.55472662537409
 30
0.0
 11
123.0381973756419
 21
245.55472662537409
 31
0.0
  0
LINE
  5
53E
  8
0
 10
114.34811513891241
 20
230.55472662537409
 30
0.0
 11
126.13819737564199
 21
230.55472662537409
 31
0.0
  0
LINE
  5
53F
  8
0
 10
114.87176708675899
 20
200.554726625374
 30
0.0
 11
137.40462766452509
 21
200.5547266253742
 31
0.0
  0
LINE
  5
540
  8
0
 10
111.13819737564199
 20
245.55472662537409
 30
0.0
 11
111.87222400128979
 21
203.50236940606209
 31
0.0
  0
ARC
  5
541
  8
0
 10
114.87176708675899
 20
203.554726625374
 30
0.0
 40
3.0
 50
181.0000000000002
 51
270.00000000000023
1001
GENIUS_GENODEF_13
1002
{
1000
HIER
1070
     0
1002
}
1002
{
1000
MANEDIT
1070
     0
1002
}
1002
{
1000
NOSEL
1070
     0
1002
}
1002
{
1000
BEHIND
1070
     0
1002
}
1002
{
1000
REACTOR
1002
}
1001
GENIUS_GENOBJ-N-FIL_13
1002
{
1000
OWNER
1000
GEN
1002
}
  0
ARC
  5
542
  8
0
 10
114.34811513891241
 20
233.55472662537409
 30
0.0
 40
3.0
 50
181.0000000000002
 51
270.0
1001
GENIUS_GENODEF_13
1002
{
1000
HIER
1070
     0
1002
}
1002
{
1000
MANEDIT
1070
     0
1002
}
1002
{
1000
NOSEL
1070
     0
1002
}
1002
{
1000
BEHIND
1070
     0
1002
}
1002
{
1000
REACTOR
1002
}
1001
GENIUS_GENOBJ-N-FIL_13
1002
{
1000
OWNER
1000
GEN
1002
}
  0
ARC
  5
543
  8
0
 10
129.13819737564199
 20
212.54652069843411
 30
0.0
 40
2.0
 50
270.00000000000091
 51
0.0
1001
GENIUS_GENODEF_13
1002
{
1000
HIER
1070
     0
1002
}
1002
{
1000
MANEDIT
1070
     0
1002
}
1002
{
1000
NOSEL
1070
     0
1002
}
1002
{
1000
BEHIND
1070
     0
1002
}
1002
{
1000
REACTOR
1002
}
1001
GENIUS_GENOBJ-N-FIL_13
1002
{
1000
OWNER
1000
GEN
1002
}
  0
LINE
  5
544
  8
0
 10
141.13819737564199
 20
245.55472662537409
 30
0.0
 11
140.40417074999419
 21
203.50236940606209
 31
0.0
  0
ARC
  5
545
  8
0
 10
123.13819737564199
 20
212.54652069843399
 30
0.0
 40
2.0
 50
180.0
 51
270.00000000000068
1001
GENIUS_GENODEF_13
1002
{
1000
HIER
1070
     0
1002
}
1002
{
1000
MANEDIT
1070
     0
1002
}
1002
{
1000
NOSEL
1070
     0
1002
}
1002
{
1000
BEHIND
1070
     0
1002
}
1002
{
1000
REACTOR
1002
}
1001
GENIUS_GENOBJ-N-FIL_13
1002
{
1000
OWNER
1000
GEN
1002
}
  0
LINE
  5
546
  8
0
 10
129.13819737564199
 20
210.54652069843411
 30
0.0
 11
123.13819737564199
 21
210.54652069843399
 31
0.0
  0
ARC
  5
547
  8
0
 10
137.40462766452509
 20
203.554726625374
 30
0.0
 40
3.0
 50
269.99999999999977
 51
358.99999999999977
1001
GENIUS_GENODEF_13
1002
{
1000
HIER
1070
     0
1002
}
1002
{
1000
MANEDIT
1070
     0
1002
}
1002
{
1000
NOSEL
1070
     0
1002
}
1002
{
1000
BEHIND
1070
     0
1002
}
1002
{
1000
REACTOR
1002
}
1001
GENIUS_GENOBJ-N-FIL_13
1002
{
1000
OWNER
1000
GEN
1002
}
  0
LINE
  5
548
  8
0
 10
137.92827961237171
 20
230.55472662537409
 30
0.0
 11
126.13819737564199
 21
230.55472662537409
 31
0.0
  0
LINE
  5
549
  8
0
 10
131.13819737564199
 20
228.66054584435031
 30
0.0
 11
131.13819737564199
 21
212.54652069843411
 31
0.0
  0
LINE
  5
54A
  8
0
 10
121.13819737564199
 20
228.66054584435031
 30
0.0
 11
121.13819737564199
 21
212.54652069843399
 31
0.0
  0
LINE
  5
54B
  8
0
 10
131.13819737564199
 20
228.66054584435031
 30
0.0
 11
121.13819737564199
 21
228.66054584435031
 31
0.0
  0
ARC
  5
54C
  8
0
 10
137.92827961237171
 20
233.55472662537409
 30
0.0
 40
3.0
 50
270.0
 51
358.99999999999977
1001
GENIUS_GENODEF_13
1002
{
1000
HIER
1070
     0
1002
}
1002
{
1000
MANEDIT
1070
     0
1002
}
1002
{
1000
NOSEL
1070
     0
1002
}
1002
{
1000
BEHIND
1070
     0
1002
}
1002
{
1000
REACTOR
1002
}
1001
GENIUS_GENOBJ-N-FIL_13
1002
{
1000
OWNER
1000
GEN
1002
}
  0
LINE
  5
54D
  8
0
 10
141.13819737564199
 20
245.55472662537409
 30
0.0
 11
129.23819737564199
 21
245.55472662537409
 31
0.0
  0
LINE
  5
54E
  8
0
 10
128.73819737564199
 20
248.25472662537399
 30
0.0
 11
126.13819737564199
 21
248.25472662537399
 31
0.0
  0
LINE
  5
54F
  8
0
 10
123.0381973756419
 20
247.75472662537399
 30
0.0
 11
123.0381973756419
 21
245.55472662537409
 31
0.0
  0
ARC
  5
550
  8
0
 10
123.538197375642
 20
247.75472662537399
 30
0.0
 40
0.5
 50
90.000000000000284
 51
180.0000000000002
1001
GENIUS_GENODEF_13
1002
{
1000
HIER
1070
     0
1002
}
1002
{
1000
MANEDIT
1070
     0
1002
}
1002
{
1000
NOSEL
1070
     0
1002
}
1002
{
1000
BEHIND
1070
     0
1002
}
1002
{
1000
REACTOR
1002
}
1001
GENIUS_GENOBJ-N-FIL_13
1002
{
1000
OWNER
1000
GEN
1002
}
  0
LINE
  5
551
  8
0
 10
123.538197375642
 20
248.25472662537399
 30
0.0
 11
126.13819737564189
 21
248.25472662537399
 31
0.0
  0
LINE
  5
552
  8
0
 10
129.23819737564199
 20
247.75472662537399
 30
0.0
 11
129.23819737564199
 21
245.55472662537409
 31
0.0
  0
ARC
  5
553
  8
0
 10
128.73819737564199
 20
247.75472662537399
 30
0.0
 40
0.5
 50
0.0
 51
90.0
1001
GENIUS_GENODEF_13
1002
{
1000
HIER
1070
     0
1002
}
1002
{
1000
MANEDIT
1070
     0
1002
}
1002
{
1000
NOSEL
1070
     0
1002
}
1002
{
1000
BEHIND
1070
     0
1002
}
1002
{
1000
REACTOR
1002
}
1001
GENIUS_GENOBJ-N-FIL_13
1002
{
1000
OWNER
1000
GEN
1002
}
  0
LINE
  5
554
  8
0
 10
111.13819737564189
 20
53.241068631745463
 30
0.0
 11
141.13819737564191
 21
53.241068631745463
 31
0.0
  0
LINE
  5
555
  8
0
 10
114.87319737564199
 20
68.241068631745463
 30
0.0
 11
137.40319737564209
 21
68.241068631745463
 31
0.0
  0
LINE
  5
556
  8
0
 10
111.87319737564199
 20
53.241068631745463
 30
0.0
 11
111.87319737564199
 21
65.241068631745463
 31
0.0
  0
ARC
  5
557
  8
0
 10
114.87319737564199
 20
65.241068631745463
 30
0.0
 40
3.0
 50
90.0
 51
180.0
1001
GENIUS_GENODEF_13
1002
{
1000
HIER
1070
     0
1002
}
1002
{
1000
MANEDIT
1070
     0
1002
}
1002
{
1000
NOSEL
1070
     0
1002
}
1002
{
1000
BEHIND
1070
     0
1002
}
1002
{
1000
REACTOR
1002
}
1001
GENIUS_GENOBJ-N-FIL_13
1002
{
1000
OWNER
1000
GEN
1002
}
  0
LINE
  5
558
  8
0
 10
244.53529242648591
 20
106.9841309897913
 30
0.0
 11
244.53529242648591
 21
94.690176462563272
 31
0.0
  0
LINE
  5
559
  8
0
 10
131.13819737564199
 20
68.363254086251345
 30
0.0
 11
121.13819737564189
 21
68.363254086251345
 31
0.0
  0
LINE
  5
55A
  8
0
 10
121.13819737564199
 20
70.241068631745463
 30
0.0
 11
131.13819737564191
 21
70.241068631745463
 31
0.0
  0
LINE
  5
55B
  8
0
 10
121.13819737564189
 20
68.363254086251345
 30
0.0
 11
121.13819737564199
 21
70.241068631745463
 31
0.0
  0
LINE
  5
55C
  8
0
 10
131.13819737564199
 20
68.363254086251345
 30
0.0
 11
131.13819737564191
 21
70.241068631745463
 31
0.0
  0
LINE
  5
55D
  8
0
 10
140.40319737564209
 20
53.241068631745463
 30
0.0
 11
140.40319737564209
 21
65.241068631745463
 31
0.0
  0
ARC
  5
55E
  8
0
 10
137.40319737564209
 20
65.241068631745463
 30
0.0
 40
3.0
 50
0.0
 51
90.0
1001
GENIUS_GENODEF_13
1002
{
1000
HIER
1070
     0
1002
}
1002
{
1000
MANEDIT
1070
     0
1002
}
1002
{
1000
NOSEL
1070
     0
1002
}
1002
{
1000
BEHIND
1070
     0
1002
}
1002
{
1000
REACTOR
1002
}
1001
GENIUS_GENOBJ-N-FIL_13
1002
{
1000
OWNER
1000
GEN
1002
}
  0
LINE
  5
55F
  8
0
 10
120.2625597316552
 20
162.6167062757371
 30
0.0
 11
120.26255973165711
 21
112.1120916258687
 31
0.0
  0
LINE
  5
560
  8
0
 10
132.01383501962869
 20
162.6167062757371
 30
0.0
 11
132.0138350196267
 21
112.1120916258687
 31
0.0
  0
LINE
  5
562
  8
0
 10
132.0138350196267
 20
112.1120916258687
 30
0.0
 11
120.26255973165711
 21
112.1120916258687
 31
0.0
  0
CIRCLE
  5
56B
  8
0
 10
126.13819737564479
 20
128.24106863174541
 30
0.0
 40
3.1000000000000001
  0
CIRCLE
  5
56C
  8
0
 10
126.13819737564479
 20
143.24106863174541
 30
0.0
 40
5.25
  0
CIRCLE
  5
56D
  8
0
 10
126.13819737564479
 20
143.24106863174541
 30
0.0
 40
2.5
  0
CIRCLE
  5
56F
  8
0
 10
126.13819737564479
 20
158.24106863174541
 30
0.0
 40
3.1000000000000001
  0
LINE
  5
570
  8
0
 10
244.53529242648591
 20
113.4703666435189
 30
0.0
 11
247.23529242648581
 21
113.54106863175561
 31
0.0
  0
LINE
  5
571
  8
0
 10
244.53529242648591
 20
116.0881973070619
 30
0.0
 11
247.23529242648601
 21
116.04106863175561
 31
0.0
  0
LINE
  5
572
  8
0
 10
247.23529242648601
 20
116.04106863175561
 30
0.0
 11
247.23529242648581
 21
113.54106863175561
 31
0.0
  0
LINE
  5
573
  8
0
 10
223.64000686510951
 20
68.609452792563161
 30
0.0
 11
202.48293520717399
 21
68.240154733082932
 31
0.0
  0
LINE
  5
574
  8
0
 10
199.5352924264858
 20
65.240611647613719
 30
0.0
 11
199.5352924264858
 21
53.24106863174552
 31
0.0
  0
ARC
  5
575
  8
0
 10
202.53529242648591
 20
65.240611647613719
 30
0.0
 40
3.0
 50
91.000000000000185
 51
180.0
1001
GENIUS_GENODEF_13
1002
{
1000
HIER
1070
     0
1002
}
1002
{
1000
MANEDIT
1070
     0
1002
}
1002
{
1000
NOSEL
1070
     0
1002
}
1002
{
1000
BEHIND
1070
     0
1002
}
1002
{
1000
REACTOR
1002
}
1001
GENIUS_GENOBJ-N-FIL_13
1002
{
1000
OWNER
1000
GEN
1002
}
  0
LINE
  5
577
  8
0
 10
114.13819737564189
 20
173.24106863174549
 30
0.0
 11
138.13819737564191
 21
173.24106863174549
 31
0.0
  0
ARC
  5
578
  8
0
 10
114.13819737564189
 20
170.24106863174549
 30
0.0
 40
3.0
 50
90.0
 51
180.0
1001
GENIUS_GENODEF_13
1002
{
1000
HIER
1070
     0
1002
}
1002
{
1000
MANEDIT
1070
     0
1002
}
1002
{
1000
NOSEL
1070
     0
1002
}
1002
{
1000
BEHIND
1070
     0
1002
}
1002
{
1000
REACTOR
1002
}
1001
GENIUS_GENOBJ-N-FIL_13
1002
{
1000
OWNER
1000
GEN
1002
}
  0
LINE
  5
579
  8
0
 10
126.13819737564189
 20
164.11670627573719
 30
0.0
 11
130.51383501962869
 21
164.11670627573719
 31
0.0
  0
LINE
  5
57A
  8
0
 10
126.13819737564189
 20
164.11670627573719
 30
0.0
 11
121.7625597316552
 21
164.11670627573719
 31
0.0
  0
ARC
  5
57B
  8
0
 10
138.13819737564191
 20
170.24106863174549
 30
0.0
 40
3.0
 50
0.0
 51
90.0
1001
GENIUS_GENODEF_13
1002
{
1000
HIER
1070
     0
1002
}
1002
{
1000
MANEDIT
1070
     0
1002
}
1002
{
1000
NOSEL
1070
     0
1002
}
1002
{
1000
BEHIND
1070
     0
1002
}
1002
{
1000
REACTOR
1002
}
1001
GENIUS_GENOBJ-N-FIL_13
1002
{
1000
OWNER
1000
GEN
1002
}
  0
LINE
  5
57C
  8
0
 10
244.53529242648591
 20
170.62323796820249
 30
0.0
 11
247.2352924264859
 21
170.69393995643921
 31
0.0
  0
LINE
  5
57D
  8
0
 10
244.53529242648591
 20
173.24106863174549
 30
0.0
 11
247.23529242648601
 21
173.19393995643921
 31
0.0
  0
LINE
  5
57E
  8
0
 10
247.23529242648601
 20
173.19393995643921
 30
0.0
 11
247.2352924264859
 21
170.69393995643921
 31
0.0
  0
LINE
  5
586
  8
0
 10
124.98349683726551
 20
145.24106863174541
 30
0.0
 11
123.8287962988863
 21
143.24106863174541
 31
0.0
  0
LINE
  5
587
  8
0
 10
123.8287962988863
 20
143.24106863174541
 30
0.0
 11
124.98349683726551
 21
141.24106863174541
 31
0.0
  0
LINE
  5
588
  8
0
 10
124.98349683726551
 20
141.24106863174541
 30
0.0
 11
127.292897914024
 21
141.24106863174541
 31
0.0
  0
LINE
  5
589
  8
0
 10
127.292897914024
 20
141.24106863174541
 30
0.0
 11
128.44759845240321
 21
143.24106863174541
 31
0.0
  0
LINE
  5
58A
  8
0
 10
128.44759845240321
 20
143.24106863174541
 30
0.0
 11
127.292897914024
 21
145.24106863174541
 31
0.0
  0
LINE
  5
58B
  8
0
 10
127.292897914024
 20
145.24106863174541
 30
0.0
 11
124.98349683726551
 21
145.24106863174541
 31
0.0
  0
LINE
  5
58D
  8
1
 10
134.638197375647
 20
158.24106863174541
 30
0.0
 11
117.638197375647
 21
158.24106863174541
 31
0.0
  0
LINE
  5
58F
  8
1
 10
136.38819737564481
 20
143.24106863174541
 30
0.0
 11
115.88819737564469
 21
143.24106863174541
 31
0.0
  0
LINE
  5
591
  8
1
 10
134.63819737563981
 20
128.24106863174541
 30
0.0
 11
117.63819737563981
 21
128.24106863174541
 31
0.0
  0
LINE
  5
593
  8
1
 10
126.13819737564189
 20
178.24106863174549
 30
0.0
 11
126.13819737564189
 21
48.241068631745463
 31
0.0
  0
LINE
  5
595
  8
1
 10
126.13819737564199
 20
195.55472662537409
 30
0.0
 11
126.13819737564199
 21
253.25472662537399
 31
0.0
  0
LINE
  5
687
  8
0
 10
244.53529242648591
 20
146.24106863174541
 30
0.0
 11
247.87675243773879
 21
146.24106863174541
 31
0.0
  0
LINE
  5
688
  8
3
 10
244.53529242648591
 20
145.69956863174551
 30
0.0
 11
247.87675243773879
 21
145.69956863174551
 31
0.0
  0
LINE
  5
689
  8
3
 10
244.53529242648591
 20
140.78256863174539
 30
0.0
 11
247.87675243773879
 21
140.78256863174531
 31
0.0
  0
LINE
  5
68A
  8
0
 10
244.53529242648591
 20
140.24106863174541
 30
0.0
 11
247.87675243773879
 21
140.24106863174541
 31
0.0
  0
LINE
  5
6A0
  8
0
 10
244.53529242648591
 20
173.24106863174549
 30
0.0
 11
232.5352924264858
 21
173.24106863174549
 31
0.0
  0
ARC
  5
6A1
  8
0
 10
232.5352924264858
 20
170.24106863174549
 30
0.0
 40
3.0
 50
90.0
 51
180.0
  0
LINE
  5
6A2
  8
0
 10
254.28529242648591
 20
150.791068631744
 30
0.0
 11
254.28529242648591
 21
155.74106863174549
 31
0.0
  0
LINE
  5
6A3
  8
0
 10
247.87675243773879
 20
138.74106863174541
 30
0.0
 11
247.87675243773879
 21
155.74106863174541
 31
0.0
  0
LINE
  5
6A5
  8
0
 10
254.28529242648591
 20
138.74106863174541
 30
0.0
 11
247.87675243773879
 21
138.74106863174541
 31
0.0
  0
ARC
  5
6A6
  8
0
 10
255.65088083725229
 20
149.24106863174549
 30
0.0
 40
2.0657520924870849
 50
131.380850822951
 51
228.61914917704951
  0
ARC
  5
6A7
  8
0
 10
255.376752437741
 20
143.3148200524914
 30
0.0
 40
2.5
 50
115.88612944777221
 51
244.1138705521814
  0
LINE
  5
6A8
  8
0
 10
254.28529242648591
 20
138.74106863174549
 30
0.0
 11
254.28529242648591
 21
141.0656613111326
 31
0.0
  0
LINE
  5
6A9
  8
0
 10
254.2852924264877
 20
145.56397879385119
 30
0.0
 11
254.2852924264877
 21
147.69106863174551
 31
0.0
  0
ARC
  5
6AA
  8
0
 10
253.12675243774061
 20
149.2405050388362
 30
0.0
 40
1.500000000000004
 50
305.11030927469272
 51
54.915276978790992
  0
LINE
  5
6AC
  8
0
 10
254.28529242648591
 20
155.74106863174541
 30
0.0
 11
247.87675243773879
 21
155.74106863174541
 31
0.0
  0
POLYLINE
  5
783
  8
0
  6
CONTINUOUS
 66
     1
 10
0.0
 20
0.0
 30
0.0
 70
     8
  0
VERTEX
  5
784
  8
0
  6
CONTINUOUS
 10
130.7640405047307
 20
113.17255734165199
 30
0.0
 70
    32
1001
ACAD
1000
R13OBJECT
1002
{
1005
75E
1002
}
  0
VERTEX
  5
785
  8
0
  6
CONTINUOUS
 10
131.26495988077249
 20
113.1604430199975
 30
0.0
 70
    32
1001
ACAD
1000
R13OBJECT
1002
{
1005
75E
1002
}
  0
VERTEX
  5
786
  8
0
  6
CONTINUOUS
 10
131.63102818032621
 20
113.1273613170233
 30
0.0
 70
    32
1001
ACAD
1000
R13OBJECT
1002
{
1005
75E
1002
}
  0
VERTEX
  5
787
  8
0
  6
CONTINUOUS
 10
131.7636972005794
 20
113.08221806363061
 30
0.0
 70
    32
1001
ACAD
1000
R13OBJECT
1002
{
1005
75E
1002
}
  0
SEQEND
  5
788
  8
0
  6
CONTINUOUS
  0
LINE
  5
789
  8
0
 10
123.0381973756419
 20
112.3889349174442
 30
0.0
 11
129.2381973756419
 21
112.3889349174442
 31
0.0
  0
LINE
  5
78A
  8
0
 10
129.2381973756419
 20
113.3919207956657
 30
0.0
 11
123.0381973756418
 21
113.3919207956657
 31
0.0
  0
LINE
  5
78B
  8
0
 10
120.5126975507339
 20
113.0787888469026
 30
0.0
 11
120.2625597316521
 21
112.1120916258795
 31
0.0
  0
LINE
  5
78C
  8
0
 10
123.0381973756419
 20
112.3889349174442
 30
0.0
 11
123.0381973756418
 21
113.3919207956657
 31
0.0
  0
LINE
  5
78D
  8
0
 10
121.512354246558
 20
113.17255734165199
 30
0.0
 11
123.0381973756419
 21
113.1725573416665
 31
0.0
  0
POLYLINE
  5
78E
  8
0
  6
CONTINUOUS
 66
     1
 10
0.0
 20
0.0
 30
0.0
 70
     8
  0
VERTEX
  5
78F
  8
0
  6
CONTINUOUS
 10
121.5123542465582
 20
113.17255734165199
 30
0.0
 70
    32
1001
ACAD
1000
R13OBJECT
1002
{
1005
756
1002
}
  0
VERTEX
  5
790
  8
0
  6
CONTINUOUS
 10
121.0114348705165
 20
113.1604430199975
 30
0.0
 70
    32
1001
ACAD
1000
R13OBJECT
1002
{
1005
756
1002
}
  0
VERTEX
  5
791
  8
0
  6
CONTINUOUS
 10
120.64536657096281
 20
113.1273613170233
 30
0.0
 70
    32
1001
ACAD
1000
R13OBJECT
1002
{
1005
756
1002
}
  0
VERTEX
  5
792
  8
0
  6
CONTINUOUS
 10
120.5126975507095
 20
113.08221806363061
 30
0.0
 70
    32
1001
ACAD
1000
R13OBJECT
1002
{
1005
756
1002
}
  0
SEQEND
  5
793
  8
0
  6
CONTINUOUS
  0
LINE
  5
794
  8
0
 10
129.2381973756419
 20
112.3889349174442
 30
0.0
 11
129.2381973756419
 21
113.3919207956657
 31
0.0
  0
LINE
  5
795
  8
0
 10
130.76404050472891
 20
113.1725573416584
 30
0.0
 11
129.2381973756419
 21
113.1725573416665
 31
0.0
  0
LINE
  5
796
  8
0
 10
132.0138350196267
 20
112.1120916258687
 30
0.0
 11
131.76369720056081
 21
113.0787888469026
 31
0.0
  0
TEXT
  5
8DB
  8
0
 62
     3
 10
0.0
 20
0.0
 30
0.0
 40
10.0
  1
L6-AFX120
  7
STANDARD1
  0
ENDSEC
  0
EOF
