  0
SECTION
  2
HEADER
  9
$ACADVER
  1
AC1009
  9
$INSBASE
 10
0.0
 20
0.0
 30
0.0
  9
$EXTMIN
 10
0.0
 20
-2.960436562073669
 30
0.0
  9
$EXTMAX
 10
294.29109375292359
 20
248.3319433427871
 30
0.0
  9
$LIMMIN
 10
0.0
 20
0.0
  9
$LIMMAX
 10
375.0
 20
270.0
  9
$ORTHOMODE
 70
     1
  9
$REGENMODE
 70
     1
  9
$FILLMODE
 70
     1
  9
$QTEXTMODE
 70
     0
  9
$MIRRTEXT
 70
     0
  9
$DRAGMODE
 70
     2
  9
$LTSCALE
 40
10.0
  9
$OSMODE
 70
  3071
  9
$ATTMODE
 70
     1
  9
$TEXTSIZE
 40
4.000000000000048
  9
$TRACEWID
 40
0.05
  9
$TEXTSTYLE
  7
STANDARD
  9
$CLAYER
  8
3
  9
$CELTYPE
  6
BYLAYER
  9
$CECOLOR
 62
   256
  9
$DIMSCALE
 40
1.0
  9
$DIMASZ
 40
3.0
  9
$DIMEXO
 40
2.0
  9
$DIMDLI
 40
0.38
  9
$DIMRND
 40
0.0
  9
$DIMDLE
 40
0.0
  9
$DIMEXE
 40
2.0
  9
$DIMTP
 40
0.0
  9
$DIMTM
 40
0.0
  9
$DIMTXT
 40
3.0
  9
$DIMCEN
 40
0.0
  9
$DIMTSZ
 40
0.0
  9
$DIMTOL
 70
     0
  9
$DIMLIM
 70
     0
  9
$DIMTIH
 70
     0
  9
$DIMTOH
 70
     0
  9
$DIMSE1
 70
     0
  9
$DIMSE2
 70
     0
  9
$DIMTAD
 70
     1
  9
$DIMZIN
 70
     0
  9
$DIMBLK
  1

  9
$DIMASO
 70
     0
  9
$DIMSHO
 70
     0
  9
$DIMPOST
  1

  9
$DIMAPOST
  1

  9
$DIMALT
 70
     0
  9
$DIMALTD
 70
     2
  9
$DIMALTF
 40
25.399999999999999
  9
$DIMLFAC
 40
1.0
  9
$DIMTOFL
 70
     1
  9
$DIMTVP
 40
1.6000000000000001
  9
$DIMTIX
 70
     1
  9
$DIMSOXD
 70
     0
  9
$DIMSAH
 70
     0
  9
$DIMBLK1
  1

  9
$DIMBLK2
  1

  9
$DIMSTYLE
  2
STANDARD
  9
$DIMCLRD
 70
     0
  9
$DIMCLRE
 70
     0
  9
$DIMCLRT
 70
     0
  9
$DIMTFAC
 40
1.0
  9
$DIMGAP
 40
0.09
  9
$LUNITS
 70
     2
  9
$LUPREC
 70
     4
  9
$SKETCHINC
 40
0.1
  9
$FILLETRAD
 40
0.75
  9
$AUNITS
 70
     0
  9
$AUPREC
 70
     4
  9
$MENU
  1
E:\r13\win\SUPPORT\ACAD
  9
$ELEVATION
 40
0.0
  9
$PELEVATION
 40
0.0
  9
$THICKNESS
 40
0.0
  9
$LIMCHECK
 70
     0
  9
$BLIPMODE
 70
     0
  9
$CHAMFERA
 40
0.0
  9
$CHAMFERB
 40
0.0
  9
$SKPOLY
 70
     0
  9
$TDCREATE
 40
2449840.6534490739
  9
$TDUPDATE
 40
2456597.5614658101
  9
$TDINDWG
 40
0.0228382292
  9
$TDUSRTIMER
 40
0.0228382292
  9
$USRTIMER
 70
     1
  9
$ANGBASE
 50
0.0
  9
$ANGDIR
 70
     0
  9
$PDMODE
 70
    35
  9
$PDSIZE
 40
0.0
  9
$PLINEWID
 40
0.0
  9
$COORDS
 70
     1
  9
$SPLFRAME
 70
     0
  9
$SPLINETYPE
 70
     6
  9
$SPLINESEGS
 70
     8
  9
$ATTDIA
 70
     0
  9
$ATTREQ
 70
     1
  9
$HANDLING
 70
     1
  9
$HANDSEED
  5
A41
  9
$SURFTAB1
 70
     6
  9
$SURFTAB2
 70
     6
  9
$SURFTYPE
 70
     6
  9
$SURFU
 70
     6
  9
$SURFV
 70
     6
  9
$UCSNAME
  2

  9
$UCSORG
 10
0.0
 20
0.0
 30
0.0
  9
$UCSXDIR
 10
1.0
 20
0.0
 30
0.0
  9
$UCSYDIR
 10
0.0
 20
1.0
 30
0.0
  9
$PUCSNAME
  2

  9
$PUCSORG
 10
0.0
 20
0.0
 30
0.0
  9
$PUCSXDIR
 10
1.0
 20
0.0
 30
0.0
  9
$PUCSYDIR
 10
0.0
 20
1.0
 30
0.0
  9
$USERI1
 70
     0
  9
$USERI2
 70
     1
  9
$USERI3
 70
     1
  9
$USERI4
 70
     0
  9
$USERI5
 70
     0
  9
$USERR1
 40
0.0
  9
$USERR2
 40
0.0
  9
$USERR3
 40
0.0
  9
$USERR4
 40
0.0
  9
$USERR5
 40
0.0
  9
$WORLDVIEW
 70
     1
  9
$SHADEDGE
 70
     3
  9
$SHADEDIF
 70
    70
  9
$TILEMODE
 70
     1
  9
$MAXACTVP
 70
    16
  9
$PLIMCHECK
 70
     0
  9
$PEXTMIN
 10
1.0000000000000000E+020
 20
1.0000000000000000E+020
 30
1.0000000000000000E+020
  9
$PEXTMAX
 10
-1.0000000000000000E+020
 20
-1.0000000000000000E+020
 30
-1.0000000000000000E+020
  9
$PLIMMIN
 10
0.0
 20
0.0
  9
$PLIMMAX
 10
12.0
 20
9.0
  9
$UNITMODE
 70
     0
  9
$VISRETAIN
 70
     0
  9
$PLINEGEN
 70
     0
  9
$PSLTSCALE
 70
     0
  0
ENDSEC
  0
SECTION
  2
TABLES
  0
TABLE
  2
VPORT
 70
     1
  0
VPORT
  2
*ACTIVE
 70
     0
 10
0.0
 20
0.0
 11
1.0
 21
1.0
 12
187.49427839065231
 22
162.8616388594717
 13
0.0
 23
0.0
 14
10.0
 24
10.0
 15
10.0
 25
10.0
 16
0.0
 26
0.0
 36
1.0
 17
0.0
 27
0.0
 37
0.0
 40
334.81001162774987
 41
1.9089595375722539
 42
50.0
 43
0.0
 44
0.0
 50
0.0
 51
0.0
 71
     0
 72
   500
 73
     1
 74
     0
 75
     0
 76
     0
 77
     0
 78
     2
  0
ENDTAB
  0
TABLE
  2
LTYPE
 70
     5
  0
LTYPE
  2
CONTINUOUS
 70
     0
  3
Solid Line
 72
    65
 73
     0
 40
0.0
  0
LTYPE
  2
CENTER
 70
     0
  3
____ _ ____ _ ____ _ ____ _ ____ _ ____ _ ____
 72
    65
 73
     4
 40
2.0
 49
1.25
 49
-0.25
 49
0.25
 49
-0.25
  0
LTYPE
  2
EAITSTRICH
 70
     0
  3
 - - - - -
 72
    65
 73
     2
 40
1.5
 49
1.1999999999999991
 49
-0.3
  0
LTYPE
  2
EAITSTRICHPUNKT
 70
     0
  3
__ . __ . __
 72
    65
 73
     4
 40
3.5999999999999992
 49
2.399999999999999
 49
-0.6
 49
0.0
 49
-0.6
  0
LTYPE
  2
PHANTOM2
 70
     0
  3
___ _ _ ___ _ _ ___ _ _ ___ _ _
 72
    65
 73
     6
 40
1.25
 49
0.625
 49
-0.125
 49
0.125
 49
-0.125
 49
0.125
 49
-0.125
  0
ENDTAB
  0
TABLE
  2
LAYER
 70
     6
  0
LAYER
  2
0
 70
     0
 62
     7
  6
CONTINUOUS
  0
LAYER
  2
1
 70
     0
 62
     1
  6
CENTER
  0
LAYER
  2
3
 70
     0
 62
     3
  6
CONTINUOUS
  0
LAYER
  2
ITEM_HILFE
 70
     0
 62
     3
  6
CONTINUOUS
  0
LAYER
  2
10
 70
     0
 62
     7
  6
CONTINUOUS
  0
LAYER
  2
ITEM_25
 70
     0
 62
     3
  6
CONTINUOUS
  0
ENDTAB
  0
TABLE
  2
STYLE
 70
     3
  0
STYLE
  2
STANDARD
 70
     0
 40
0.0
 41
1.0
 50
0.0
 71
     0
 42
4.000000000000048
  3
TXT
  4
BIGFONT
  0
STYLE
  2
EAITTSTIL
 70
     0
 40
0.0
 41
0.8
 50
0.0
 71
     0
 42
2.0
  3
SIMPLEX.SHX
  4

  0
STYLE
  2
STANDARD1
 70
     0
 40
0.0
 41
1.0
 50
0.0
 71
     0
 42
3.0
  3
txt
  4

  0
ENDTAB
  0
TABLE
  2
VIEW
 70
     1
  0
VIEW
  2
ALL
 70
     0
 40
270.0
 10
220.99159663865549
 20
135.0
 41
0.0
 11
0.0
 21
0.0
 31
1.0
 12
0.0
 22
0.0
 32
0.0
 42
0.0
 43
0.0
 44
0.0
 50
0.0
 71
     0
  0
ENDTAB
  0
TABLE
  2
UCS
 70
     0
  0
ENDTAB
  0
TABLE
  2
APPID
 70
     4
  0
APPID
  2
ACAD
 70
     0
  0
APPID
  2
GENIUS_GENOREF_13
 70
     0
  0
APPID
  2
ACAD_MLEADERVER
 70
     0
  0
APPID
  2
ACAD_NAV_VCDISPLAY
 70
     0
  0
ENDTAB
  0
TABLE
  2
DIMSTYLE
 70
     1
  0
DIMSTYLE
  2
STANDARD
 70
     0
  3

  4

  5

  6

  7

 40
1.0
 41
0.18
 42
0.0625
 43
0.38
 44
0.18
 45
0.0
 46
0.0
 47
0.0
 48
0.0
140
0.18
141
0.09
142
0.0
143
25.399999999999999
144
1.0
145
0.0
146
1.0
147
0.09
 71
     0
 72
     0
 73
     1
 74
     1
 75
     0
 76
     0
 77
     0
 78
     0
170
     0
171
     2
172
     0
173
     0
174
     0
175
     0
176
     0
177
     0
178
     0
  0
ENDTAB
  0
ENDSEC
  0
SECTION
  2
BLOCKS
  0
BLOCK
  8
0
  2
$MODEL_SPACE
 70
     0
 10
0.0
 20
0.0
 30
0.0
  3
$MODEL_SPACE
  1

  0
ENDBLK
  5
171
  8
0
  0
BLOCK
 67
     1
  8
0
  2
$PAPER_SPACE
 70
     0
 10
0.0
 20
0.0
 30
0.0
  3
$PAPER_SPACE
  1

  0
ENDBLK
  5
16F
 67
     1
  8
0
  0
BLOCK
  8
0
  2
EAITMERK
 70
     2
 10
0.0
 20
0.0
 30
0.0
  3
EAITMERK
  1

  0
ATTDEF
  5
182
  8
ITEM_HILFE
 10
0.8310912943111077
 20
-26.762904636920432
 30
0.0
 40
2.0
  1

 41
0.8
  7
EAITTSTIL
  3
nicht mehr benutzt
  2
EAITHAUPTMENUE
 70
     1
  0
ATTDEF
  5
183
  8
ITEM_HILFE
 10
0.8310912943111077
 20
-23.762904636920432
 30
0.0
 40
2.0
  1
1
 41
0.8
  7
EAITTSTIL
  3
Massstabfaktor
  2
EAITMASSTABSFAKTOR
 70
     1
  0
ATTDEF
  5
184
  8
ITEM_HILFE
 10
0.8310912943111077
 20
-20.762904636920432
 30
0.0
 40
2.0
  1
0
 41
0.8
  7
EAITTSTIL
  3
Letzte Position
  2
EAITLETZTE-POSITION
 70
     1
  0
ATTDEF
  5
185
  8
ITEM_HILFE
 10
0.8310912943111077
 20
-17.762904636920432
 30
0.0
 40
2.0
  1
0
 41
0.8
  7
EAITTSTIL
  3
Bem. Nachkomma
  2
EAITBEM_NACHKOMMA
 70
     1
  0
ATTDEF
  5
186
  8
ITEM_HILFE
 10
0.8310912943111077
 20
-14.76290463692043
 30
0.0
 40
2.0
  1
0
 41
0.8
  7
EAITTSTIL
  3
Pos. neu sort. 0/1
  2
EAITPOSORT
 70
     1
  0
ATTDEF
  5
187
  8
ITEM_HILFE
 10
0.8310912943111077
 20
-11.76290463692043
 30
0.0
 40
2.0
  1
0
 41
0.8
  7
EAITTSTIL
  3
ML3-Stueckliste 0/1
  2
EAITML3
 70
     1
  0
ATTDEF
  5
188
  8
ITEM_HILFE
 10
0.8310912943111077
 20
-8.7629046369204335
 30
0.0
 40
2.0
  1

 41
0.8
  7
EAITTSTIL
  3
Merker-7
  2
EAITMERKER-7
 70
     1
  0
ATTDEF
  5
189
  8
ITEM_HILFE
 10
0.8310912943111077
 20
-5.7629046369204318
 30
0.0
 40
2.0
  1

 41
0.8
  7
EAITTSTIL
  3
Merker-8
  2
EAITMERKER-8
 70
     1
  0
ATTDEF
  5
18A
  8
ITEM_HILFE
 10
0.8310912943111077
 20
-2.7629046369204331
 30
0.0
 40
2.0
  1

 41
0.8
  7
EAITTSTIL
  3
Merker-9
  2
EAITMERKER-9
 70
     1
  0
ENDBLK
  5
18C
  8
0
  0
ENDSEC
  0
SECTION
  2
ENTITIES
  0
INSERT
  5
23F
  8
0
 66
     1
  2
EAITMERK
 10
399.21696054140648
 20
7.0456671178270653
 30
0.0
  0
ATTRIB
  5
240
  8
ITEM_HILFE
 10
400.04805183571762
 20
-19.717237519093359
 30
0.0
 40
2.0
  1

 41
0.8
  7
EAITTSTIL
  2
EAITHAUPTMENUE
 70
     1
  0
ATTRIB
  5
241
  8
ITEM_HILFE
 10
400.04805183571762
 20
-16.717237519093359
 30
0.0
 40
2.0
  1
1
 41
0.8
  7
EAITTSTIL
  2
EAITMASSTABSFAKTOR
 70
     1
  0
ATTRIB
  5
242
  8
ITEM_HILFE
 10
400.04805183571762
 20
-13.71723751909337
 30
0.0
 40
2.0
  1
0
 41
0.8
  7
EAITTSTIL
  2
EAITLETZTE-POSITION
 70
     1
  0
ATTRIB
  5
243
  8
ITEM_HILFE
 10
400.04805183571762
 20
-10.717237519093359
 30
0.0
 40
2.0
  1
0
 41
0.8
  7
EAITTSTIL
  2
EAITBEM_NACHKOMMA
 70
     1
  0
ATTRIB
  5
244
  8
ITEM_HILFE
 10
400.04805183571762
 20
-7.7172375190933638
 30
0.0
 40
2.0
  1
0
 41
0.8
  7
EAITTSTIL
  2
EAITPOSORT
 70
     1
  0
ATTRIB
  5
245
  8
ITEM_HILFE
 10
400.04805183571762
 20
-4.7172375190933638
 30
0.0
 40
2.0
  1
0
 41
0.8
  7
EAITTSTIL
  2
EAITML3
 70
     1
  0
ATTRIB
  5
246
  8
ITEM_HILFE
 10
400.04805183571762
 20
-1.717237519093368
 30
0.0
 40
2.0
  1

 41
0.8
  7
EAITTSTIL
  2
EAITMERKER-7
 70
     1
  0
ATTRIB
  5
247
  8
ITEM_HILFE
 10
400.04805183571762
 20
1.282762480906632
 30
0.0
 40
2.0
  1

 41
0.8
  7
EAITTSTIL
  2
EAITMERKER-8
 70
     1
  0
ATTRIB
  5
248
  8
ITEM_HILFE
 10
400.04805183571762
 20
4.2827624809066309
 30
0.0
 40
2.0
  1

 41
0.8
  7
EAITTSTIL
  2
EAITMERKER-9
 70
     1
  0
SEQEND
  5
249
  8
0
  0
LINE
  5
24A
  8
1
 10
180.67309384979831
 20
116.61250053609911
 30
0.0
 11
180.67309384979831
 21
152.46880805648891
 31
0.0
  0
LINE
  5
24B
  8
1
 10
160.67309240522641
 20
136.61212111265431
 30
0.0
 11
196.073486122389
 21
136.61212111265431
 31
0.0
  0
LINE
  5
24D
  8
0
 10
165.67309384979831
 20
89.89229888252143
 30
0.0
 11
195.67309384979831
 21
89.89229888252143
 31
0.0
  0
LINE
  5
253
  8
0
 10
229.29109375292359
 20
121.6125005360993
 30
0.0
 11
229.29109375292359
 21
151.6125005360993
 31
0.0
  0
CIRCLE
  5
257
  8
0
 10
180.6727129817811
 20
136.61212111265411
 30
0.0
 40
2.5
  0
LINE
  5
263
  8
1
 10
163.01605097049239
 20
118.95545765679159
 30
0.0
 11
188.60124760998821
 21
144.5406542963041
 31
0.0
  0
LINE
  5
276
  8
0
 10
177.57271298178119
 20
123.8121211126527
 30
0.0
 11
177.57271298178119
 21
122.61250127339621
 31
0.0
  0
ARC
  5
277
  8
0
 10
176.57271298178119
 20
122.61250127339621
 30
0.0
 40
1.0
 50
269.99999484829038
 51
0.0
  0
LINE
  5
278
  8
0
 10
176.57271289186701
 20
121.6125012733963
 30
0.0
 11
168.7066102353146
 21
121.6125019806713
 31
0.0
  0
ARC
  5
279
  8
0
 10
168.6729044976978
 20
124.61231262857081
 30
0.0
 40
2.9999999999999409
 50
179.35625428582341
 51
270.64374571417551
  0
LINE
  5
27A
  8
0
 10
165.67309384979831
 20
124.6460183661877
 30
0.0
 11
165.67309314252341
 21
132.51212102273971
 31
0.0
  0
ARC
  5
27B
  8
0
 10
166.67309314252341
 20
132.512121112654
 30
0.0
 40
1.0000000000000031
 50
90.0
 51
180.000005151708
  0
LINE
  5
27C
  8
0
 10
166.67309314252341
 20
133.512121112654
 30
0.0
 11
167.87271298177981
 21
133.512121112654
 31
0.0
  0
ARC
  5
27D
  8
0
 10
167.87271298176529
 20
132.71212111267101
 30
0.0
 40
0.7999999999830436
 50
359.99999999895579
 51
89.999999998954536
  0
LINE
  5
27E
  8
0
 10
168.6727129817483
 20
132.7121211126564
 30
0.0
 11
168.67271298174819
 21
131.3121211126564
 31
0.0
  0
ARC
  5
27F
  8
0
 10
168.37271298174821
 20
131.3121211126564
 30
0.0
 40
0.2999999999999261
 50
270.00000000000648
 51
0.0000000000054451
  0
LINE
  5
280
  8
0
 10
168.37271298174821
 20
131.0121211126565
 30
0.0
 11
167.47271298174809
 21
131.01212111265639
 31
0.0
  0
ARC
  5
281
  8
0
 10
167.47271298174809
 20
130.7121211126564
 30
0.0
 40
0.2999999999999829
 50
90.000000000006509
 51
180.0000000000054
  0
LINE
  5
282
  8
0
 10
167.17271298174819
 20
130.7121211126564
 30
0.0
 11
167.17271298174799
 21
129.46212111262921
 31
0.0
  0
ARC
  5
283
  8
0
 10
168.17271298174799
 20
129.46212111262921
 30
0.0
 40
1.000000000000028
 50
179.99999999999841
 51
269.99999999999682
  0
LINE
  5
284
  8
0
 10
168.17271298174799
 20
128.46212111262909
 30
0.0
 11
169.86585873223379
 21
128.46212111262901
 31
0.0
  0
ARC
  5
285
  8
0
 10
169.86585873223399
 20
131.46212111262901
 30
0.0
 40
3.000000000000028
 50
269.99999999999682
 51
314.99999999999591
  0
LINE
  5
286
  8
0
 10
171.98717907579359
 20
129.3408007690692
 30
0.0
 11
174.54403332530779
 21
131.89765501858329
 31
0.0
  0
ARC
  5
287
  8
0
 10
172.42271298174819
 20
134.0189753621429
 30
0.0
 40
2.9999999999999432
 50
315.00000000000023
 51
359.99999999999841
  0
LINE
  5
288
  8
0
 10
175.42271298174819
 20
134.01897536214281
 30
0.0
 11
175.4227129817485
 21
139.2052668631658
 31
0.0
  0
ARC
  5
289
  8
0
 10
172.42271298174859
 20
139.20526686316609
 30
0.0
 40
2.9999999999999138
 50
359.99999999999352
 51
44.99999999999438
  0
LINE
  5
28A
  8
0
 10
174.54403332530839
 20
141.32658720672541
 30
0.0
 11
171.9871790757943
 21
143.88344145623969
 31
0.0
  0
ARC
  5
28B
  8
0
 10
169.8658587322345
 20
141.76212111268029
 30
0.0
 40
2.9999999999998632
 50
44.999999999995943
 51
89.999999999996746
  0
LINE
  5
28C
  8
0
 10
169.8658587322347
 20
144.76212111268009
 30
0.0
 11
168.1727129817487
 21
144.76212111268021
 31
0.0
  0
ARC
  5
28D
  8
0
 10
168.17271298174879
 20
143.76212111268029
 30
0.0
 40
0.9999999999999715
 50
90.0
 51
180.00000000000159
  0
LINE
  5
28E
  8
0
 10
167.17271298174879
 20
143.76212111268029
 30
0.0
 11
167.17271298174859
 21
142.51212111265301
 31
0.0
  0
ARC
  5
28F
  8
0
 10
167.47271298174871
 20
142.51212111265301
 30
0.0
 40
0.3000000000000966
 50
180.0
 51
270.00000000000648
  0
LINE
  5
290
  8
0
 10
167.47271298174871
 20
142.21212111265291
 30
0.0
 11
168.37271298174861
 21
142.21212111265299
 31
0.0
  0
ARC
  5
291
  8
0
 10
168.37271298174869
 20
141.9121211126529
 30
0.0
 40
0.3000000000000966
 50
0.0000000000162844
 51
90.000000000016286
  0
LINE
  5
292
  8
0
 10
168.6727129817487
 20
141.9121211126529
 30
0.0
 11
168.6727129817798
 21
140.51212111265389
 31
0.0
  0
ARC
  5
293
  8
0
 10
167.87271298177981
 20
140.51212111265389
 30
0.0
 40
0.799999999999983
 50
269.99999999999682
 51
359.99999999999801
  0
LINE
  5
294
  8
0
 10
167.87271298177981
 20
139.7121211126539
 30
0.0
 11
166.67309240522641
 21
139.7121211126539
 31
0.0
  0
ARC
  5
295
  8
0
 10
166.67309240522641
 20
140.7121211126539
 30
0.0
 40
1.0
 50
180.000005151708
 51
270.0
  0
LINE
  5
296
  8
0
 10
165.67309240522641
 20
140.71212102273961
 30
0.0
 11
165.67309169793421
 21
148.5784153750372
 31
0.0
  0
ARC
  5
297
  8
0
 10
168.67290234583379
 20
148.61212111265399
 30
0.0
 40
2.9999999999999689
 50
90.0
 51
180.64374571417551
  0
LINE
  5
298
  8
0
 10
168.67290234583379
 20
151.61212111265399
 30
0.0
 11
173.21607229464729
 21
151.61212111265411
 31
0.0
  0
ARC
  5
299
  8
0
 10
173.2160722946472
 20
148.61212111265411
 30
0.0
 40
2.9999999999999711
 50
45.000000000014168
 51
89.999999999996746
  0
LINE
  5
29A
  8
0
 10
175.3373926382063
 20
150.73344145621431
 30
0.0
 11
194.7940333253452
 21
131.276800769088
 31
0.0
  0
ARC
  5
29B
  8
0
 10
192.67271298178611
 20
129.15548042552791
 30
0.0
 40
2.9999999999999432
 50
0.0000000000336375
 51
45.00000000001436
  0
LINE
  5
29C
  8
0
 10
195.67271298178611
 20
129.15548042552959
 30
0.0
 11
195.67271298178909
 21
124.6123104767083
 31
0.0
  0
ARC
  5
29D
  8
0
 10
192.67271298178909
 20
124.6123104767064
 30
0.0
 40
3.0
 50
269.35625428582449
 51
0.0000000000368944
  0
LINE
  5
29E
  8
0
 10
192.63900724417221
 20
121.6124998288068
 30
0.0
 11
184.772712891867
 21
121.61250053609911
 31
0.0
  0
ARC
  5
29F
  8
0
 10
184.7727129817813
 20
122.61250053609911
 30
0.0
 40
1.0000000000000031
 50
180.0
 51
269.99999484829038
  0
LINE
  5
2A0
  8
0
 10
183.7727129817813
 20
122.61250053609911
 30
0.0
 11
183.7727129817813
 21
123.8121211126527
 31
0.0
  0
ARC
  5
2A1
  8
0
 10
184.57271298178119
 20
123.8121211126527
 30
0.0
 40
0.799999999999983
 50
90.000000000003254
 51
180.00000000000199
  0
LINE
  5
2A2
  8
0
 10
184.57271298178119
 20
124.6121211126527
 30
0.0
 11
185.9727129817779
 21
124.6121211126196
 31
0.0
  0
ARC
  5
2A3
  8
0
 10
185.9727129817779
 20
124.31212111261949
 30
0.0
 40
0.3000000000000398
 50
359.99999999999449
 51
89.999999999993491
  0
LINE
  5
2A4
  8
0
 10
186.27271298177789
 20
124.31212111261949
 30
0.0
 11
186.27271298177789
 21
123.4121211126195
 31
0.0
  0
ARC
  5
2A5
  8
0
 10
186.57271298177781
 20
123.4121211126195
 30
0.0
 40
0.3000000000000114
 50
180.0000000000054
 51
270.00000000000978
  0
LINE
  5
2A6
  8
0
 10
186.5727129817779
 20
123.1121211126195
 30
0.0
 11
187.82271298180521
 21
123.1121211126195
 31
0.0
  0
ARC
  5
2A7
  8
0
 10
187.82271298180521
 20
124.1121211126196
 30
0.0
 40
1.0
 50
270.0
 51
0.0
  0
LINE
  5
2A8
  8
0
 10
188.82271298180521
 20
124.1121211126196
 30
0.0
 11
188.82271298180521
 21
125.8052668631054
 31
0.0
  0
ARC
  5
2A9
  8
0
 10
185.82271298180521
 20
125.8052668631055
 30
0.0
 40
2.9999999999999711
 50
359.99999999999937
 51
44.999999999999559
  0
LINE
  5
2AA
  8
0
 10
187.9440333253649
 20
127.9265872066651
 30
0.0
 11
185.38717907585081
 21
130.48344145617921
 31
0.0
  0
ARC
  5
2AB
  8
0
 10
183.26585873229109
 20
128.3621211126196
 30
0.0
 40
2.999999999999984
 50
44.99999999999978
 51
90.0
  0
LINE
  5
2AC
  8
0
 10
183.26585873229109
 20
131.3621211126196
 30
0.0
 11
178.0795672312681
 21
131.36212111261929
 31
0.0
  0
ARC
  5
2AD
  8
0
 10
178.0795672312679
 20
128.36212111261941
 30
0.0
 40
2.9999999999999138
 50
89.999999999996746
 51
134.9999999999952
  0
LINE
  5
2AE
  8
0
 10
175.95824688770861
 20
130.48344145617921
 30
0.0
 11
173.40139263819441
 21
127.926587206665
 31
0.0
  0
ARC
  5
2AF
  8
0
 10
175.52271298175401
 20
125.8052668631054
 30
0.0
 40
2.9999999999999032
 50
135.0000000000002
 51
180.0
  0
LINE
  5
2B0
  8
0
 10
172.5227129817541
 20
125.8052668631054
 30
0.0
 11
172.5227129817541
 21
124.1121211126196
 31
0.0
  0
ARC
  5
2B1
  8
0
 10
173.5227129817541
 20
124.1121211126196
 30
0.0
 40
1.0
 50
180.0
 51
270.0
  0
LINE
  5
2B2
  8
0
 10
173.5227129817541
 20
123.1121211126195
 30
0.0
 11
174.77271298178141
 21
123.1121211126195
 31
0.0
  0
ARC
  5
2B3
  8
0
 10
174.77271298178141
 20
123.4121211126195
 30
0.0
 40
0.2999999999999829
 50
269.99999999999352
 51
359.99999999999449
  0
LINE
  5
2B4
  8
0
 10
175.07271298178151
 20
123.4121211126195
 30
0.0
 11
175.07271298178151
 21
124.31212111261949
 31
0.0
  0
ARC
  5
2B5
  8
0
 10
175.3727129817814
 20
124.31212111261949
 30
0.0
 40
0.2999999999999829
 50
90.000000000006509
 51
180.0000000000054
  0
LINE
  5
2B6
  8
0
 10
175.3727129817814
 20
124.6121211126195
 30
0.0
 11
176.77271298178141
 21
124.6121211126196
 31
0.0
  0
ARC
  5
2B7
  8
0
 10
176.77271298179789
 20
123.81212111263621
 30
0.0
 40
0.7999999999833563
 50
0.0000000011806219
 51
90.000000001178975
  0
ARC
  5
2B8
  8
0
 10
188.92271298174839
 20
134.00355066027441
 30
0.0
 40
3.0000000000000551
 50
179.99999999999889
 51
224.9185807213203
  0
LINE
  5
2B9
  8
0
 10
185.92271298174839
 20
134.00355066027441
 30
0.0
 11
185.9227129817487
 21
136.1125872067019
 31
0.0
  0
ARC
  5
2BA
  8
0
 10
186.4227129817487
 20
136.11258720670179
 30
0.0
 40
0.5
 50
45.00000000021511
 51
179.99999999998701
  0
LINE
  5
2BB
  8
0
 10
186.7762663723407
 20
136.4661405972964
 30
0.0
 11
193.9267324664429
 21
129.3156745032486
 31
0.0
  0
ARC
  5
2BC
  8
0
 10
193.5731790758509
 20
128.96212111265399
 30
0.0
 40
0.499999999999984
 50
270.00000000012051
 51
45.00000000021511
  0
LINE
  5
2BD
  8
0
 10
193.57317907585201
 20
128.46212111265399
 30
0.0
 11
191.4569298559131
 21
128.46212111264941
 31
0.0
  0
ARC
  5
2BE
  8
0
 10
191.45692985590659
 20
131.46212111264941
 30
0.0
 40
3.000000000000028
 50
224.9185807213218
 51
270.00000000012369
  0
LINE
  5
2BF
  8
0
 10
189.3325971858263
 20
129.34381737927461
 30
0.0
 11
186.7983803116681
 21
131.88524692689961
 31
0.0
  0
LINE
  5
2C0
  8
0
 10
168.6727129817541
 20
123.1121211126524
 30
0.0
 11
170.722712981754
 21
123.1121211126524
 31
0.0
  0
ARC
  5
2C1
  8
0
 10
170.722712981754
 20
123.4121211126524
 30
0.0
 40
0.3000000000000114
 50
269.99999999999352
 51
359.99999999999449
  0
LINE
  5
2C2
  8
0
 10
171.0227129817541
 20
123.4121211126524
 30
0.0
 11
171.02271298175421
 21
126.6621211126477
 31
0.0
  0
ARC
  5
2C3
  8
0
 10
170.72271298175411
 20
126.6621211126477
 30
0.0
 40
0.3000000000000114
 50
0.0
 51
89.999999999869729
  0
LINE
  5
2C4
  8
0
 10
170.7227129817548
 20
126.96212111264769
 30
0.0
 11
167.47271298175471
 21
126.9621211126551
 31
0.0
  0
ARC
  5
2C5
  8
0
 10
167.472712981754
 20
126.6621211126551
 30
0.0
 40
0.2999999999999261
 50
89.999999999876238
 51
180.0000000000054
  0
LINE
  5
2C6
  8
0
 10
167.1727129817541
 20
126.6621211126551
 30
0.0
 11
167.1727129817541
 21
124.6121211126524
 31
0.0
  0
ARC
  5
2C7
  8
0
 10
168.6727129817541
 20
124.6121211126524
 30
0.0
 40
1.500000000000028
 50
180.00000000000111
 51
270.0
  0
ARC
  5
2C8
  8
0
 10
192.6727129817892
 20
124.6121211126523
 30
0.0
 40
1.5
 50
270.0
 51
0.0
  0
LINE
  5
2C9
  8
0
 10
194.1727129817892
 20
124.6121211126523
 30
0.0
 11
194.17271298178909
 21
126.6621211126548
 31
0.0
  0
ARC
  5
2CA
  8
0
 10
193.87271298178911
 20
126.6621211126547
 30
0.0
 40
0.2999999999999829
 50
0.0000000000054451
 51
90.000000000136794
  0
LINE
  5
2CB
  8
0
 10
193.8727129817884
 20
126.9621211126547
 30
0.0
 11
190.6227129818044
 21
126.96212111264769
 31
0.0
  0
ARC
  5
2CC
  8
0
 10
190.62271298180511
 20
126.6621211126476
 30
0.0
 40
0.3000000000000966
 50
90.000000000123748
 51
179.99999999999449
  0
LINE
  5
2CD
  8
0
 10
190.3227129818049
 20
126.6621211126476
 30
0.0
 11
190.32271298180501
 21
123.4121211126522
 31
0.0
  0
ARC
  5
2CE
  8
0
 10
190.62271298180511
 20
123.4121211126523
 30
0.0
 40
0.3000000000000398
 50
180.0000000000054
 51
270.00000000000648
  0
LINE
  5
2CF
  8
0
 10
190.62271298180511
 20
123.1121211126523
 30
0.0
 11
192.6727129817892
 21
123.1121211126523
 31
0.0
  0
LINE
  5
2D0
  8
0
 10
178.06414252940141
 20
141.86212111262131
 30
0.0
 11
180.1731790758291
 21
141.86212111262159
 31
0.0
  0
ARC
  5
2D1
  8
0
 10
180.17317907582901
 20
142.36212111262159
 30
0.0
 40
0.5000000000000285
 50
270.00000000000978
 51
44.999999999786759
  0
LINE
  5
2D2
  8
0
 10
180.5267324664236
 20
142.71567450321359
 30
0.0
 11
173.3762663723756
 21
149.8661405973159
 31
0.0
  0
ARC
  5
2D3
  8
0
 10
173.02271298178101
 20
149.51258720672391
 30
0.0
 40
0.499999999999984
 50
44.999999999786759
 51
179.9999999998762
  0
LINE
  5
2D4
  8
0
 10
172.5227129817811
 20
149.51258720672499
 30
0.0
 11
172.52271298177641
 21
147.39633798678599
 31
0.0
  0
ARC
  5
2D5
  8
0
 10
175.52271298177649
 20
147.39633798677951
 30
0.0
 40
3.0000000000000848
 50
179.99999999987671
 51
225.08141927867879
  0
LINE
  5
2D6
  8
0
 10
173.40440924840161
 20
145.27200531669919
 30
0.0
 11
175.94583879602669
 21
142.73778844254079
 31
0.0
  0
ARC
  5
2D7
  8
0
 10
178.06414252940129
 20
144.86212111262131
 30
0.0
 40
3.0000000000000151
 50
225.08141927868331
 51
270.0000000000033
  0
ARC
  5
2D8
  8
0
 10
167.4727129817793
 20
146.5621211126778
 30
0.0
 40
0.2999999999999545
 50
179.99999999999449
 51
269.99999999999352
  0
LINE
  5
2D9
  8
0
 10
167.17271298177931
 20
146.5621211126778
 30
0.0
 11
167.17271298177931
 21
148.61212111266209
 31
0.0
  0
ARC
  5
2DA
  8
0
 10
168.67271298177931
 20
148.61212111266209
 30
0.0
 40
1.5
 50
90.0
 51
180.0
  0
LINE
  5
2DB
  8
0
 10
168.67271298177931
 20
150.11212111266209
 30
0.0
 11
170.7227129817818
 21
150.11212111266201
 31
0.0
  0
ARC
  5
2DC
  8
0
 10
170.7227129817818
 20
149.812121112662
 30
0.0
 40
0.2999999999999829
 50
359.99999999988057
 51
90.000000000006509
  0
LINE
  5
2DD
  8
0
 10
171.02271298178169
 20
149.8121211126614
 30
0.0
 11
171.0227129817747
 21
146.5621211126772
 31
0.0
  0
ARC
  5
2DE
  8
0
 10
170.72271298177461
 20
146.56212111267789
 30
0.0
 40
0.3000000000000682
 50
270.0
 51
359.99999999987517
  0
LINE
  5
2DF
  8
0
 10
170.72271298177461
 20
146.26212111267779
 30
0.0
 11
167.4727129817793
 21
146.26212111267779
 31
0.0
  0
LINE
  5
2F5
  8
0
 10
165.67310124370539
 20
183.3319433427871
 30
0.0
 11
195.67310124370539
 21
183.3319433427871
 31
0.0
  0
LINE
  5
308
  8
0
 10
132.05509394667291
 20
121.6125005360993
 30
0.0
 11
132.05509394667291
 21
151.6125005360993
 31
0.0
  0
INSERT
  5
414
  8
0
 66
     1
  2
EAITMERK
 10
268.81101757765822
 20
-33.565342147907131
 30
0.0
  0
ATTRIB
  5
415
  8
ITEM_HILFE
 10
269.6421088719693
 20
-60.328246784827549
 30
0.0
 40
2.0
  1

 41
0.8
  7
EAITTSTIL
  2
EAITHAUPTMENUE
 70
     1
  0
ATTRIB
  5
416
  8
ITEM_HILFE
 10
269.6421088719693
 20
-57.328246784827563
 30
0.0
 40
2.0
  1
1
 41
0.8
  7
EAITTSTIL
  2
EAITMASSTABSFAKTOR
 70
     1
  0
ATTRIB
  5
417
  8
ITEM_HILFE
 10
269.6421088719693
 20
-54.328246784827563
 30
0.0
 40
2.0
  1
0
 41
0.8
  7
EAITTSTIL
  2
EAITLETZTE-POSITION
 70
     1
  0
ATTRIB
  5
418
  8
ITEM_HILFE
 10
269.6421088719693
 20
-51.328246784827563
 30
0.0
 40
2.0
  1
0
 41
0.8
  7
EAITTSTIL
  2
EAITBEM_NACHKOMMA
 70
     1
  0
ATTRIB
  5
419
  8
ITEM_HILFE
 10
269.6421088719693
 20
-48.328246784827563
 30
0.0
 40
2.0
  1
0
 41
0.8
  7
EAITTSTIL
  2
EAITPOSORT
 70
     1
  0
ATTRIB
  5
41A
  8
ITEM_HILFE
 10
269.6421088719693
 20
-45.328246784827563
 30
0.0
 40
2.0
  1
0
 41
0.8
  7
EAITTSTIL
  2
EAITML3
 70
     1
  0
ATTRIB
  5
41B
  8
ITEM_HILFE
 10
269.6421088719693
 20
-42.328246784827563
 30
0.0
 40
2.0
  1

 41
0.8
  7
EAITTSTIL
  2
EAITMERKER-7
 70
     1
  0
ATTRIB
  5
41C
  8
ITEM_HILFE
 10
269.6421088719693
 20
-39.328246784827563
 30
0.0
 40
2.0
  1

 41
0.8
  7
EAITTSTIL
  2
EAITMERKER-8
 70
     1
  0
ATTRIB
  5
41D
  8
ITEM_HILFE
 10
269.6421088719693
 20
-36.328246784827563
 30
0.0
 40
2.0
  1

 41
0.8
  7
EAITTSTIL
  2
EAITMERKER-9
 70
     1
  0
SEQEND
  5
41E
  8
0
  0
LINE
  5
421
  8
0
 10
165.67309384979831
 20
89.89229888252143
 30
0.0
 11
165.67309384979831
 21
29.89229888252143
 31
0.0
  0
LINE
  5
423
  8
0
 10
165.67309384979831
 20
29.89229888252143
 30
0.0
 11
195.67309384979831
 21
29.89229888252143
 31
0.0
  0
LINE
  5
424
  8
0
 10
177.67309384979831
 20
89.89229888252143
 30
0.0
 11
177.67309384979831
 21
29.89229888252143
 31
0.0
  0
LINE
  5
425
  8
0
 10
183.67309384979831
 20
89.89229888252143
 30
0.0
 11
183.67309384979831
 21
29.89229888252143
 31
0.0
  0
LINE
  5
426
  8
0
 10
195.67309384979831
 20
89.89229888252143
 30
0.0
 11
195.67309384979831
 21
29.89229888252143
 31
0.0
  0
LINE
  5
427
  8
0
 10
229.29109375292359
 20
121.6125005360993
 30
0.0
 11
289.29109375292359
 21
121.6125005360993
 31
0.0
  0
LINE
  5
429
  8
0
 10
289.29109375292359
 20
121.6125005360993
 30
0.0
 11
289.29109375292359
 21
151.6125005360993
 31
0.0
  0
LINE
  5
42A
  8
0
 10
229.29109375292359
 20
151.6125005360993
 30
0.0
 11
289.29109375292359
 21
151.6125005360993
 31
0.0
  0
LINE
  5
42B
  8
0
 10
229.29109375292359
 20
130.6125005360993
 30
0.0
 11
289.29109375292359
 21
130.6125005360993
 31
0.0
  0
CIRCLE
  5
434
  8
0
 10
180.67309384979831
 20
74.89229888252143
 30
0.0
 40
2.75
  0
LINE
  5
436
  8
1
 10
180.67309384979831
 20
24.89229888252143
 30
0.0
 11
180.67309384979831
 21
94.89229888252143
 31
0.0
  0
LINE
  5
437
  8
1
 10
174.30701755449761
 20
74.89229888252143
 30
0.0
 11
187.3769744225765
 21
74.89229888252143
 31
0.0
  0
CIRCLE
  5
43E
  8
0
 10
274.29109375292359
 20
136.61212111265431
 30
0.0
 40
2.75
  0
CIRCLE
  5
43F
  8
0
 10
274.29109375292359
 20
145.39774024462579
 30
0.0
 40
2.749999999998209
  0
POLYLINE
  5
441
  8
0
 10
233.39109375292358
 20
141.00512039037031
 30
0.0
 66
     1
 70
     8
  0
VERTEX
  8
0
  5
631
 10
233.391
 20
141.005
 30
0.000000
  70
    32
  0
VERTEX
  8
0
  5
632
 10
233.394
 20
140.922
 30
0.000000
  70
    32
  0
VERTEX
  8
0
  5
633
 10
233.403
 20
140.839
 30
0.000000
  70
    32
  0
VERTEX
  8
0
  5
634
 10
233.417
 20
140.756
 30
0.000000
  70
    32
  0
VERTEX
  8
0
  5
635
 10
233.437
 20
140.674
 30
0.000000
  70
    32
  0
VERTEX
  8
0
  5
636
 10
233.463
 20
140.593
 30
0.000000
  70
    32
  0
VERTEX
  8
0
  5
637
 10
233.494
 20
140.512
 30
0.000000
  70
    32
  0
VERTEX
  8
0
  5
638
 10
233.531
 20
140.433
 30
0.000000
  70
    32
  0
VERTEX
  8
0
  5
639
 10
233.574
 20
140.356
 30
0.000000
  70
    32
  0
VERTEX
  8
0
  5
63A
 10
233.622
 20
140.280
 30
0.000000
  70
    32
  0
VERTEX
  8
0
  5
63B
 10
233.674
 20
140.205
 30
0.000000
  70
    32
  0
VERTEX
  8
0
  5
63C
 10
233.733
 20
140.133
 30
0.000000
  70
    32
  0
VERTEX
  8
0
  5
63D
 10
233.796
 20
140.062
 30
0.000000
  70
    32
  0
VERTEX
  8
0
  5
63E
 10
233.863
 20
139.994
 30
0.000000
  70
    32
  0
VERTEX
  8
0
  5
63F
 10
233.936
 20
139.929
 30
0.000000
  70
    32
  0
VERTEX
  8
0
  5
640
 10
234.013
 20
139.865
 30
0.000000
  70
    32
  0
VERTEX
  8
0
  5
641
 10
234.094
 20
139.805
 30
0.000000
  70
    32
  0
VERTEX
  8
0
  5
642
 10
234.179
 20
139.748
 30
0.000000
  70
    32
  0
VERTEX
  8
0
  5
643
 10
234.269
 20
139.693
 30
0.000000
  70
    32
  0
VERTEX
  8
0
  5
644
 10
234.361
 20
139.642
 30
0.000000
  70
    32
  0
VERTEX
  8
0
  5
645
 10
234.458
 20
139.594
 30
0.000000
  70
    32
  0
VERTEX
  8
0
  5
646
 10
234.557
 20
139.550
 30
0.000000
  70
    32
  0
VERTEX
  8
0
  5
647
 10
234.660
 20
139.508
 30
0.000000
  70
    32
  0
VERTEX
  8
0
  5
648
 10
234.765
 20
139.471
 30
0.000000
  70
    32
  0
VERTEX
  8
0
  5
649
 10
234.873
 20
139.437
 30
0.000000
  70
    32
  0
VERTEX
  8
0
  5
64A
 10
234.983
 20
139.407
 30
0.000000
  70
    32
  0
VERTEX
  8
0
  5
64B
 10
235.094
 20
139.381
 30
0.000000
  70
    32
  0
VERTEX
  8
0
  5
64C
 10
235.208
 20
139.359
 30
0.000000
  70
    32
  0
VERTEX
  8
0
  5
64D
 10
235.323
 20
139.341
 30
0.000000
  70
    32
  0
VERTEX
  8
0
  5
64E
 10
235.439
 20
139.326
 30
0.000000
  70
    32
  0
VERTEX
  8
0
  5
64F
 10
235.556
 20
139.316
 30
0.000000
  70
    32
  0
VERTEX
  8
0
  5
650
 10
235.673
 20
139.310
 30
0.000000
  70
    32
  0
VERTEX
  8
0
  5
651
 10
235.791
 20
139.308
 30
0.000000
  70
    32
  0
VERTEX
  8
0
  5
652
 10
235.909
 20
139.310
 30
0.000000
  70
    32
  0
VERTEX
  8
0
  5
653
 10
236.026
 20
139.316
 30
0.000000
  70
    32
  0
VERTEX
  8
0
  5
654
 10
236.143
 20
139.326
 30
0.000000
  70
    32
  0
VERTEX
  8
0
  5
655
 10
236.259
 20
139.341
 30
0.000000
  70
    32
  0
VERTEX
  8
0
  5
656
 10
236.374
 20
139.359
 30
0.000000
  70
    32
  0
VERTEX
  8
0
  5
657
 10
236.488
 20
139.381
 30
0.000000
  70
    32
  0
VERTEX
  8
0
  5
658
 10
236.600
 20
139.407
 30
0.000000
  70
    32
  0
VERTEX
  8
0
  5
659
 10
236.710
 20
139.437
 30
0.000000
  70
    32
  0
VERTEX
  8
0
  5
65A
 10
236.817
 20
139.471
 30
0.000000
  70
    32
  0
VERTEX
  8
0
  5
65B
 10
236.922
 20
139.508
 30
0.000000
  70
    32
  0
VERTEX
  8
0
  5
65C
 10
237.025
 20
139.550
 30
0.000000
  70
    32
  0
VERTEX
  8
0
  5
65D
 10
237.124
 20
139.594
 30
0.000000
  70
    32
  0
VERTEX
  8
0
  5
65E
 10
237.221
 20
139.642
 30
0.000000
  70
    32
  0
VERTEX
  8
0
  5
65F
 10
237.314
 20
139.693
 30
0.000000
  70
    32
  0
VERTEX
  8
0
  5
660
 10
237.403
 20
139.748
 30
0.000000
  70
    32
  0
VERTEX
  8
0
  5
661
 10
237.488
 20
139.805
 30
0.000000
  70
    32
  0
VERTEX
  8
0
  5
662
 10
237.569
 20
139.865
 30
0.000000
  70
    32
  0
VERTEX
  8
0
  5
663
 10
237.646
 20
139.929
 30
0.000000
  70
    32
  0
VERTEX
  8
0
  5
664
 10
237.719
 20
139.994
 30
0.000000
  70
    32
  0
VERTEX
  8
0
  5
665
 10
237.787
 20
140.062
 30
0.000000
  70
    32
  0
VERTEX
  8
0
  5
666
 10
237.850
 20
140.133
 30
0.000000
  70
    32
  0
VERTEX
  8
0
  5
667
 10
237.908
 20
140.205
 30
0.000000
  70
    32
  0
VERTEX
  8
0
  5
668
 10
237.961
 20
140.280
 30
0.000000
  70
    32
  0
VERTEX
  8
0
  5
669
 10
238.008
 20
140.356
 30
0.000000
  70
    32
  0
VERTEX
  8
0
  5
66A
 10
238.051
 20
140.433
 30
0.000000
  70
    32
  0
VERTEX
  8
0
  5
66B
 10
238.088
 20
140.512
 30
0.000000
  70
    32
  0
VERTEX
  8
0
  5
66C
 10
238.119
 20
140.593
 30
0.000000
  70
    32
  0
VERTEX
  8
0
  5
66D
 10
238.145
 20
140.674
 30
0.000000
  70
    32
  0
VERTEX
  8
0
  5
66E
 10
238.165
 20
140.756
 30
0.000000
  70
    32
  0
VERTEX
  8
0
  5
66F
 10
238.180
 20
140.839
 30
0.000000
  70
    32
  0
VERTEX
  8
0
  5
670
 10
238.188
 20
140.922
 30
0.000000
  70
    32
  0
VERTEX
  8
0
  5
671
 10
238.191
 20
141.005
 30
0.000000
  70
    32
  0
VERTEX
  8
0
  5
672
 10
238.188
 20
141.088
 30
0.000000
  70
    32
  0
VERTEX
  8
0
  5
673
 10
238.180
 20
141.171
 30
0.000000
  70
    32
  0
VERTEX
  8
0
  5
674
 10
238.165
 20
141.254
 30
0.000000
  70
    32
  0
VERTEX
  8
0
  5
675
 10
238.145
 20
141.336
 30
0.000000
  70
    32
  0
VERTEX
  8
0
  5
676
 10
238.119
 20
141.417
 30
0.000000
  70
    32
  0
VERTEX
  8
0
  5
677
 10
238.088
 20
141.498
 30
0.000000
  70
    32
  0
VERTEX
  8
0
  5
678
 10
238.051
 20
141.577
 30
0.000000
  70
    32
  0
VERTEX
  8
0
  5
679
 10
238.008
 20
141.655
 30
0.000000
  70
    32
  0
VERTEX
  8
0
  5
67A
 10
237.961
 20
141.731
 30
0.000000
  70
    32
  0
VERTEX
  8
0
  5
67B
 10
237.908
 20
141.805
 30
0.000000
  70
    32
  0
VERTEX
  8
0
  5
67C
 10
237.850
 20
141.878
 30
0.000000
  70
    32
  0
VERTEX
  8
0
  5
67D
 10
237.787
 20
141.948
 30
0.000000
  70
    32
  0
VERTEX
  8
0
  5
67E
 10
237.719
 20
142.016
 30
0.000000
  70
    32
  0
VERTEX
  8
0
  5
67F
 10
237.646
 20
142.082
 30
0.000000
  70
    32
  0
VERTEX
  8
0
  5
680
 10
237.569
 20
142.145
 30
0.000000
  70
    32
  0
VERTEX
  8
0
  5
681
 10
237.488
 20
142.205
 30
0.000000
  70
    32
  0
VERTEX
  8
0
  5
682
 10
237.403
 20
142.263
 30
0.000000
  70
    32
  0
VERTEX
  8
0
  5
683
 10
237.314
 20
142.317
 30
0.000000
  70
    32
  0
VERTEX
  8
0
  5
684
 10
237.221
 20
142.368
 30
0.000000
  70
    32
  0
VERTEX
  8
0
  5
685
 10
237.124
 20
142.416
 30
0.000000
  70
    32
  0
VERTEX
  8
0
  5
686
 10
237.025
 20
142.461
 30
0.000000
  70
    32
  0
VERTEX
  8
0
  5
687
 10
236.922
 20
142.502
 30
0.000000
  70
    32
  0
VERTEX
  8
0
  5
688
 10
236.817
 20
142.539
 30
0.000000
  70
    32
  0
VERTEX
  8
0
  5
689
 10
236.710
 20
142.573
 30
0.000000
  70
    32
  0
VERTEX
  8
0
  5
68A
 10
236.600
 20
142.603
 30
0.000000
  70
    32
  0
VERTEX
  8
0
  5
68B
 10
236.488
 20
142.629
 30
0.000000
  70
    32
  0
VERTEX
  8
0
  5
68C
 10
236.374
 20
142.651
 30
0.000000
  70
    32
  0
VERTEX
  8
0
  5
68D
 10
236.259
 20
142.670
 30
0.000000
  70
    32
  0
VERTEX
  8
0
  5
68E
 10
236.143
 20
142.684
 30
0.000000
  70
    32
  0
VERTEX
  8
0
  5
68F
 10
236.026
 20
142.694
 30
0.000000
  70
    32
  0
VERTEX
  8
0
  5
690
 10
235.909
 20
142.700
 30
0.000000
  70
    32
  0
VERTEX
  8
0
  5
691
 10
235.791
 20
142.702
 30
0.000000
  70
    32
  0
VERTEX
  8
0
  5
692
 10
235.673
 20
142.700
 30
0.000000
  70
    32
  0
VERTEX
  8
0
  5
693
 10
235.556
 20
142.694
 30
0.000000
  70
    32
  0
VERTEX
  8
0
  5
694
 10
235.439
 20
142.684
 30
0.000000
  70
    32
  0
VERTEX
  8
0
  5
695
 10
235.323
 20
142.670
 30
0.000000
  70
    32
  0
VERTEX
  8
0
  5
696
 10
235.208
 20
142.651
 30
0.000000
  70
    32
  0
VERTEX
  8
0
  5
697
 10
235.094
 20
142.629
 30
0.000000
  70
    32
  0
VERTEX
  8
0
  5
698
 10
234.983
 20
142.603
 30
0.000000
  70
    32
  0
VERTEX
  8
0
  5
699
 10
234.873
 20
142.573
 30
0.000000
  70
    32
  0
VERTEX
  8
0
  5
69A
 10
234.765
 20
142.539
 30
0.000000
  70
    32
  0
VERTEX
  8
0
  5
69B
 10
234.660
 20
142.502
 30
0.000000
  70
    32
  0
VERTEX
  8
0
  5
69C
 10
234.557
 20
142.461
 30
0.000000
  70
    32
  0
VERTEX
  8
0
  5
69D
 10
234.458
 20
142.416
 30
0.000000
  70
    32
  0
VERTEX
  8
0
  5
69E
 10
234.361
 20
142.368
 30
0.000000
  70
    32
  0
VERTEX
  8
0
  5
69F
 10
234.269
 20
142.317
 30
0.000000
  70
    32
  0
VERTEX
  8
0
  5
6A0
 10
234.179
 20
142.263
 30
0.000000
  70
    32
  0
VERTEX
  8
0
  5
6A1
 10
234.094
 20
142.205
 30
0.000000
  70
    32
  0
VERTEX
  8
0
  5
6A2
 10
234.013
 20
142.145
 30
0.000000
  70
    32
  0
VERTEX
  8
0
  5
6A3
 10
233.936
 20
142.082
 30
0.000000
  70
    32
  0
VERTEX
  8
0
  5
6A4
 10
233.863
 20
142.016
 30
0.000000
  70
    32
  0
VERTEX
  8
0
  5
6A5
 10
233.796
 20
141.948
 30
0.000000
  70
    32
  0
VERTEX
  8
0
  5
6A6
 10
233.733
 20
141.878
 30
0.000000
  70
    32
  0
VERTEX
  8
0
  5
6A7
 10
233.674
 20
141.805
 30
0.000000
  70
    32
  0
VERTEX
  8
0
  5
6A8
 10
233.622
 20
141.731
 30
0.000000
  70
    32
  0
VERTEX
  8
0
  5
6A9
 10
233.574
 20
141.655
 30
0.000000
  70
    32
  0
VERTEX
  8
0
  5
6AA
 10
233.531
 20
141.577
 30
0.000000
  70
    32
  0
VERTEX
  8
0
  5
6AB
 10
233.494
 20
141.498
 30
0.000000
  70
    32
  0
VERTEX
  8
0
  5
6AC
 10
233.463
 20
141.417
 30
0.000000
  70
    32
  0
VERTEX
  8
0
  5
6AD
 10
233.437
 20
141.336
 30
0.000000
  70
    32
  0
VERTEX
  8
0
  5
6AE
 10
233.417
 20
141.254
 30
0.000000
  70
    32
  0
VERTEX
  8
0
  5
6AF
 10
233.403
 20
141.171
 30
0.000000
  70
    32
  0
VERTEX
  8
0
  5
6B0
 10
233.394
 20
141.088
 30
0.000000
  70
    32
  0
VERTEX
  8
0
  5
6B1
 10
233.391
 20
141.005
 30
0.000000
  70
    32
  0
SEQEND
  8
0
  5
6B2
  0
POLYLINE
  5
443
  8
0
 10
280.39109375292361
 20
141.00512039037031
 30
0.0
 66
     1
 70
     8
  0
VERTEX
  8
0
  5
6B3
 10
280.391
 20
141.005
 30
0.000000
  70
    32
  0
VERTEX
  8
0
  5
6B4
 10
280.394
 20
140.922
 30
0.000000
  70
    32
  0
VERTEX
  8
0
  5
6B5
 10
280.403
 20
140.839
 30
0.000000
  70
    32
  0
VERTEX
  8
0
  5
6B6
 10
280.417
 20
140.756
 30
0.000000
  70
    32
  0
VERTEX
  8
0
  5
6B7
 10
280.437
 20
140.674
 30
0.000000
  70
    32
  0
VERTEX
  8
0
  5
6B8
 10
280.463
 20
140.593
 30
0.000000
  70
    32
  0
VERTEX
  8
0
  5
6B9
 10
280.494
 20
140.512
 30
0.000000
  70
    32
  0
VERTEX
  8
0
  5
6BA
 10
280.531
 20
140.433
 30
0.000000
  70
    32
  0
VERTEX
  8
0
  5
6BB
 10
280.574
 20
140.356
 30
0.000000
  70
    32
  0
VERTEX
  8
0
  5
6BC
 10
280.622
 20
140.280
 30
0.000000
  70
    32
  0
VERTEX
  8
0
  5
6BD
 10
280.674
 20
140.205
 30
0.000000
  70
    32
  0
VERTEX
  8
0
  5
6BE
 10
280.733
 20
140.133
 30
0.000000
  70
    32
  0
VERTEX
  8
0
  5
6BF
 10
280.796
 20
140.062
 30
0.000000
  70
    32
  0
VERTEX
  8
0
  5
6C0
 10
280.863
 20
139.994
 30
0.000000
  70
    32
  0
VERTEX
  8
0
  5
6C1
 10
280.936
 20
139.929
 30
0.000000
  70
    32
  0
VERTEX
  8
0
  5
6C2
 10
281.013
 20
139.865
 30
0.000000
  70
    32
  0
VERTEX
  8
0
  5
6C3
 10
281.094
 20
139.805
 30
0.000000
  70
    32
  0
VERTEX
  8
0
  5
6C4
 10
281.179
 20
139.748
 30
0.000000
  70
    32
  0
VERTEX
  8
0
  5
6C5
 10
281.269
 20
139.693
 30
0.000000
  70
    32
  0
VERTEX
  8
0
  5
6C6
 10
281.361
 20
139.642
 30
0.000000
  70
    32
  0
VERTEX
  8
0
  5
6C7
 10
281.458
 20
139.594
 30
0.000000
  70
    32
  0
VERTEX
  8
0
  5
6C8
 10
281.557
 20
139.550
 30
0.000000
  70
    32
  0
VERTEX
  8
0
  5
6C9
 10
281.660
 20
139.508
 30
0.000000
  70
    32
  0
VERTEX
  8
0
  5
6CA
 10
281.765
 20
139.471
 30
0.000000
  70
    32
  0
VERTEX
  8
0
  5
6CB
 10
281.873
 20
139.437
 30
0.000000
  70
    32
  0
VERTEX
  8
0
  5
6CC
 10
281.983
 20
139.407
 30
0.000000
  70
    32
  0
VERTEX
  8
0
  5
6CD
 10
282.094
 20
139.381
 30
0.000000
  70
    32
  0
VERTEX
  8
0
  5
6CE
 10
282.208
 20
139.359
 30
0.000000
  70
    32
  0
VERTEX
  8
0
  5
6CF
 10
282.323
 20
139.341
 30
0.000000
  70
    32
  0
VERTEX
  8
0
  5
6D0
 10
282.439
 20
139.326
 30
0.000000
  70
    32
  0
VERTEX
  8
0
  5
6D1
 10
282.556
 20
139.316
 30
0.000000
  70
    32
  0
VERTEX
  8
0
  5
6D2
 10
282.673
 20
139.310
 30
0.000000
  70
    32
  0
VERTEX
  8
0
  5
6D3
 10
282.791
 20
139.308
 30
0.000000
  70
    32
  0
VERTEX
  8
0
  5
6D4
 10
282.909
 20
139.310
 30
0.000000
  70
    32
  0
VERTEX
  8
0
  5
6D5
 10
283.026
 20
139.316
 30
0.000000
  70
    32
  0
VERTEX
  8
0
  5
6D6
 10
283.143
 20
139.326
 30
0.000000
  70
    32
  0
VERTEX
  8
0
  5
6D7
 10
283.259
 20
139.341
 30
0.000000
  70
    32
  0
VERTEX
  8
0
  5
6D8
 10
283.374
 20
139.359
 30
0.000000
  70
    32
  0
VERTEX
  8
0
  5
6D9
 10
283.488
 20
139.381
 30
0.000000
  70
    32
  0
VERTEX
  8
0
  5
6DA
 10
283.600
 20
139.407
 30
0.000000
  70
    32
  0
VERTEX
  8
0
  5
6DB
 10
283.710
 20
139.437
 30
0.000000
  70
    32
  0
VERTEX
  8
0
  5
6DC
 10
283.817
 20
139.471
 30
0.000000
  70
    32
  0
VERTEX
  8
0
  5
6DD
 10
283.922
 20
139.508
 30
0.000000
  70
    32
  0
VERTEX
  8
0
  5
6DE
 10
284.025
 20
139.550
 30
0.000000
  70
    32
  0
VERTEX
  8
0
  5
6DF
 10
284.124
 20
139.594
 30
0.000000
  70
    32
  0
VERTEX
  8
0
  5
6E0
 10
284.221
 20
139.642
 30
0.000000
  70
    32
  0
VERTEX
  8
0
  5
6E1
 10
284.314
 20
139.693
 30
0.000000
  70
    32
  0
VERTEX
  8
0
  5
6E2
 10
284.403
 20
139.748
 30
0.000000
  70
    32
  0
VERTEX
  8
0
  5
6E3
 10
284.488
 20
139.805
 30
0.000000
  70
    32
  0
VERTEX
  8
0
  5
6E4
 10
284.569
 20
139.865
 30
0.000000
  70
    32
  0
VERTEX
  8
0
  5
6E5
 10
284.646
 20
139.929
 30
0.000000
  70
    32
  0
VERTEX
  8
0
  5
6E6
 10
284.719
 20
139.994
 30
0.000000
  70
    32
  0
VERTEX
  8
0
  5
6E7
 10
284.787
 20
140.062
 30
0.000000
  70
    32
  0
VERTEX
  8
0
  5
6E8
 10
284.850
 20
140.133
 30
0.000000
  70
    32
  0
VERTEX
  8
0
  5
6E9
 10
284.908
 20
140.205
 30
0.000000
  70
    32
  0
VERTEX
  8
0
  5
6EA
 10
284.961
 20
140.280
 30
0.000000
  70
    32
  0
VERTEX
  8
0
  5
6EB
 10
285.008
 20
140.356
 30
0.000000
  70
    32
  0
VERTEX
  8
0
  5
6EC
 10
285.051
 20
140.433
 30
0.000000
  70
    32
  0
VERTEX
  8
0
  5
6ED
 10
285.088
 20
140.512
 30
0.000000
  70
    32
  0
VERTEX
  8
0
  5
6EE
 10
285.119
 20
140.593
 30
0.000000
  70
    32
  0
VERTEX
  8
0
  5
6EF
 10
285.145
 20
140.674
 30
0.000000
  70
    32
  0
VERTEX
  8
0
  5
6F0
 10
285.165
 20
140.756
 30
0.000000
  70
    32
  0
VERTEX
  8
0
  5
6F1
 10
285.180
 20
140.839
 30
0.000000
  70
    32
  0
VERTEX
  8
0
  5
6F2
 10
285.188
 20
140.922
 30
0.000000
  70
    32
  0
VERTEX
  8
0
  5
6F3
 10
285.191
 20
141.005
 30
0.000000
  70
    32
  0
VERTEX
  8
0
  5
6F4
 10
285.188
 20
141.088
 30
0.000000
  70
    32
  0
VERTEX
  8
0
  5
6F5
 10
285.180
 20
141.171
 30
0.000000
  70
    32
  0
VERTEX
  8
0
  5
6F6
 10
285.165
 20
141.254
 30
0.000000
  70
    32
  0
VERTEX
  8
0
  5
6F7
 10
285.145
 20
141.336
 30
0.000000
  70
    32
  0
VERTEX
  8
0
  5
6F8
 10
285.119
 20
141.417
 30
0.000000
  70
    32
  0
VERTEX
  8
0
  5
6F9
 10
285.088
 20
141.498
 30
0.000000
  70
    32
  0
VERTEX
  8
0
  5
6FA
 10
285.051
 20
141.577
 30
0.000000
  70
    32
  0
VERTEX
  8
0
  5
6FB
 10
285.008
 20
141.655
 30
0.000000
  70
    32
  0
VERTEX
  8
0
  5
6FC
 10
284.961
 20
141.731
 30
0.000000
  70
    32
  0
VERTEX
  8
0
  5
6FD
 10
284.908
 20
141.805
 30
0.000000
  70
    32
  0
VERTEX
  8
0
  5
6FE
 10
284.850
 20
141.878
 30
0.000000
  70
    32
  0
VERTEX
  8
0
  5
6FF
 10
284.787
 20
141.948
 30
0.000000
  70
    32
  0
VERTEX
  8
0
  5
700
 10
284.719
 20
142.016
 30
0.000000
  70
    32
  0
VERTEX
  8
0
  5
701
 10
284.646
 20
142.082
 30
0.000000
  70
    32
  0
VERTEX
  8
0
  5
702
 10
284.569
 20
142.145
 30
0.000000
  70
    32
  0
VERTEX
  8
0
  5
703
 10
284.488
 20
142.205
 30
0.000000
  70
    32
  0
VERTEX
  8
0
  5
704
 10
284.403
 20
142.263
 30
0.000000
  70
    32
  0
VERTEX
  8
0
  5
705
 10
284.314
 20
142.317
 30
0.000000
  70
    32
  0
VERTEX
  8
0
  5
706
 10
284.221
 20
142.368
 30
0.000000
  70
    32
  0
VERTEX
  8
0
  5
707
 10
284.124
 20
142.416
 30
0.000000
  70
    32
  0
VERTEX
  8
0
  5
708
 10
284.025
 20
142.461
 30
0.000000
  70
    32
  0
VERTEX
  8
0
  5
709
 10
283.922
 20
142.502
 30
0.000000
  70
    32
  0
VERTEX
  8
0
  5
70A
 10
283.817
 20
142.539
 30
0.000000
  70
    32
  0
VERTEX
  8
0
  5
70B
 10
283.710
 20
142.573
 30
0.000000
  70
    32
  0
VERTEX
  8
0
  5
70C
 10
283.600
 20
142.603
 30
0.000000
  70
    32
  0
VERTEX
  8
0
  5
70D
 10
283.488
 20
142.629
 30
0.000000
  70
    32
  0
VERTEX
  8
0
  5
70E
 10
283.374
 20
142.651
 30
0.000000
  70
    32
  0
VERTEX
  8
0
  5
70F
 10
283.259
 20
142.670
 30
0.000000
  70
    32
  0
VERTEX
  8
0
  5
710
 10
283.143
 20
142.684
 30
0.000000
  70
    32
  0
VERTEX
  8
0
  5
711
 10
283.026
 20
142.694
 30
0.000000
  70
    32
  0
VERTEX
  8
0
  5
712
 10
282.909
 20
142.700
 30
0.000000
  70
    32
  0
VERTEX
  8
0
  5
713
 10
282.791
 20
142.702
 30
0.000000
  70
    32
  0
VERTEX
  8
0
  5
714
 10
282.673
 20
142.700
 30
0.000000
  70
    32
  0
VERTEX
  8
0
  5
715
 10
282.556
 20
142.694
 30
0.000000
  70
    32
  0
VERTEX
  8
0
  5
716
 10
282.439
 20
142.684
 30
0.000000
  70
    32
  0
VERTEX
  8
0
  5
717
 10
282.323
 20
142.670
 30
0.000000
  70
    32
  0
VERTEX
  8
0
  5
718
 10
282.208
 20
142.651
 30
0.000000
  70
    32
  0
VERTEX
  8
0
  5
719
 10
282.094
 20
142.629
 30
0.000000
  70
    32
  0
VERTEX
  8
0
  5
71A
 10
281.983
 20
142.603
 30
0.000000
  70
    32
  0
VERTEX
  8
0
  5
71B
 10
281.873
 20
142.573
 30
0.000000
  70
    32
  0
VERTEX
  8
0
  5
71C
 10
281.765
 20
142.539
 30
0.000000
  70
    32
  0
VERTEX
  8
0
  5
71D
 10
281.660
 20
142.502
 30
0.000000
  70
    32
  0
VERTEX
  8
0
  5
71E
 10
281.557
 20
142.461
 30
0.000000
  70
    32
  0
VERTEX
  8
0
  5
71F
 10
281.458
 20
142.416
 30
0.000000
  70
    32
  0
VERTEX
  8
0
  5
720
 10
281.361
 20
142.368
 30
0.000000
  70
    32
  0
VERTEX
  8
0
  5
721
 10
281.269
 20
142.317
 30
0.000000
  70
    32
  0
VERTEX
  8
0
  5
722
 10
281.179
 20
142.263
 30
0.000000
  70
    32
  0
VERTEX
  8
0
  5
723
 10
281.094
 20
142.205
 30
0.000000
  70
    32
  0
VERTEX
  8
0
  5
724
 10
281.013
 20
142.145
 30
0.000000
  70
    32
  0
VERTEX
  8
0
  5
725
 10
280.936
 20
142.082
 30
0.000000
  70
    32
  0
VERTEX
  8
0
  5
726
 10
280.863
 20
142.016
 30
0.000000
  70
    32
  0
VERTEX
  8
0
  5
727
 10
280.796
 20
141.948
 30
0.000000
  70
    32
  0
VERTEX
  8
0
  5
728
 10
280.733
 20
141.878
 30
0.000000
  70
    32
  0
VERTEX
  8
0
  5
729
 10
280.674
 20
141.805
 30
0.000000
  70
    32
  0
VERTEX
  8
0
  5
72A
 10
280.622
 20
141.731
 30
0.000000
  70
    32
  0
VERTEX
  8
0
  5
72B
 10
280.574
 20
141.655
 30
0.000000
  70
    32
  0
VERTEX
  8
0
  5
72C
 10
280.531
 20
141.577
 30
0.000000
  70
    32
  0
VERTEX
  8
0
  5
72D
 10
280.494
 20
141.498
 30
0.000000
  70
    32
  0
VERTEX
  8
0
  5
72E
 10
280.463
 20
141.417
 30
0.000000
  70
    32
  0
VERTEX
  8
0
  5
72F
 10
280.437
 20
141.336
 30
0.000000
  70
    32
  0
VERTEX
  8
0
  5
730
 10
280.417
 20
141.254
 30
0.000000
  70
    32
  0
VERTEX
  8
0
  5
731
 10
280.403
 20
141.171
 30
0.000000
  70
    32
  0
VERTEX
  8
0
  5
732
 10
280.394
 20
141.088
 30
0.000000
  70
    32
  0
VERTEX
  8
0
  5
733
 10
280.391
 20
141.005
 30
0.000000
  70
    32
  0
SEQEND
  8
0
  5
734
  0
LINE
  5
444
  8
1
 10
274.29109375292359
 20
156.6125005360993
 30
0.0
 11
274.2910937529237
 21
116.6125005360993
 31
0.0
  0
LINE
  5
445
  8
1
 10
224.2910937529237
 20
136.61210557047701
 30
0.0
 11
294.29109375292359
 21
136.6125100221638
 31
0.0
  0
LINE
  5
446
  8
1
 10
231.39597356003199
 20
141.00512039037031
 30
0.0
 11
241.13434345224971
 21
141.00512039037031
 31
0.0
  0
LINE
  5
447
  8
1
 10
278.39597356003202
 20
141.00512039037031
 30
0.0
 11
287.34945312890238
 21
141.00512039037031
 31
0.0
  0
LINE
  5
448
  8
1
 10
235.79109375292359
 20
144.56578083677789
 30
0.0
 11
235.79109375292359
 21
137.95479090255969
 31
0.0
  0
LINE
  5
449
  8
1
 10
282.79109375292359
 20
144.56578083677789
 30
0.0
 11
282.79109375292359
 21
137.95479090255969
 31
0.0
  0
LINE
  5
44A
  8
1
 10
270.25424397813907
 20
145.39774024462579
 30
0.0
 11
278.4020389332594
 21
145.39774024462579
 31
0.0
  0
LINE
  5
4B5
  8
1
 10
244.2910937529237
 20
156.6125005360993
 30
0.0
 11
244.29109375292381
 21
116.6125005360993
 31
0.0
  0
LINE
  5
4B7
  8
1
 10
240.2542439781391
 20
145.39774024462579
 30
0.0
 11
248.40203893325929
 21
145.39774024462579
 31
0.0
  0
CIRCLE
  5
4B8
  8
0
 10
244.29109375292359
 20
136.61212111265431
 30
0.0
 40
2.75
  0
CIRCLE
  5
4B9
  8
0
 10
244.29109375292359
 20
145.39774024462579
 30
0.0
 40
2.749999999998209
  0
CIRCLE
  5
4BA
  8
0
 10
190.67309384979831
 20
44.892298882521423
 30
0.0
 40
2.75
  0
LINE
  5
4BC
  8
1
 10
184.30701755449761
 20
44.892298882521423
 30
0.0
 11
197.3769744225765
 21
44.892298882521423
 31
0.0
  0
POLYLINE
  5
4BD
  8
3
 10
232.79109375292359
 20
141.00512039037031
 30
0.0
 66
     1
 70
     8
  0
VERTEX
  8
3
  5
735
 10
232.791
 20
141.005
 30
0.000000
  70
    32
  0
VERTEX
  8
3
  5
736
 10
232.795
 20
140.901
 30
0.000000
  70
    32
  0
VERTEX
  8
3
  5
737
 10
232.806
 20
140.797
 30
0.000000
  70
    32
  0
VERTEX
  8
3
  5
738
 10
232.824
 20
140.694
 30
0.000000
  70
    32
  0
VERTEX
  8
3
  5
739
 10
232.849
 20
140.591
 30
0.000000
  70
    32
  0
VERTEX
  8
3
  5
73A
 10
232.881
 20
140.490
 30
0.000000
  70
    32
  0
VERTEX
  8
3
  5
73B
 10
232.920
 20
140.389
 30
0.000000
  70
    32
  0
VERTEX
  8
3
  5
73C
 10
232.966
 20
140.290
 30
0.000000
  70
    32
  0
VERTEX
  8
3
  5
73D
 10
233.019
 20
140.193
 30
0.000000
  70
    32
  0
VERTEX
  8
3
  5
73E
 10
233.079
 20
140.098
 30
0.000000
  70
    32
  0
VERTEX
  8
3
  5
73F
 10
233.145
 20
140.005
 30
0.000000
  70
    32
  0
VERTEX
  8
3
  5
740
 10
233.218
 20
139.915
 30
0.000000
  70
    32
  0
VERTEX
  8
3
  5
741
 10
233.297
 20
139.827
 30
0.000000
  70
    32
  0
VERTEX
  8
3
  5
742
 10
233.381
 20
139.741
 30
0.000000
  70
    32
  0
VERTEX
  8
3
  5
743
 10
233.472
 20
139.659
 30
0.000000
  70
    32
  0
VERTEX
  8
3
  5
744
 10
233.568
 20
139.581
 30
0.000000
  70
    32
  0
VERTEX
  8
3
  5
745
 10
233.670
 20
139.505
 30
0.000000
  70
    32
  0
VERTEX
  8
3
  5
746
 10
233.776
 20
139.433
 30
0.000000
  70
    32
  0
VERTEX
  8
3
  5
747
 10
233.888
 20
139.365
 30
0.000000
  70
    32
  0
VERTEX
  8
3
  5
748
 10
234.004
 20
139.301
 30
0.000000
  70
    32
  0
VERTEX
  8
3
  5
749
 10
234.124
 20
139.241
 30
0.000000
  70
    32
  0
VERTEX
  8
3
  5
74A
 10
234.249
 20
139.186
 30
0.000000
  70
    32
  0
VERTEX
  8
3
  5
74B
 10
234.377
 20
139.134
 30
0.000000
  70
    32
  0
VERTEX
  8
3
  5
74C
 10
234.508
 20
139.087
 30
0.000000
  70
    32
  0
VERTEX
  8
3
  5
74D
 10
234.643
 20
139.045
 30
0.000000
  70
    32
  0
VERTEX
  8
3
  5
74E
 10
234.780
 20
139.008
 30
0.000000
  70
    32
  0
VERTEX
  8
3
  5
74F
 10
234.920
 20
138.975
 30
0.000000
  70
    32
  0
VERTEX
  8
3
  5
750
 10
235.062
 20
138.947
 30
0.000000
  70
    32
  0
VERTEX
  8
3
  5
751
 10
235.206
 20
138.925
 30
0.000000
  70
    32
  0
VERTEX
  8
3
  5
752
 10
235.351
 20
138.907
 30
0.000000
  70
    32
  0
VERTEX
  8
3
  5
753
 10
235.497
 20
138.894
 30
0.000000
  70
    32
  0
VERTEX
  8
3
  5
754
 10
235.644
 20
138.886
 30
0.000000
  70
    32
  0
VERTEX
  8
3
  5
755
 10
235.791
 20
138.884
 30
0.000000
  70
    32
  0
VERTEX
  8
3
  5
756
 10
235.938
 20
138.886
 30
0.000000
  70
    32
  0
VERTEX
  8
3
  5
757
 10
236.085
 20
138.894
 30
0.000000
  70
    32
  0
VERTEX
  8
3
  5
758
 10
236.231
 20
138.907
 30
0.000000
  70
    32
  0
VERTEX
  8
3
  5
759
 10
236.376
 20
138.925
 30
0.000000
  70
    32
  0
VERTEX
  8
3
  5
75A
 10
236.520
 20
138.947
 30
0.000000
  70
    32
  0
VERTEX
  8
3
  5
75B
 10
236.662
 20
138.975
 30
0.000000
  70
    32
  0
VERTEX
  8
3
  5
75C
 10
236.802
 20
139.008
 30
0.000000
  70
    32
  0
VERTEX
  8
3
  5
75D
 10
236.939
 20
139.045
 30
0.000000
  70
    32
  0
VERTEX
  8
3
  5
75E
 10
237.074
 20
139.087
 30
0.000000
  70
    32
  0
VERTEX
  8
3
  5
75F
 10
237.205
 20
139.134
 30
0.000000
  70
    32
  0
VERTEX
  8
3
  5
760
 10
237.333
 20
139.186
 30
0.000000
  70
    32
  0
VERTEX
  8
3
  5
761
 10
237.458
 20
139.241
 30
0.000000
  70
    32
  0
VERTEX
  8
3
  5
762
 10
237.578
 20
139.301
 30
0.000000
  70
    32
  0
VERTEX
  8
3
  5
763
 10
237.694
 20
139.365
 30
0.000000
  70
    32
  0
VERTEX
  8
3
  5
764
 10
237.806
 20
139.433
 30
0.000000
  70
    32
  0
VERTEX
  8
3
  5
765
 10
237.912
 20
139.505
 30
0.000000
  70
    32
  0
VERTEX
  8
3
  5
766
 10
238.014
 20
139.581
 30
0.000000
  70
    32
  0
VERTEX
  8
3
  5
767
 10
238.110
 20
139.659
 30
0.000000
  70
    32
  0
VERTEX
  8
3
  5
768
 10
238.201
 20
139.741
 30
0.000000
  70
    32
  0
VERTEX
  8
3
  5
769
 10
238.286
 20
139.827
 30
0.000000
  70
    32
  0
VERTEX
  8
3
  5
76A
 10
238.364
 20
139.915
 30
0.000000
  70
    32
  0
VERTEX
  8
3
  5
76B
 10
238.437
 20
140.005
 30
0.000000
  70
    32
  0
VERTEX
  8
3
  5
76C
 10
238.503
 20
140.098
 30
0.000000
  70
    32
  0
VERTEX
  8
3
  5
76D
 10
238.563
 20
140.193
 30
0.000000
  70
    32
  0
VERTEX
  8
3
  5
76E
 10
238.616
 20
140.290
 30
0.000000
  70
    32
  0
VERTEX
  8
3
  5
76F
 10
238.662
 20
140.389
 30
0.000000
  70
    32
  0
VERTEX
  8
3
  5
770
 10
238.701
 20
140.490
 30
0.000000
  70
    32
  0
VERTEX
  8
3
  5
771
 10
238.733
 20
140.591
 30
0.000000
  70
    32
  0
VERTEX
  8
3
  5
772
 10
238.759
 20
140.694
 30
0.000000
  70
    32
  0
VERTEX
  8
3
  5
773
 10
238.777
 20
140.797
 30
0.000000
  70
    32
  0
VERTEX
  8
3
  5
774
 10
238.787
 20
140.901
 30
0.000000
  70
    32
  0
VERTEX
  8
3
  5
775
 10
238.791
 20
141.005
 30
0.000000
  70
    32
  0
VERTEX
  8
3
  5
776
 10
238.787
 20
141.109
 30
0.000000
  70
    32
  0
VERTEX
  8
3
  5
777
 10
238.777
 20
141.213
 30
0.000000
  70
    32
  0
VERTEX
  8
3
  5
778
 10
238.759
 20
141.316
 30
0.000000
  70
    32
  0
VERTEX
  8
3
  5
779
 10
238.733
 20
141.419
 30
0.000000
  70
    32
  0
VERTEX
  8
3
  5
77A
 10
238.701
 20
141.521
 30
0.000000
  70
    32
  0
VERTEX
  8
3
  5
77B
 10
238.662
 20
141.621
 30
0.000000
  70
    32
  0
VERTEX
  8
3
  5
77C
 10
238.616
 20
141.720
 30
0.000000
  70
    32
  0
VERTEX
  8
3
  5
77D
 10
238.563
 20
141.817
 30
0.000000
  70
    32
  0
VERTEX
  8
3
  5
77E
 10
238.503
 20
141.912
 30
0.000000
  70
    32
  0
VERTEX
  8
3
  5
77F
 10
238.437
 20
142.005
 30
0.000000
  70
    32
  0
VERTEX
  8
3
  5
780
 10
238.364
 20
142.096
 30
0.000000
  70
    32
  0
VERTEX
  8
3
  5
781
 10
238.286
 20
142.184
 30
0.000000
  70
    32
  0
VERTEX
  8
3
  5
782
 10
238.201
 20
142.269
 30
0.000000
  70
    32
  0
VERTEX
  8
3
  5
783
 10
238.110
 20
142.351
 30
0.000000
  70
    32
  0
VERTEX
  8
3
  5
784
 10
238.014
 20
142.430
 30
0.000000
  70
    32
  0
VERTEX
  8
3
  5
785
 10
237.912
 20
142.505
 30
0.000000
  70
    32
  0
VERTEX
  8
3
  5
786
 10
237.806
 20
142.577
 30
0.000000
  70
    32
  0
VERTEX
  8
3
  5
787
 10
237.694
 20
142.645
 30
0.000000
  70
    32
  0
VERTEX
  8
3
  5
788
 10
237.578
 20
142.709
 30
0.000000
  70
    32
  0
VERTEX
  8
3
  5
789
 10
237.458
 20
142.769
 30
0.000000
  70
    32
  0
VERTEX
  8
3
  5
78A
 10
237.333
 20
142.825
 30
0.000000
  70
    32
  0
VERTEX
  8
3
  5
78B
 10
237.205
 20
142.876
 30
0.000000
  70
    32
  0
VERTEX
  8
3
  5
78C
 10
237.074
 20
142.923
 30
0.000000
  70
    32
  0
VERTEX
  8
3
  5
78D
 10
236.939
 20
142.965
 30
0.000000
  70
    32
  0
VERTEX
  8
3
  5
78E
 10
236.802
 20
143.002
 30
0.000000
  70
    32
  0
VERTEX
  8
3
  5
78F
 10
236.662
 20
143.035
 30
0.000000
  70
    32
  0
VERTEX
  8
3
  5
790
 10
236.520
 20
143.063
 30
0.000000
  70
    32
  0
VERTEX
  8
3
  5
791
 10
236.376
 20
143.086
 30
0.000000
  70
    32
  0
VERTEX
  8
3
  5
792
 10
236.231
 20
143.103
 30
0.000000
  70
    32
  0
VERTEX
  8
3
  5
793
 10
236.085
 20
143.116
 30
0.000000
  70
    32
  0
VERTEX
  8
3
  5
794
 10
235.938
 20
143.124
 30
0.000000
  70
    32
  0
VERTEX
  8
3
  5
795
 10
235.791
 20
143.126
 30
0.000000
  70
    32
  0
VERTEX
  8
3
  5
796
 10
235.644
 20
143.124
 30
0.000000
  70
    32
  0
VERTEX
  8
3
  5
797
 10
235.497
 20
143.116
 30
0.000000
  70
    32
  0
VERTEX
  8
3
  5
798
 10
235.351
 20
143.103
 30
0.000000
  70
    32
  0
VERTEX
  8
3
  5
799
 10
235.206
 20
143.086
 30
0.000000
  70
    32
  0
VERTEX
  8
3
  5
79A
 10
235.062
 20
143.063
 30
0.000000
  70
    32
  0
VERTEX
  8
3
  5
79B
 10
234.920
 20
143.035
 30
0.000000
  70
    32
  0
VERTEX
  8
3
  5
79C
 10
234.780
 20
143.002
 30
0.000000
  70
    32
  0
VERTEX
  8
3
  5
79D
 10
234.643
 20
142.965
 30
0.000000
  70
    32
  0
VERTEX
  8
3
  5
79E
 10
234.508
 20
142.923
 30
0.000000
  70
    32
  0
VERTEX
  8
3
  5
79F
 10
234.377
 20
142.876
 30
0.000000
  70
    32
  0
VERTEX
  8
3
  5
7A0
 10
234.249
 20
142.825
 30
0.000000
  70
    32
  0
VERTEX
  8
3
  5
7A1
 10
234.124
 20
142.769
 30
0.000000
  70
    32
  0
VERTEX
  8
3
  5
7A2
 10
234.004
 20
142.709
 30
0.000000
  70
    32
  0
VERTEX
  8
3
  5
7A3
 10
233.888
 20
142.645
 30
0.000000
  70
    32
  0
VERTEX
  8
3
  5
7A4
 10
233.776
 20
142.577
 30
0.000000
  70
    32
  0
VERTEX
  8
3
  5
7A5
 10
233.670
 20
142.505
 30
0.000000
  70
    32
  0
VERTEX
  8
3
  5
7A6
 10
233.568
 20
142.430
 30
0.000000
  70
    32
  0
VERTEX
  8
3
  5
7A7
 10
233.472
 20
142.351
 30
0.000000
  70
    32
  0
VERTEX
  8
3
  5
7A8
 10
233.381
 20
142.269
 30
0.000000
  70
    32
  0
VERTEX
  8
3
  5
7A9
 10
233.297
 20
142.184
 30
0.000000
  70
    32
  0
VERTEX
  8
3
  5
7AA
 10
233.218
 20
142.096
 30
0.000000
  70
    32
  0
VERTEX
  8
3
  5
7AB
 10
233.145
 20
142.005
 30
0.000000
  70
    32
  0
VERTEX
  8
3
  5
7AC
 10
233.079
 20
141.912
 30
0.000000
  70
    32
  0
VERTEX
  8
3
  5
7AD
 10
233.019
 20
141.817
 30
0.000000
  70
    32
  0
VERTEX
  8
3
  5
7AE
 10
232.966
 20
141.720
 30
0.000000
  70
    32
  0
VERTEX
  8
3
  5
7AF
 10
232.920
 20
141.621
 30
0.000000
  70
    32
  0
VERTEX
  8
3
  5
7B0
 10
232.881
 20
141.521
 30
0.000000
  70
    32
  0
VERTEX
  8
3
  5
7B1
 10
232.849
 20
141.419
 30
0.000000
  70
    32
  0
VERTEX
  8
3
  5
7B2
 10
232.824
 20
141.316
 30
0.000000
  70
    32
  0
VERTEX
  8
3
  5
7B3
 10
232.806
 20
141.213
 30
0.000000
  70
    32
  0
VERTEX
  8
3
  5
7B4
 10
232.795
 20
141.109
 30
0.000000
  70
    32
  0
VERTEX
  8
3
  5
7B5
 10
232.791
 20
141.005
 30
0.000000
  70
    32
  0
SEQEND
  8
3
  5
7B6
  0
POLYLINE
  5
4BE
  8
3
 10
279.79109375292359
 20
141.00512039037031
 30
0.0
 66
     1
 70
     8
  0
VERTEX
  8
3
  5
7B7
 10
279.791
 20
141.005
 30
0.000000
  70
    32
  0
VERTEX
  8
3
  5
7B8
 10
279.795
 20
140.901
 30
0.000000
  70
    32
  0
VERTEX
  8
3
  5
7B9
 10
279.806
 20
140.797
 30
0.000000
  70
    32
  0
VERTEX
  8
3
  5
7BA
 10
279.824
 20
140.694
 30
0.000000
  70
    32
  0
VERTEX
  8
3
  5
7BB
 10
279.849
 20
140.591
 30
0.000000
  70
    32
  0
VERTEX
  8
3
  5
7BC
 10
279.881
 20
140.490
 30
0.000000
  70
    32
  0
VERTEX
  8
3
  5
7BD
 10
279.920
 20
140.389
 30
0.000000
  70
    32
  0
VERTEX
  8
3
  5
7BE
 10
279.966
 20
140.290
 30
0.000000
  70
    32
  0
VERTEX
  8
3
  5
7BF
 10
280.019
 20
140.193
 30
0.000000
  70
    32
  0
VERTEX
  8
3
  5
7C0
 10
280.079
 20
140.098
 30
0.000000
  70
    32
  0
VERTEX
  8
3
  5
7C1
 10
280.145
 20
140.005
 30
0.000000
  70
    32
  0
VERTEX
  8
3
  5
7C2
 10
280.218
 20
139.915
 30
0.000000
  70
    32
  0
VERTEX
  8
3
  5
7C3
 10
280.297
 20
139.827
 30
0.000000
  70
    32
  0
VERTEX
  8
3
  5
7C4
 10
280.381
 20
139.741
 30
0.000000
  70
    32
  0
VERTEX
  8
3
  5
7C5
 10
280.472
 20
139.659
 30
0.000000
  70
    32
  0
VERTEX
  8
3
  5
7C6
 10
280.568
 20
139.581
 30
0.000000
  70
    32
  0
VERTEX
  8
3
  5
7C7
 10
280.670
 20
139.505
 30
0.000000
  70
    32
  0
VERTEX
  8
3
  5
7C8
 10
280.776
 20
139.433
 30
0.000000
  70
    32
  0
VERTEX
  8
3
  5
7C9
 10
280.888
 20
139.365
 30
0.000000
  70
    32
  0
VERTEX
  8
3
  5
7CA
 10
281.004
 20
139.301
 30
0.000000
  70
    32
  0
VERTEX
  8
3
  5
7CB
 10
281.124
 20
139.241
 30
0.000000
  70
    32
  0
VERTEX
  8
3
  5
7CC
 10
281.249
 20
139.186
 30
0.000000
  70
    32
  0
VERTEX
  8
3
  5
7CD
 10
281.377
 20
139.134
 30
0.000000
  70
    32
  0
VERTEX
  8
3
  5
7CE
 10
281.508
 20
139.087
 30
0.000000
  70
    32
  0
VERTEX
  8
3
  5
7CF
 10
281.643
 20
139.045
 30
0.000000
  70
    32
  0
VERTEX
  8
3
  5
7D0
 10
281.780
 20
139.008
 30
0.000000
  70
    32
  0
VERTEX
  8
3
  5
7D1
 10
281.920
 20
138.975
 30
0.000000
  70
    32
  0
VERTEX
  8
3
  5
7D2
 10
282.062
 20
138.947
 30
0.000000
  70
    32
  0
VERTEX
  8
3
  5
7D3
 10
282.206
 20
138.925
 30
0.000000
  70
    32
  0
VERTEX
  8
3
  5
7D4
 10
282.351
 20
138.907
 30
0.000000
  70
    32
  0
VERTEX
  8
3
  5
7D5
 10
282.497
 20
138.894
 30
0.000000
  70
    32
  0
VERTEX
  8
3
  5
7D6
 10
282.644
 20
138.886
 30
0.000000
  70
    32
  0
VERTEX
  8
3
  5
7D7
 10
282.791
 20
138.884
 30
0.000000
  70
    32
  0
VERTEX
  8
3
  5
7D8
 10
282.938
 20
138.886
 30
0.000000
  70
    32
  0
VERTEX
  8
3
  5
7D9
 10
283.085
 20
138.894
 30
0.000000
  70
    32
  0
VERTEX
  8
3
  5
7DA
 10
283.231
 20
138.907
 30
0.000000
  70
    32
  0
VERTEX
  8
3
  5
7DB
 10
283.376
 20
138.925
 30
0.000000
  70
    32
  0
VERTEX
  8
3
  5
7DC
 10
283.520
 20
138.947
 30
0.000000
  70
    32
  0
VERTEX
  8
3
  5
7DD
 10
283.662
 20
138.975
 30
0.000000
  70
    32
  0
VERTEX
  8
3
  5
7DE
 10
283.802
 20
139.008
 30
0.000000
  70
    32
  0
VERTEX
  8
3
  5
7DF
 10
283.939
 20
139.045
 30
0.000000
  70
    32
  0
VERTEX
  8
3
  5
7E0
 10
284.074
 20
139.087
 30
0.000000
  70
    32
  0
VERTEX
  8
3
  5
7E1
 10
284.205
 20
139.134
 30
0.000000
  70
    32
  0
VERTEX
  8
3
  5
7E2
 10
284.333
 20
139.186
 30
0.000000
  70
    32
  0
VERTEX
  8
3
  5
7E3
 10
284.458
 20
139.241
 30
0.000000
  70
    32
  0
VERTEX
  8
3
  5
7E4
 10
284.578
 20
139.301
 30
0.000000
  70
    32
  0
VERTEX
  8
3
  5
7E5
 10
284.694
 20
139.365
 30
0.000000
  70
    32
  0
VERTEX
  8
3
  5
7E6
 10
284.806
 20
139.433
 30
0.000000
  70
    32
  0
VERTEX
  8
3
  5
7E7
 10
284.912
 20
139.505
 30
0.000000
  70
    32
  0
VERTEX
  8
3
  5
7E8
 10
285.014
 20
139.581
 30
0.000000
  70
    32
  0
VERTEX
  8
3
  5
7E9
 10
285.110
 20
139.659
 30
0.000000
  70
    32
  0
VERTEX
  8
3
  5
7EA
 10
285.201
 20
139.741
 30
0.000000
  70
    32
  0
VERTEX
  8
3
  5
7EB
 10
285.286
 20
139.827
 30
0.000000
  70
    32
  0
VERTEX
  8
3
  5
7EC
 10
285.364
 20
139.915
 30
0.000000
  70
    32
  0
VERTEX
  8
3
  5
7ED
 10
285.437
 20
140.005
 30
0.000000
  70
    32
  0
VERTEX
  8
3
  5
7EE
 10
285.503
 20
140.098
 30
0.000000
  70
    32
  0
VERTEX
  8
3
  5
7EF
 10
285.563
 20
140.193
 30
0.000000
  70
    32
  0
VERTEX
  8
3
  5
7F0
 10
285.616
 20
140.290
 30
0.000000
  70
    32
  0
VERTEX
  8
3
  5
7F1
 10
285.662
 20
140.389
 30
0.000000
  70
    32
  0
VERTEX
  8
3
  5
7F2
 10
285.701
 20
140.490
 30
0.000000
  70
    32
  0
VERTEX
  8
3
  5
7F3
 10
285.733
 20
140.591
 30
0.000000
  70
    32
  0
VERTEX
  8
3
  5
7F4
 10
285.759
 20
140.694
 30
0.000000
  70
    32
  0
VERTEX
  8
3
  5
7F5
 10
285.777
 20
140.797
 30
0.000000
  70
    32
  0
VERTEX
  8
3
  5
7F6
 10
285.787
 20
140.901
 30
0.000000
  70
    32
  0
VERTEX
  8
3
  5
7F7
 10
285.791
 20
141.005
 30
0.000000
  70
    32
  0
VERTEX
  8
3
  5
7F8
 10
285.787
 20
141.109
 30
0.000000
  70
    32
  0
VERTEX
  8
3
  5
7F9
 10
285.777
 20
141.213
 30
0.000000
  70
    32
  0
VERTEX
  8
3
  5
7FA
 10
285.759
 20
141.316
 30
0.000000
  70
    32
  0
VERTEX
  8
3
  5
7FB
 10
285.733
 20
141.419
 30
0.000000
  70
    32
  0
VERTEX
  8
3
  5
7FC
 10
285.701
 20
141.521
 30
0.000000
  70
    32
  0
VERTEX
  8
3
  5
7FD
 10
285.662
 20
141.621
 30
0.000000
  70
    32
  0
VERTEX
  8
3
  5
7FE
 10
285.616
 20
141.720
 30
0.000000
  70
    32
  0
VERTEX
  8
3
  5
7FF
 10
285.563
 20
141.817
 30
0.000000
  70
    32
  0
VERTEX
  8
3
  5
800
 10
285.503
 20
141.912
 30
0.000000
  70
    32
  0
VERTEX
  8
3
  5
801
 10
285.437
 20
142.005
 30
0.000000
  70
    32
  0
VERTEX
  8
3
  5
802
 10
285.364
 20
142.096
 30
0.000000
  70
    32
  0
VERTEX
  8
3
  5
803
 10
285.286
 20
142.184
 30
0.000000
  70
    32
  0
VERTEX
  8
3
  5
804
 10
285.201
 20
142.269
 30
0.000000
  70
    32
  0
VERTEX
  8
3
  5
805
 10
285.110
 20
142.351
 30
0.000000
  70
    32
  0
VERTEX
  8
3
  5
806
 10
285.014
 20
142.430
 30
0.000000
  70
    32
  0
VERTEX
  8
3
  5
807
 10
284.912
 20
142.505
 30
0.000000
  70
    32
  0
VERTEX
  8
3
  5
808
 10
284.806
 20
142.577
 30
0.000000
  70
    32
  0
VERTEX
  8
3
  5
809
 10
284.694
 20
142.645
 30
0.000000
  70
    32
  0
VERTEX
  8
3
  5
80A
 10
284.578
 20
142.709
 30
0.000000
  70
    32
  0
VERTEX
  8
3
  5
80B
 10
284.458
 20
142.769
 30
0.000000
  70
    32
  0
VERTEX
  8
3
  5
80C
 10
284.333
 20
142.825
 30
0.000000
  70
    32
  0
VERTEX
  8
3
  5
80D
 10
284.205
 20
142.876
 30
0.000000
  70
    32
  0
VERTEX
  8
3
  5
80E
 10
284.074
 20
142.923
 30
0.000000
  70
    32
  0
VERTEX
  8
3
  5
80F
 10
283.939
 20
142.965
 30
0.000000
  70
    32
  0
VERTEX
  8
3
  5
810
 10
283.802
 20
143.002
 30
0.000000
  70
    32
  0
VERTEX
  8
3
  5
811
 10
283.662
 20
143.035
 30
0.000000
  70
    32
  0
VERTEX
  8
3
  5
812
 10
283.520
 20
143.063
 30
0.000000
  70
    32
  0
VERTEX
  8
3
  5
813
 10
283.376
 20
143.086
 30
0.000000
  70
    32
  0
VERTEX
  8
3
  5
814
 10
283.231
 20
143.103
 30
0.000000
  70
    32
  0
VERTEX
  8
3
  5
815
 10
283.085
 20
143.116
 30
0.000000
  70
    32
  0
VERTEX
  8
3
  5
816
 10
282.938
 20
143.124
 30
0.000000
  70
    32
  0
VERTEX
  8
3
  5
817
 10
282.791
 20
143.126
 30
0.000000
  70
    32
  0
VERTEX
  8
3
  5
818
 10
282.644
 20
143.124
 30
0.000000
  70
    32
  0
VERTEX
  8
3
  5
819
 10
282.497
 20
143.116
 30
0.000000
  70
    32
  0
VERTEX
  8
3
  5
81A
 10
282.351
 20
143.103
 30
0.000000
  70
    32
  0
VERTEX
  8
3
  5
81B
 10
282.206
 20
143.086
 30
0.000000
  70
    32
  0
VERTEX
  8
3
  5
81C
 10
282.062
 20
143.063
 30
0.000000
  70
    32
  0
VERTEX
  8
3
  5
81D
 10
281.920
 20
143.035
 30
0.000000
  70
    32
  0
VERTEX
  8
3
  5
81E
 10
281.780
 20
143.002
 30
0.000000
  70
    32
  0
VERTEX
  8
3
  5
81F
 10
281.643
 20
142.965
 30
0.000000
  70
    32
  0
VERTEX
  8
3
  5
820
 10
281.508
 20
142.923
 30
0.000000
  70
    32
  0
VERTEX
  8
3
  5
821
 10
281.377
 20
142.876
 30
0.000000
  70
    32
  0
VERTEX
  8
3
  5
822
 10
281.249
 20
142.825
 30
0.000000
  70
    32
  0
VERTEX
  8
3
  5
823
 10
281.124
 20
142.769
 30
0.000000
  70
    32
  0
VERTEX
  8
3
  5
824
 10
281.004
 20
142.709
 30
0.000000
  70
    32
  0
VERTEX
  8
3
  5
825
 10
280.888
 20
142.645
 30
0.000000
  70
    32
  0
VERTEX
  8
3
  5
826
 10
280.776
 20
142.577
 30
0.000000
  70
    32
  0
VERTEX
  8
3
  5
827
 10
280.670
 20
142.505
 30
0.000000
  70
    32
  0
VERTEX
  8
3
  5
828
 10
280.568
 20
142.430
 30
0.000000
  70
    32
  0
VERTEX
  8
3
  5
829
 10
280.472
 20
142.351
 30
0.000000
  70
    32
  0
VERTEX
  8
3
  5
82A
 10
280.381
 20
142.269
 30
0.000000
  70
    32
  0
VERTEX
  8
3
  5
82B
 10
280.297
 20
142.184
 30
0.000000
  70
    32
  0
VERTEX
  8
3
  5
82C
 10
280.218
 20
142.096
 30
0.000000
  70
    32
  0
VERTEX
  8
3
  5
82D
 10
280.145
 20
142.005
 30
0.000000
  70
    32
  0
VERTEX
  8
3
  5
82E
 10
280.079
 20
141.912
 30
0.000000
  70
    32
  0
VERTEX
  8
3
  5
82F
 10
280.019
 20
141.817
 30
0.000000
  70
    32
  0
VERTEX
  8
3
  5
830
 10
279.966
 20
141.720
 30
0.000000
  70
    32
  0
VERTEX
  8
3
  5
831
 10
279.920
 20
141.621
 30
0.000000
  70
    32
  0
VERTEX
  8
3
  5
832
 10
279.881
 20
141.521
 30
0.000000
  70
    32
  0
VERTEX
  8
3
  5
833
 10
279.849
 20
141.419
 30
0.000000
  70
    32
  0
VERTEX
  8
3
  5
834
 10
279.824
 20
141.316
 30
0.000000
  70
    32
  0
VERTEX
  8
3
  5
835
 10
279.806
 20
141.213
 30
0.000000
  70
    32
  0
VERTEX
  8
3
  5
836
 10
279.795
 20
141.109
 30
0.000000
  70
    32
  0
VERTEX
  8
3
  5
837
 10
279.791
 20
141.005
 30
0.000000
  70
    32
  0
SEQEND
  8
3
  5
838
  0
LINE
  5
4C5
  8
1
 10
200.67310124370539
 20
198.3319433427871
 30
0.0
 11
160.67310124370539
 21
198.33194334278701
 31
0.0
  0
LINE
  5
4C6
  8
1
 10
200.67310124370539
 20
228.3319433427871
 30
0.0
 11
160.67310124370539
 21
228.33194334278701
 31
0.0
  0
CIRCLE
  5
4C8
  8
0
 10
180.67272182026039
 20
228.3319433427871
 30
0.0
 40
2.75
  0
CIRCLE
  5
4C9
  8
0
 10
180.67272182026039
 20
198.3319433427871
 30
0.0
 40
2.75
  0
LINE
  5
4CA
  8
0
 10
165.6731012437055
 20
243.3319433427871
 30
0.0
 11
195.6731012437055
 21
243.3319433427871
 31
0.0
  0
LINE
  5
4CB
  8
0
 10
174.6731012437055
 20
243.3319433427871
 30
0.0
 11
174.67310124370539
 21
183.3319433427871
 31
0.0
  0
LINE
  5
4CC
  8
0
 10
165.6731012437055
 20
243.3319433427871
 30
0.0
 11
165.67310124370539
 21
183.3319433427871
 31
0.0
  0
LINE
  5
4CD
  8
1
 10
180.67270627808321
 20
248.3319433427871
 30
0.0
 11
180.67311072976989
 21
178.3319433427871
 31
0.0
  0
LINE
  5
4CE
  8
1
 10
185.06572109797639
 20
241.2270635356787
 30
0.0
 11
185.06572109797639
 21
231.48869364346109
 31
0.0
  0
POLYLINE
  5
4CF
  8
3
 10
185.06572109797639
 20
239.8319433427871
 30
0.0
 66
     1
 70
     8
  0
VERTEX
  8
3
  5
839
 10
185.066
 20
239.832
 30
0.000000
  70
    32
  0
VERTEX
  8
3
  5
83A
 10
184.962
 20
239.828
 30
0.000000
  70
    32
  0
VERTEX
  8
3
  5
83B
 10
184.858
 20
239.817
 30
0.000000
  70
    32
  0
VERTEX
  8
3
  5
83C
 10
184.754
 20
239.799
 30
0.000000
  70
    32
  0
VERTEX
  8
3
  5
83D
 10
184.652
 20
239.774
 30
0.000000
  70
    32
  0
VERTEX
  8
3
  5
83E
 10
184.550
 20
239.742
 30
0.000000
  70
    32
  0
VERTEX
  8
3
  5
83F
 10
184.450
 20
239.703
 30
0.000000
  70
    32
  0
VERTEX
  8
3
  5
840
 10
184.351
 20
239.657
 30
0.000000
  70
    32
  0
VERTEX
  8
3
  5
841
 10
184.254
 20
239.604
 30
0.000000
  70
    32
  0
VERTEX
  8
3
  5
842
 10
184.159
 20
239.544
 30
0.000000
  70
    32
  0
VERTEX
  8
3
  5
843
 10
184.066
 20
239.478
 30
0.000000
  70
    32
  0
VERTEX
  8
3
  5
844
 10
183.975
 20
239.405
 30
0.000000
  70
    32
  0
VERTEX
  8
3
  5
845
 10
183.887
 20
239.326
 30
0.000000
  70
    32
  0
VERTEX
  8
3
  5
846
 10
183.802
 20
239.242
 30
0.000000
  70
    32
  0
VERTEX
  8
3
  5
847
 10
183.720
 20
239.151
 30
0.000000
  70
    32
  0
VERTEX
  8
3
  5
848
 10
183.641
 20
239.055
 30
0.000000
  70
    32
  0
VERTEX
  8
3
  5
849
 10
183.566
 20
238.953
 30
0.000000
  70
    32
  0
VERTEX
  8
3
  5
84A
 10
183.494
 20
238.847
 30
0.000000
  70
    32
  0
VERTEX
  8
3
  5
84B
 10
183.426
 20
238.735
 30
0.000000
  70
    32
  0
VERTEX
  8
3
  5
84C
 10
183.362
 20
238.619
 30
0.000000
  70
    32
  0
VERTEX
  8
3
  5
84D
 10
183.302
 20
238.499
 30
0.000000
  70
    32
  0
VERTEX
  8
3
  5
84E
 10
183.246
 20
238.374
 30
0.000000
  70
    32
  0
VERTEX
  8
3
  5
84F
 10
183.195
 20
238.246
 30
0.000000
  70
    32
  0
VERTEX
  8
3
  5
850
 10
183.148
 20
238.115
 30
0.000000
  70
    32
  0
VERTEX
  8
3
  5
851
 10
183.106
 20
237.980
 30
0.000000
  70
    32
  0
VERTEX
  8
3
  5
852
 10
183.068
 20
237.843
 30
0.000000
  70
    32
  0
VERTEX
  8
3
  5
853
 10
183.036
 20
237.703
 30
0.000000
  70
    32
  0
VERTEX
  8
3
  5
854
 10
183.008
 20
237.561
 30
0.000000
  70
    32
  0
VERTEX
  8
3
  5
855
 10
182.985
 20
237.417
 30
0.000000
  70
    32
  0
VERTEX
  8
3
  5
856
 10
182.967
 20
237.272
 30
0.000000
  70
    32
  0
VERTEX
  8
3
  5
857
 10
182.955
 20
237.126
 30
0.000000
  70
    32
  0
VERTEX
  8
3
  5
858
 10
182.947
 20
236.979
 30
0.000000
  70
    32
  0
VERTEX
  8
3
  5
859
 10
182.944
 20
236.832
 30
0.000000
  70
    32
  0
VERTEX
  8
3
  5
85A
 10
182.947
 20
236.685
 30
0.000000
  70
    32
  0
VERTEX
  8
3
  5
85B
 10
182.955
 20
236.538
 30
0.000000
  70
    32
  0
VERTEX
  8
3
  5
85C
 10
182.967
 20
236.392
 30
0.000000
  70
    32
  0
VERTEX
  8
3
  5
85D
 10
182.985
 20
236.247
 30
0.000000
  70
    32
  0
VERTEX
  8
3
  5
85E
 10
183.008
 20
236.103
 30
0.000000
  70
    32
  0
VERTEX
  8
3
  5
85F
 10
183.036
 20
235.961
 30
0.000000
  70
    32
  0
VERTEX
  8
3
  5
860
 10
183.068
 20
235.821
 30
0.000000
  70
    32
  0
VERTEX
  8
3
  5
861
 10
183.106
 20
235.684
 30
0.000000
  70
    32
  0
VERTEX
  8
3
  5
862
 10
183.148
 20
235.549
 30
0.000000
  70
    32
  0
VERTEX
  8
3
  5
863
 10
183.195
 20
235.418
 30
0.000000
  70
    32
  0
VERTEX
  8
3
  5
864
 10
183.246
 20
235.290
 30
0.000000
  70
    32
  0
VERTEX
  8
3
  5
865
 10
183.302
 20
235.165
 30
0.000000
  70
    32
  0
VERTEX
  8
3
  5
866
 10
183.362
 20
235.045
 30
0.000000
  70
    32
  0
VERTEX
  8
3
  5
867
 10
183.426
 20
234.929
 30
0.000000
  70
    32
  0
VERTEX
  8
3
  5
868
 10
183.494
 20
234.817
 30
0.000000
  70
    32
  0
VERTEX
  8
3
  5
869
 10
183.566
 20
234.711
 30
0.000000
  70
    32
  0
VERTEX
  8
3
  5
86A
 10
183.641
 20
234.609
 30
0.000000
  70
    32
  0
VERTEX
  8
3
  5
86B
 10
183.720
 20
234.513
 30
0.000000
  70
    32
  0
VERTEX
  8
3
  5
86C
 10
183.802
 20
234.422
 30
0.000000
  70
    32
  0
VERTEX
  8
3
  5
86D
 10
183.887
 20
234.338
 30
0.000000
  70
    32
  0
VERTEX
  8
3
  5
86E
 10
183.975
 20
234.259
 30
0.000000
  70
    32
  0
VERTEX
  8
3
  5
86F
 10
184.066
 20
234.186
 30
0.000000
  70
    32
  0
VERTEX
  8
3
  5
870
 10
184.159
 20
234.120
 30
0.000000
  70
    32
  0
VERTEX
  8
3
  5
871
 10
184.254
 20
234.060
 30
0.000000
  70
    32
  0
VERTEX
  8
3
  5
872
 10
184.351
 20
234.007
 30
0.000000
  70
    32
  0
VERTEX
  8
3
  5
873
 10
184.450
 20
233.961
 30
0.000000
  70
    32
  0
VERTEX
  8
3
  5
874
 10
184.550
 20
233.922
 30
0.000000
  70
    32
  0
VERTEX
  8
3
  5
875
 10
184.652
 20
233.890
 30
0.000000
  70
    32
  0
VERTEX
  8
3
  5
876
 10
184.754
 20
233.864
 30
0.000000
  70
    32
  0
VERTEX
  8
3
  5
877
 10
184.858
 20
233.846
 30
0.000000
  70
    32
  0
VERTEX
  8
3
  5
878
 10
184.962
 20
233.836
 30
0.000000
  70
    32
  0
VERTEX
  8
3
  5
879
 10
185.066
 20
233.832
 30
0.000000
  70
    32
  0
VERTEX
  8
3
  5
87A
 10
185.170
 20
233.836
 30
0.000000
  70
    32
  0
VERTEX
  8
3
  5
87B
 10
185.274
 20
233.846
 30
0.000000
  70
    32
  0
VERTEX
  8
3
  5
87C
 10
185.377
 20
233.864
 30
0.000000
  70
    32
  0
VERTEX
  8
3
  5
87D
 10
185.480
 20
233.890
 30
0.000000
  70
    32
  0
VERTEX
  8
3
  5
87E
 10
185.581
 20
233.922
 30
0.000000
  70
    32
  0
VERTEX
  8
3
  5
87F
 10
185.682
 20
233.961
 30
0.000000
  70
    32
  0
VERTEX
  8
3
  5
880
 10
185.780
 20
234.007
 30
0.000000
  70
    32
  0
VERTEX
  8
3
  5
881
 10
185.878
 20
234.060
 30
0.000000
  70
    32
  0
VERTEX
  8
3
  5
882
 10
185.973
 20
234.120
 30
0.000000
  70
    32
  0
VERTEX
  8
3
  5
883
 10
186.066
 20
234.186
 30
0.000000
  70
    32
  0
VERTEX
  8
3
  5
884
 10
186.156
 20
234.259
 30
0.000000
  70
    32
  0
VERTEX
  8
3
  5
885
 10
186.244
 20
234.338
 30
0.000000
  70
    32
  0
VERTEX
  8
3
  5
886
 10
186.329
 20
234.422
 30
0.000000
  70
    32
  0
VERTEX
  8
3
  5
887
 10
186.411
 20
234.513
 30
0.000000
  70
    32
  0
VERTEX
  8
3
  5
888
 10
186.490
 20
234.609
 30
0.000000
  70
    32
  0
VERTEX
  8
3
  5
889
 10
186.566
 20
234.711
 30
0.000000
  70
    32
  0
VERTEX
  8
3
  5
88A
 10
186.638
 20
234.817
 30
0.000000
  70
    32
  0
VERTEX
  8
3
  5
88B
 10
186.706
 20
234.929
 30
0.000000
  70
    32
  0
VERTEX
  8
3
  5
88C
 10
186.770
 20
235.045
 30
0.000000
  70
    32
  0
VERTEX
  8
3
  5
88D
 10
186.830
 20
235.165
 30
0.000000
  70
    32
  0
VERTEX
  8
3
  5
88E
 10
186.885
 20
235.290
 30
0.000000
  70
    32
  0
VERTEX
  8
3
  5
88F
 10
186.937
 20
235.418
 30
0.000000
  70
    32
  0
VERTEX
  8
3
  5
890
 10
186.983
 20
235.549
 30
0.000000
  70
    32
  0
VERTEX
  8
3
  5
891
 10
187.026
 20
235.684
 30
0.000000
  70
    32
  0
VERTEX
  8
3
  5
892
 10
187.063
 20
235.821
 30
0.000000
  70
    32
  0
VERTEX
  8
3
  5
893
 10
187.096
 20
235.961
 30
0.000000
  70
    32
  0
VERTEX
  8
3
  5
894
 10
187.123
 20
236.103
 30
0.000000
  70
    32
  0
VERTEX
  8
3
  5
895
 10
187.146
 20
236.247
 30
0.000000
  70
    32
  0
VERTEX
  8
3
  5
896
 10
187.164
 20
236.392
 30
0.000000
  70
    32
  0
VERTEX
  8
3
  5
897
 10
187.177
 20
236.538
 30
0.000000
  70
    32
  0
VERTEX
  8
3
  5
898
 10
187.184
 20
236.685
 30
0.000000
  70
    32
  0
VERTEX
  8
3
  5
899
 10
187.187
 20
236.832
 30
0.000000
  70
    32
  0
VERTEX
  8
3
  5
89A
 10
187.184
 20
236.979
 30
0.000000
  70
    32
  0
VERTEX
  8
3
  5
89B
 10
187.177
 20
237.126
 30
0.000000
  70
    32
  0
VERTEX
  8
3
  5
89C
 10
187.164
 20
237.272
 30
0.000000
  70
    32
  0
VERTEX
  8
3
  5
89D
 10
187.146
 20
237.417
 30
0.000000
  70
    32
  0
VERTEX
  8
3
  5
89E
 10
187.123
 20
237.561
 30
0.000000
  70
    32
  0
VERTEX
  8
3
  5
89F
 10
187.096
 20
237.703
 30
0.000000
  70
    32
  0
VERTEX
  8
3
  5
8A0
 10
187.063
 20
237.843
 30
0.000000
  70
    32
  0
VERTEX
  8
3
  5
8A1
 10
187.026
 20
237.980
 30
0.000000
  70
    32
  0
VERTEX
  8
3
  5
8A2
 10
186.983
 20
238.115
 30
0.000000
  70
    32
  0
VERTEX
  8
3
  5
8A3
 10
186.937
 20
238.246
 30
0.000000
  70
    32
  0
VERTEX
  8
3
  5
8A4
 10
186.885
 20
238.374
 30
0.000000
  70
    32
  0
VERTEX
  8
3
  5
8A5
 10
186.830
 20
238.499
 30
0.000000
  70
    32
  0
VERTEX
  8
3
  5
8A6
 10
186.770
 20
238.619
 30
0.000000
  70
    32
  0
VERTEX
  8
3
  5
8A7
 10
186.706
 20
238.735
 30
0.000000
  70
    32
  0
VERTEX
  8
3
  5
8A8
 10
186.638
 20
238.847
 30
0.000000
  70
    32
  0
VERTEX
  8
3
  5
8A9
 10
186.566
 20
238.953
 30
0.000000
  70
    32
  0
VERTEX
  8
3
  5
8AA
 10
186.490
 20
239.055
 30
0.000000
  70
    32
  0
VERTEX
  8
3
  5
8AB
 10
186.411
 20
239.151
 30
0.000000
  70
    32
  0
VERTEX
  8
3
  5
8AC
 10
186.329
 20
239.242
 30
0.000000
  70
    32
  0
VERTEX
  8
3
  5
8AD
 10
186.244
 20
239.326
 30
0.000000
  70
    32
  0
VERTEX
  8
3
  5
8AE
 10
186.156
 20
239.405
 30
0.000000
  70
    32
  0
VERTEX
  8
3
  5
8AF
 10
186.066
 20
239.478
 30
0.000000
  70
    32
  0
VERTEX
  8
3
  5
8B0
 10
185.973
 20
239.544
 30
0.000000
  70
    32
  0
VERTEX
  8
3
  5
8B1
 10
185.878
 20
239.604
 30
0.000000
  70
    32
  0
VERTEX
  8
3
  5
8B2
 10
185.780
 20
239.657
 30
0.000000
  70
    32
  0
VERTEX
  8
3
  5
8B3
 10
185.682
 20
239.703
 30
0.000000
  70
    32
  0
VERTEX
  8
3
  5
8B4
 10
185.581
 20
239.742
 30
0.000000
  70
    32
  0
VERTEX
  8
3
  5
8B5
 10
185.480
 20
239.774
 30
0.000000
  70
    32
  0
VERTEX
  8
3
  5
8B6
 10
185.377
 20
239.799
 30
0.000000
  70
    32
  0
VERTEX
  8
3
  5
8B7
 10
185.274
 20
239.817
 30
0.000000
  70
    32
  0
VERTEX
  8
3
  5
8B8
 10
185.170
 20
239.828
 30
0.000000
  70
    32
  0
VERTEX
  8
3
  5
8B9
 10
185.066
 20
239.832
 30
0.000000
  70
    32
  0
SEQEND
  8
3
  5
8BA
  0
POLYLINE
  5
4D0
  8
0
 10
185.06572109797639
 20
239.2319433427871
 30
0.0
 66
     1
 70
     8
  0
VERTEX
  8
0
  5
8BB
 10
185.066
 20
239.232
 30
0.000000
  70
    32
  0
VERTEX
  8
0
  5
8BC
 10
184.982
 20
239.229
 30
0.000000
  70
    32
  0
VERTEX
  8
0
  5
8BD
 10
184.899
 20
239.220
 30
0.000000
  70
    32
  0
VERTEX
  8
0
  5
8BE
 10
184.817
 20
239.206
 30
0.000000
  70
    32
  0
VERTEX
  8
0
  5
8BF
 10
184.735
 20
239.186
 30
0.000000
  70
    32
  0
VERTEX
  8
0
  5
8C0
 10
184.653
 20
239.160
 30
0.000000
  70
    32
  0
VERTEX
  8
0
  5
8C1
 10
184.573
 20
239.129
 30
0.000000
  70
    32
  0
VERTEX
  8
0
  5
8C2
 10
184.494
 20
239.092
 30
0.000000
  70
    32
  0
VERTEX
  8
0
  5
8C3
 10
184.416
 20
239.049
 30
0.000000
  70
    32
  0
VERTEX
  8
0
  5
8C4
 10
184.340
 20
239.002
 30
0.000000
  70
    32
  0
VERTEX
  8
0
  5
8C5
 10
184.266
 20
238.949
 30
0.000000
  70
    32
  0
VERTEX
  8
0
  5
8C6
 10
184.193
 20
238.890
 30
0.000000
  70
    32
  0
VERTEX
  8
0
  5
8C7
 10
184.123
 20
238.827
 30
0.000000
  70
    32
  0
VERTEX
  8
0
  5
8C8
 10
184.055
 20
238.760
 30
0.000000
  70
    32
  0
VERTEX
  8
0
  5
8C9
 10
183.989
 20
238.687
 30
0.000000
  70
    32
  0
VERTEX
  8
0
  5
8CA
 10
183.926
 20
238.610
 30
0.000000
  70
    32
  0
VERTEX
  8
0
  5
8CB
 10
183.866
 20
238.529
 30
0.000000
  70
    32
  0
VERTEX
  8
0
  5
8CC
 10
183.808
 20
238.444
 30
0.000000
  70
    32
  0
VERTEX
  8
0
  5
8CD
 10
183.754
 20
238.354
 30
0.000000
  70
    32
  0
VERTEX
  8
0
  5
8CE
 10
183.703
 20
238.262
 30
0.000000
  70
    32
  0
VERTEX
  8
0
  5
8CF
 10
183.655
 20
238.165
 30
0.000000
  70
    32
  0
VERTEX
  8
0
  5
8D0
 10
183.610
 20
238.066
 30
0.000000
  70
    32
  0
VERTEX
  8
0
  5
8D1
 10
183.569
 20
237.963
 30
0.000000
  70
    32
  0
VERTEX
  8
0
  5
8D2
 10
183.532
 20
237.858
 30
0.000000
  70
    32
  0
VERTEX
  8
0
  5
8D3
 10
183.498
 20
237.750
 30
0.000000
  70
    32
  0
VERTEX
  8
0
  5
8D4
 10
183.468
 20
237.640
 30
0.000000
  70
    32
  0
VERTEX
  8
0
  5
8D5
 10
183.442
 20
237.529
 30
0.000000
  70
    32
  0
VERTEX
  8
0
  5
8D6
 10
183.420
 20
237.415
 30
0.000000
  70
    32
  0
VERTEX
  8
0
  5
8D7
 10
183.401
 20
237.300
 30
0.000000
  70
    32
  0
VERTEX
  8
0
  5
8D8
 10
183.387
 20
237.184
 30
0.000000
  70
    32
  0
VERTEX
  8
0
  5
8D9
 10
183.377
 20
237.067
 30
0.000000
  70
    32
  0
VERTEX
  8
0
  5
8DA
 10
183.371
 20
236.950
 30
0.000000
  70
    32
  0
VERTEX
  8
0
  5
8DB
 10
183.369
 20
236.832
 30
0.000000
  70
    32
  0
VERTEX
  8
0
  5
8DC
 10
183.371
 20
236.714
 30
0.000000
  70
    32
  0
VERTEX
  8
0
  5
8DD
 10
183.377
 20
236.597
 30
0.000000
  70
    32
  0
VERTEX
  8
0
  5
8DE
 10
183.387
 20
236.480
 30
0.000000
  70
    32
  0
VERTEX
  8
0
  5
8DF
 10
183.401
 20
236.364
 30
0.000000
  70
    32
  0
VERTEX
  8
0
  5
8E0
 10
183.420
 20
236.249
 30
0.000000
  70
    32
  0
VERTEX
  8
0
  5
8E1
 10
183.442
 20
236.135
 30
0.000000
  70
    32
  0
VERTEX
  8
0
  5
8E2
 10
183.468
 20
236.023
 30
0.000000
  70
    32
  0
VERTEX
  8
0
  5
8E3
 10
183.498
 20
235.914
 30
0.000000
  70
    32
  0
VERTEX
  8
0
  5
8E4
 10
183.532
 20
235.806
 30
0.000000
  70
    32
  0
VERTEX
  8
0
  5
8E5
 10
183.569
 20
235.701
 30
0.000000
  70
    32
  0
VERTEX
  8
0
  5
8E6
 10
183.610
 20
235.598
 30
0.000000
  70
    32
  0
VERTEX
  8
0
  5
8E7
 10
183.655
 20
235.499
 30
0.000000
  70
    32
  0
VERTEX
  8
0
  5
8E8
 10
183.703
 20
235.402
 30
0.000000
  70
    32
  0
VERTEX
  8
0
  5
8E9
 10
183.754
 20
235.309
 30
0.000000
  70
    32
  0
VERTEX
  8
0
  5
8EA
 10
183.808
 20
235.220
 30
0.000000
  70
    32
  0
VERTEX
  8
0
  5
8EB
 10
183.866
 20
235.135
 30
0.000000
  70
    32
  0
VERTEX
  8
0
  5
8EC
 10
183.926
 20
235.054
 30
0.000000
  70
    32
  0
VERTEX
  8
0
  5
8ED
 10
183.989
 20
234.977
 30
0.000000
  70
    32
  0
VERTEX
  8
0
  5
8EE
 10
184.055
 20
234.904
 30
0.000000
  70
    32
  0
VERTEX
  8
0
  5
8EF
 10
184.123
 20
234.836
 30
0.000000
  70
    32
  0
VERTEX
  8
0
  5
8F0
 10
184.193
 20
234.773
 30
0.000000
  70
    32
  0
VERTEX
  8
0
  5
8F1
 10
184.266
 20
234.715
 30
0.000000
  70
    32
  0
VERTEX
  8
0
  5
8F2
 10
184.340
 20
234.662
 30
0.000000
  70
    32
  0
VERTEX
  8
0
  5
8F3
 10
184.416
 20
234.615
 30
0.000000
  70
    32
  0
VERTEX
  8
0
  5
8F4
 10
184.494
 20
234.572
 30
0.000000
  70
    32
  0
VERTEX
  8
0
  5
8F5
 10
184.573
 20
234.535
 30
0.000000
  70
    32
  0
VERTEX
  8
0
  5
8F6
 10
184.653
 20
234.504
 30
0.000000
  70
    32
  0
VERTEX
  8
0
  5
8F7
 10
184.735
 20
234.478
 30
0.000000
  70
    32
  0
VERTEX
  8
0
  5
8F8
 10
184.817
 20
234.458
 30
0.000000
  70
    32
  0
VERTEX
  8
0
  5
8F9
 10
184.899
 20
234.443
 30
0.000000
  70
    32
  0
VERTEX
  8
0
  5
8FA
 10
184.982
 20
234.435
 30
0.000000
  70
    32
  0
VERTEX
  8
0
  5
8FB
 10
185.066
 20
234.432
 30
0.000000
  70
    32
  0
VERTEX
  8
0
  5
8FC
 10
185.149
 20
234.435
 30
0.000000
  70
    32
  0
VERTEX
  8
0
  5
8FD
 10
185.232
 20
234.443
 30
0.000000
  70
    32
  0
VERTEX
  8
0
  5
8FE
 10
185.315
 20
234.458
 30
0.000000
  70
    32
  0
VERTEX
  8
0
  5
8FF
 10
185.397
 20
234.478
 30
0.000000
  70
    32
  0
VERTEX
  8
0
  5
900
 10
185.478
 20
234.504
 30
0.000000
  70
    32
  0
VERTEX
  8
0
  5
901
 10
185.558
 20
234.535
 30
0.000000
  70
    32
  0
VERTEX
  8
0
  5
902
 10
185.637
 20
234.572
 30
0.000000
  70
    32
  0
VERTEX
  8
0
  5
903
 10
185.715
 20
234.615
 30
0.000000
  70
    32
  0
VERTEX
  8
0
  5
904
 10
185.791
 20
234.662
 30
0.000000
  70
    32
  0
VERTEX
  8
0
  5
905
 10
185.866
 20
234.715
 30
0.000000
  70
    32
  0
VERTEX
  8
0
  5
906
 10
185.938
 20
234.773
 30
0.000000
  70
    32
  0
VERTEX
  8
0
  5
907
 10
186.009
 20
234.836
 30
0.000000
  70
    32
  0
VERTEX
  8
0
  5
908
 10
186.077
 20
234.904
 30
0.000000
  70
    32
  0
VERTEX
  8
0
  5
909
 10
186.142
 20
234.977
 30
0.000000
  70
    32
  0
VERTEX
  8
0
  5
90A
 10
186.205
 20
235.054
 30
0.000000
  70
    32
  0
VERTEX
  8
0
  5
90B
 10
186.266
 20
235.135
 30
0.000000
  70
    32
  0
VERTEX
  8
0
  5
90C
 10
186.323
 20
235.220
 30
0.000000
  70
    32
  0
VERTEX
  8
0
  5
90D
 10
186.378
 20
235.309
 30
0.000000
  70
    32
  0
VERTEX
  8
0
  5
90E
 10
186.429
 20
235.402
 30
0.000000
  70
    32
  0
VERTEX
  8
0
  5
90F
 10
186.477
 20
235.499
 30
0.000000
  70
    32
  0
VERTEX
  8
0
  5
910
 10
186.521
 20
235.598
 30
0.000000
  70
    32
  0
VERTEX
  8
0
  5
911
 10
186.562
 20
235.701
 30
0.000000
  70
    32
  0
VERTEX
  8
0
  5
912
 10
186.600
 20
235.806
 30
0.000000
  70
    32
  0
VERTEX
  8
0
  5
913
 10
186.634
 20
235.914
 30
0.000000
  70
    32
  0
VERTEX
  8
0
  5
914
 10
186.664
 20
236.023
 30
0.000000
  70
    32
  0
VERTEX
  8
0
  5
915
 10
186.690
 20
236.135
 30
0.000000
  70
    32
  0
VERTEX
  8
0
  5
916
 10
186.712
 20
236.249
 30
0.000000
  70
    32
  0
VERTEX
  8
0
  5
917
 10
186.730
 20
236.364
 30
0.000000
  70
    32
  0
VERTEX
  8
0
  5
918
 10
186.744
 20
236.480
 30
0.000000
  70
    32
  0
VERTEX
  8
0
  5
919
 10
186.755
 20
236.597
 30
0.000000
  70
    32
  0
VERTEX
  8
0
  5
91A
 10
186.761
 20
236.714
 30
0.000000
  70
    32
  0
VERTEX
  8
0
  5
91B
 10
186.763
 20
236.832
 30
0.000000
  70
    32
  0
VERTEX
  8
0
  5
91C
 10
186.761
 20
236.950
 30
0.000000
  70
    32
  0
VERTEX
  8
0
  5
91D
 10
186.755
 20
237.067
 30
0.000000
  70
    32
  0
VERTEX
  8
0
  5
91E
 10
186.744
 20
237.184
 30
0.000000
  70
    32
  0
VERTEX
  8
0
  5
91F
 10
186.730
 20
237.300
 30
0.000000
  70
    32
  0
VERTEX
  8
0
  5
920
 10
186.712
 20
237.415
 30
0.000000
  70
    32
  0
VERTEX
  8
0
  5
921
 10
186.690
 20
237.529
 30
0.000000
  70
    32
  0
VERTEX
  8
0
  5
922
 10
186.664
 20
237.640
 30
0.000000
  70
    32
  0
VERTEX
  8
0
  5
923
 10
186.634
 20
237.750
 30
0.000000
  70
    32
  0
VERTEX
  8
0
  5
924
 10
186.600
 20
237.858
 30
0.000000
  70
    32
  0
VERTEX
  8
0
  5
925
 10
186.562
 20
237.963
 30
0.000000
  70
    32
  0
VERTEX
  8
0
  5
926
 10
186.521
 20
238.066
 30
0.000000
  70
    32
  0
VERTEX
  8
0
  5
927
 10
186.477
 20
238.165
 30
0.000000
  70
    32
  0
VERTEX
  8
0
  5
928
 10
186.429
 20
238.262
 30
0.000000
  70
    32
  0
VERTEX
  8
0
  5
929
 10
186.378
 20
238.354
 30
0.000000
  70
    32
  0
VERTEX
  8
0
  5
92A
 10
186.323
 20
238.444
 30
0.000000
  70
    32
  0
VERTEX
  8
0
  5
92B
 10
186.266
 20
238.529
 30
0.000000
  70
    32
  0
VERTEX
  8
0
  5
92C
 10
186.205
 20
238.610
 30
0.000000
  70
    32
  0
VERTEX
  8
0
  5
92D
 10
186.142
 20
238.687
 30
0.000000
  70
    32
  0
VERTEX
  8
0
  5
92E
 10
186.077
 20
238.760
 30
0.000000
  70
    32
  0
VERTEX
  8
0
  5
92F
 10
186.009
 20
238.827
 30
0.000000
  70
    32
  0
VERTEX
  8
0
  5
930
 10
185.938
 20
238.890
 30
0.000000
  70
    32
  0
VERTEX
  8
0
  5
931
 10
185.866
 20
238.949
 30
0.000000
  70
    32
  0
VERTEX
  8
0
  5
932
 10
185.791
 20
239.002
 30
0.000000
  70
    32
  0
VERTEX
  8
0
  5
933
 10
185.715
 20
239.049
 30
0.000000
  70
    32
  0
VERTEX
  8
0
  5
934
 10
185.637
 20
239.092
 30
0.000000
  70
    32
  0
VERTEX
  8
0
  5
935
 10
185.558
 20
239.129
 30
0.000000
  70
    32
  0
VERTEX
  8
0
  5
936
 10
185.478
 20
239.160
 30
0.000000
  70
    32
  0
VERTEX
  8
0
  5
937
 10
185.397
 20
239.186
 30
0.000000
  70
    32
  0
VERTEX
  8
0
  5
938
 10
185.315
 20
239.206
 30
0.000000
  70
    32
  0
VERTEX
  8
0
  5
939
 10
185.232
 20
239.220
 30
0.000000
  70
    32
  0
VERTEX
  8
0
  5
93A
 10
185.149
 20
239.229
 30
0.000000
  70
    32
  0
VERTEX
  8
0
  5
93B
 10
185.066
 20
239.232
 30
0.000000
  70
    32
  0
SEQEND
  8
0
  5
93C
  0
LINE
  5
4D1
  8
0
 10
195.6731012437055
 20
243.3319433427871
 30
0.0
 11
195.67310124370539
 21
183.3319433427871
 31
0.0
  0
LINE
  5
4D2
  8
1
 10
188.626381544384
 20
236.8319433427871
 30
0.0
 11
182.01539161016581
 21
236.8319433427871
 31
0.0
  0
CIRCLE
  5
4D3
  8
0
 10
189.45834095223191
 20
228.3319433427871
 30
0.0
 40
2.749999999998209
  0
LINE
  5
4D4
  8
1
 10
189.45834095223191
 20
232.3687931175717
 30
0.0
 11
189.45834095223191
 21
224.22099816245139
 31
0.0
  0
POLYLINE
  5
4D5
  8
3
 10
185.06572109797639
 20
192.8319433427871
 30
0.0
 66
     1
 70
     8
  0
VERTEX
  8
3
  5
93D
 10
185.066
 20
192.832
 30
0.000000
  70
    32
  0
VERTEX
  8
3
  5
93E
 10
184.962
 20
192.828
 30
0.000000
  70
    32
  0
VERTEX
  8
3
  5
93F
 10
184.858
 20
192.817
 30
0.000000
  70
    32
  0
VERTEX
  8
3
  5
940
 10
184.754
 20
192.799
 30
0.000000
  70
    32
  0
VERTEX
  8
3
  5
941
 10
184.652
 20
192.774
 30
0.000000
  70
    32
  0
VERTEX
  8
3
  5
942
 10
184.550
 20
192.742
 30
0.000000
  70
    32
  0
VERTEX
  8
3
  5
943
 10
184.450
 20
192.703
 30
0.000000
  70
    32
  0
VERTEX
  8
3
  5
944
 10
184.351
 20
192.657
 30
0.000000
  70
    32
  0
VERTEX
  8
3
  5
945
 10
184.254
 20
192.604
 30
0.000000
  70
    32
  0
VERTEX
  8
3
  5
946
 10
184.159
 20
192.544
 30
0.000000
  70
    32
  0
VERTEX
  8
3
  5
947
 10
184.066
 20
192.478
 30
0.000000
  70
    32
  0
VERTEX
  8
3
  5
948
 10
183.975
 20
192.405
 30
0.000000
  70
    32
  0
VERTEX
  8
3
  5
949
 10
183.887
 20
192.326
 30
0.000000
  70
    32
  0
VERTEX
  8
3
  5
94A
 10
183.802
 20
192.242
 30
0.000000
  70
    32
  0
VERTEX
  8
3
  5
94B
 10
183.720
 20
192.151
 30
0.000000
  70
    32
  0
VERTEX
  8
3
  5
94C
 10
183.641
 20
192.055
 30
0.000000
  70
    32
  0
VERTEX
  8
3
  5
94D
 10
183.566
 20
191.953
 30
0.000000
  70
    32
  0
VERTEX
  8
3
  5
94E
 10
183.494
 20
191.847
 30
0.000000
  70
    32
  0
VERTEX
  8
3
  5
94F
 10
183.426
 20
191.735
 30
0.000000
  70
    32
  0
VERTEX
  8
3
  5
950
 10
183.362
 20
191.619
 30
0.000000
  70
    32
  0
VERTEX
  8
3
  5
951
 10
183.302
 20
191.499
 30
0.000000
  70
    32
  0
VERTEX
  8
3
  5
952
 10
183.246
 20
191.374
 30
0.000000
  70
    32
  0
VERTEX
  8
3
  5
953
 10
183.195
 20
191.246
 30
0.000000
  70
    32
  0
VERTEX
  8
3
  5
954
 10
183.148
 20
191.115
 30
0.000000
  70
    32
  0
VERTEX
  8
3
  5
955
 10
183.106
 20
190.980
 30
0.000000
  70
    32
  0
VERTEX
  8
3
  5
956
 10
183.068
 20
190.843
 30
0.000000
  70
    32
  0
VERTEX
  8
3
  5
957
 10
183.036
 20
190.703
 30
0.000000
  70
    32
  0
VERTEX
  8
3
  5
958
 10
183.008
 20
190.561
 30
0.000000
  70
    32
  0
VERTEX
  8
3
  5
959
 10
182.985
 20
190.417
 30
0.000000
  70
    32
  0
VERTEX
  8
3
  5
95A
 10
182.967
 20
190.272
 30
0.000000
  70
    32
  0
VERTEX
  8
3
  5
95B
 10
182.955
 20
190.126
 30
0.000000
  70
    32
  0
VERTEX
  8
3
  5
95C
 10
182.947
 20
189.979
 30
0.000000
  70
    32
  0
VERTEX
  8
3
  5
95D
 10
182.944
 20
189.832
 30
0.000000
  70
    32
  0
VERTEX
  8
3
  5
95E
 10
182.947
 20
189.685
 30
0.000000
  70
    32
  0
VERTEX
  8
3
  5
95F
 10
182.955
 20
189.538
 30
0.000000
  70
    32
  0
VERTEX
  8
3
  5
960
 10
182.967
 20
189.392
 30
0.000000
  70
    32
  0
VERTEX
  8
3
  5
961
 10
182.985
 20
189.247
 30
0.000000
  70
    32
  0
VERTEX
  8
3
  5
962
 10
183.008
 20
189.103
 30
0.000000
  70
    32
  0
VERTEX
  8
3
  5
963
 10
183.036
 20
188.961
 30
0.000000
  70
    32
  0
VERTEX
  8
3
  5
964
 10
183.068
 20
188.821
 30
0.000000
  70
    32
  0
VERTEX
  8
3
  5
965
 10
183.106
 20
188.684
 30
0.000000
  70
    32
  0
VERTEX
  8
3
  5
966
 10
183.148
 20
188.549
 30
0.000000
  70
    32
  0
VERTEX
  8
3
  5
967
 10
183.195
 20
188.418
 30
0.000000
  70
    32
  0
VERTEX
  8
3
  5
968
 10
183.246
 20
188.290
 30
0.000000
  70
    32
  0
VERTEX
  8
3
  5
969
 10
183.302
 20
188.165
 30
0.000000
  70
    32
  0
VERTEX
  8
3
  5
96A
 10
183.362
 20
188.045
 30
0.000000
  70
    32
  0
VERTEX
  8
3
  5
96B
 10
183.426
 20
187.929
 30
0.000000
  70
    32
  0
VERTEX
  8
3
  5
96C
 10
183.494
 20
187.817
 30
0.000000
  70
    32
  0
VERTEX
  8
3
  5
96D
 10
183.566
 20
187.711
 30
0.000000
  70
    32
  0
VERTEX
  8
3
  5
96E
 10
183.641
 20
187.609
 30
0.000000
  70
    32
  0
VERTEX
  8
3
  5
96F
 10
183.720
 20
187.513
 30
0.000000
  70
    32
  0
VERTEX
  8
3
  5
970
 10
183.802
 20
187.422
 30
0.000000
  70
    32
  0
VERTEX
  8
3
  5
971
 10
183.887
 20
187.338
 30
0.000000
  70
    32
  0
VERTEX
  8
3
  5
972
 10
183.975
 20
187.259
 30
0.000000
  70
    32
  0
VERTEX
  8
3
  5
973
 10
184.066
 20
187.186
 30
0.000000
  70
    32
  0
VERTEX
  8
3
  5
974
 10
184.159
 20
187.120
 30
0.000000
  70
    32
  0
VERTEX
  8
3
  5
975
 10
184.254
 20
187.060
 30
0.000000
  70
    32
  0
VERTEX
  8
3
  5
976
 10
184.351
 20
187.007
 30
0.000000
  70
    32
  0
VERTEX
  8
3
  5
977
 10
184.450
 20
186.961
 30
0.000000
  70
    32
  0
VERTEX
  8
3
  5
978
 10
184.550
 20
186.922
 30
0.000000
  70
    32
  0
VERTEX
  8
3
  5
979
 10
184.652
 20
186.890
 30
0.000000
  70
    32
  0
VERTEX
  8
3
  5
97A
 10
184.754
 20
186.864
 30
0.000000
  70
    32
  0
VERTEX
  8
3
  5
97B
 10
184.858
 20
186.846
 30
0.000000
  70
    32
  0
VERTEX
  8
3
  5
97C
 10
184.962
 20
186.836
 30
0.000000
  70
    32
  0
VERTEX
  8
3
  5
97D
 10
185.066
 20
186.832
 30
0.000000
  70
    32
  0
VERTEX
  8
3
  5
97E
 10
185.170
 20
186.836
 30
0.000000
  70
    32
  0
VERTEX
  8
3
  5
97F
 10
185.274
 20
186.846
 30
0.000000
  70
    32
  0
VERTEX
  8
3
  5
980
 10
185.377
 20
186.864
 30
0.000000
  70
    32
  0
VERTEX
  8
3
  5
981
 10
185.480
 20
186.890
 30
0.000000
  70
    32
  0
VERTEX
  8
3
  5
982
 10
185.581
 20
186.922
 30
0.000000
  70
    32
  0
VERTEX
  8
3
  5
983
 10
185.682
 20
186.961
 30
0.000000
  70
    32
  0
VERTEX
  8
3
  5
984
 10
185.780
 20
187.007
 30
0.000000
  70
    32
  0
VERTEX
  8
3
  5
985
 10
185.878
 20
187.060
 30
0.000000
  70
    32
  0
VERTEX
  8
3
  5
986
 10
185.973
 20
187.120
 30
0.000000
  70
    32
  0
VERTEX
  8
3
  5
987
 10
186.066
 20
187.186
 30
0.000000
  70
    32
  0
VERTEX
  8
3
  5
988
 10
186.156
 20
187.259
 30
0.000000
  70
    32
  0
VERTEX
  8
3
  5
989
 10
186.244
 20
187.338
 30
0.000000
  70
    32
  0
VERTEX
  8
3
  5
98A
 10
186.329
 20
187.422
 30
0.000000
  70
    32
  0
VERTEX
  8
3
  5
98B
 10
186.411
 20
187.513
 30
0.000000
  70
    32
  0
VERTEX
  8
3
  5
98C
 10
186.490
 20
187.609
 30
0.000000
  70
    32
  0
VERTEX
  8
3
  5
98D
 10
186.566
 20
187.711
 30
0.000000
  70
    32
  0
VERTEX
  8
3
  5
98E
 10
186.638
 20
187.817
 30
0.000000
  70
    32
  0
VERTEX
  8
3
  5
98F
 10
186.706
 20
187.929
 30
0.000000
  70
    32
  0
VERTEX
  8
3
  5
990
 10
186.770
 20
188.045
 30
0.000000
  70
    32
  0
VERTEX
  8
3
  5
991
 10
186.830
 20
188.165
 30
0.000000
  70
    32
  0
VERTEX
  8
3
  5
992
 10
186.885
 20
188.290
 30
0.000000
  70
    32
  0
VERTEX
  8
3
  5
993
 10
186.937
 20
188.418
 30
0.000000
  70
    32
  0
VERTEX
  8
3
  5
994
 10
186.983
 20
188.549
 30
0.000000
  70
    32
  0
VERTEX
  8
3
  5
995
 10
187.026
 20
188.684
 30
0.000000
  70
    32
  0
VERTEX
  8
3
  5
996
 10
187.063
 20
188.821
 30
0.000000
  70
    32
  0
VERTEX
  8
3
  5
997
 10
187.096
 20
188.961
 30
0.000000
  70
    32
  0
VERTEX
  8
3
  5
998
 10
187.123
 20
189.103
 30
0.000000
  70
    32
  0
VERTEX
  8
3
  5
999
 10
187.146
 20
189.247
 30
0.000000
  70
    32
  0
VERTEX
  8
3
  5
99A
 10
187.164
 20
189.392
 30
0.000000
  70
    32
  0
VERTEX
  8
3
  5
99B
 10
187.177
 20
189.538
 30
0.000000
  70
    32
  0
VERTEX
  8
3
  5
99C
 10
187.184
 20
189.685
 30
0.000000
  70
    32
  0
VERTEX
  8
3
  5
99D
 10
187.187
 20
189.832
 30
0.000000
  70
    32
  0
VERTEX
  8
3
  5
99E
 10
187.184
 20
189.979
 30
0.000000
  70
    32
  0
VERTEX
  8
3
  5
99F
 10
187.177
 20
190.126
 30
0.000000
  70
    32
  0
VERTEX
  8
3
  5
9A0
 10
187.164
 20
190.272
 30
0.000000
  70
    32
  0
VERTEX
  8
3
  5
9A1
 10
187.146
 20
190.417
 30
0.000000
  70
    32
  0
VERTEX
  8
3
  5
9A2
 10
187.123
 20
190.561
 30
0.000000
  70
    32
  0
VERTEX
  8
3
  5
9A3
 10
187.096
 20
190.703
 30
0.000000
  70
    32
  0
VERTEX
  8
3
  5
9A4
 10
187.063
 20
190.843
 30
0.000000
  70
    32
  0
VERTEX
  8
3
  5
9A5
 10
187.026
 20
190.980
 30
0.000000
  70
    32
  0
VERTEX
  8
3
  5
9A6
 10
186.983
 20
191.115
 30
0.000000
  70
    32
  0
VERTEX
  8
3
  5
9A7
 10
186.937
 20
191.246
 30
0.000000
  70
    32
  0
VERTEX
  8
3
  5
9A8
 10
186.885
 20
191.374
 30
0.000000
  70
    32
  0
VERTEX
  8
3
  5
9A9
 10
186.830
 20
191.499
 30
0.000000
  70
    32
  0
VERTEX
  8
3
  5
9AA
 10
186.770
 20
191.619
 30
0.000000
  70
    32
  0
VERTEX
  8
3
  5
9AB
 10
186.706
 20
191.735
 30
0.000000
  70
    32
  0
VERTEX
  8
3
  5
9AC
 10
186.638
 20
191.847
 30
0.000000
  70
    32
  0
VERTEX
  8
3
  5
9AD
 10
186.566
 20
191.953
 30
0.000000
  70
    32
  0
VERTEX
  8
3
  5
9AE
 10
186.490
 20
192.055
 30
0.000000
  70
    32
  0
VERTEX
  8
3
  5
9AF
 10
186.411
 20
192.151
 30
0.000000
  70
    32
  0
VERTEX
  8
3
  5
9B0
 10
186.329
 20
192.242
 30
0.000000
  70
    32
  0
VERTEX
  8
3
  5
9B1
 10
186.244
 20
192.326
 30
0.000000
  70
    32
  0
VERTEX
  8
3
  5
9B2
 10
186.156
 20
192.405
 30
0.000000
  70
    32
  0
VERTEX
  8
3
  5
9B3
 10
186.066
 20
192.478
 30
0.000000
  70
    32
  0
VERTEX
  8
3
  5
9B4
 10
185.973
 20
192.544
 30
0.000000
  70
    32
  0
VERTEX
  8
3
  5
9B5
 10
185.878
 20
192.604
 30
0.000000
  70
    32
  0
VERTEX
  8
3
  5
9B6
 10
185.780
 20
192.657
 30
0.000000
  70
    32
  0
VERTEX
  8
3
  5
9B7
 10
185.682
 20
192.703
 30
0.000000
  70
    32
  0
VERTEX
  8
3
  5
9B8
 10
185.581
 20
192.742
 30
0.000000
  70
    32
  0
VERTEX
  8
3
  5
9B9
 10
185.480
 20
192.774
 30
0.000000
  70
    32
  0
VERTEX
  8
3
  5
9BA
 10
185.377
 20
192.799
 30
0.000000
  70
    32
  0
VERTEX
  8
3
  5
9BB
 10
185.274
 20
192.817
 30
0.000000
  70
    32
  0
VERTEX
  8
3
  5
9BC
 10
185.170
 20
192.828
 30
0.000000
  70
    32
  0
VERTEX
  8
3
  5
9BD
 10
185.066
 20
192.832
 30
0.000000
  70
    32
  0
SEQEND
  8
3
  5
9BE
  0
LINE
  5
4D6
  8
1
 10
185.06572109797639
 20
194.2270635356787
 30
0.0
 11
185.06572109797639
 21
185.2735839668083
 31
0.0
  0
CIRCLE
  5
4D7
  8
0
 10
189.45834095223191
 20
198.3319433427871
 30
0.0
 40
2.749999999998209
  0
LINE
  5
4D8
  8
1
 10
189.45834095223191
 20
202.36879311757161
 30
0.0
 11
189.45834095223191
 21
194.22099816245139
 31
0.0
  0
LINE
  5
4D9
  8
1
 10
188.626381544384
 20
189.8319433427871
 30
0.0
 11
182.01539161016581
 21
189.8319433427871
 31
0.0
  0
POLYLINE
  5
4DA
  8
0
 10
185.06572109797639
 20
192.2319433427871
 30
0.0
 66
     1
 70
     8
  0
VERTEX
  8
0
  5
9BF
 10
185.066
 20
192.232
 30
0.000000
  70
    32
  0
VERTEX
  8
0
  5
9C0
 10
184.982
 20
192.229
 30
0.000000
  70
    32
  0
VERTEX
  8
0
  5
9C1
 10
184.899
 20
192.220
 30
0.000000
  70
    32
  0
VERTEX
  8
0
  5
9C2
 10
184.817
 20
192.206
 30
0.000000
  70
    32
  0
VERTEX
  8
0
  5
9C3
 10
184.735
 20
192.186
 30
0.000000
  70
    32
  0
VERTEX
  8
0
  5
9C4
 10
184.653
 20
192.160
 30
0.000000
  70
    32
  0
VERTEX
  8
0
  5
9C5
 10
184.573
 20
192.129
 30
0.000000
  70
    32
  0
VERTEX
  8
0
  5
9C6
 10
184.494
 20
192.092
 30
0.000000
  70
    32
  0
VERTEX
  8
0
  5
9C7
 10
184.416
 20
192.049
 30
0.000000
  70
    32
  0
VERTEX
  8
0
  5
9C8
 10
184.340
 20
192.002
 30
0.000000
  70
    32
  0
VERTEX
  8
0
  5
9C9
 10
184.266
 20
191.949
 30
0.000000
  70
    32
  0
VERTEX
  8
0
  5
9CA
 10
184.193
 20
191.890
 30
0.000000
  70
    32
  0
VERTEX
  8
0
  5
9CB
 10
184.123
 20
191.827
 30
0.000000
  70
    32
  0
VERTEX
  8
0
  5
9CC
 10
184.055
 20
191.760
 30
0.000000
  70
    32
  0
VERTEX
  8
0
  5
9CD
 10
183.989
 20
191.687
 30
0.000000
  70
    32
  0
VERTEX
  8
0
  5
9CE
 10
183.926
 20
191.610
 30
0.000000
  70
    32
  0
VERTEX
  8
0
  5
9CF
 10
183.866
 20
191.529
 30
0.000000
  70
    32
  0
VERTEX
  8
0
  5
9D0
 10
183.808
 20
191.444
 30
0.000000
  70
    32
  0
VERTEX
  8
0
  5
9D1
 10
183.754
 20
191.354
 30
0.000000
  70
    32
  0
VERTEX
  8
0
  5
9D2
 10
183.703
 20
191.262
 30
0.000000
  70
    32
  0
VERTEX
  8
0
  5
9D3
 10
183.655
 20
191.165
 30
0.000000
  70
    32
  0
VERTEX
  8
0
  5
9D4
 10
183.610
 20
191.066
 30
0.000000
  70
    32
  0
VERTEX
  8
0
  5
9D5
 10
183.569
 20
190.963
 30
0.000000
  70
    32
  0
VERTEX
  8
0
  5
9D6
 10
183.532
 20
190.858
 30
0.000000
  70
    32
  0
VERTEX
  8
0
  5
9D7
 10
183.498
 20
190.750
 30
0.000000
  70
    32
  0
VERTEX
  8
0
  5
9D8
 10
183.468
 20
190.640
 30
0.000000
  70
    32
  0
VERTEX
  8
0
  5
9D9
 10
183.442
 20
190.529
 30
0.000000
  70
    32
  0
VERTEX
  8
0
  5
9DA
 10
183.420
 20
190.415
 30
0.000000
  70
    32
  0
VERTEX
  8
0
  5
9DB
 10
183.401
 20
190.300
 30
0.000000
  70
    32
  0
VERTEX
  8
0
  5
9DC
 10
183.387
 20
190.184
 30
0.000000
  70
    32
  0
VERTEX
  8
0
  5
9DD
 10
183.377
 20
190.067
 30
0.000000
  70
    32
  0
VERTEX
  8
0
  5
9DE
 10
183.371
 20
189.950
 30
0.000000
  70
    32
  0
VERTEX
  8
0
  5
9DF
 10
183.369
 20
189.832
 30
0.000000
  70
    32
  0
VERTEX
  8
0
  5
9E0
 10
183.371
 20
189.714
 30
0.000000
  70
    32
  0
VERTEX
  8
0
  5
9E1
 10
183.377
 20
189.597
 30
0.000000
  70
    32
  0
VERTEX
  8
0
  5
9E2
 10
183.387
 20
189.480
 30
0.000000
  70
    32
  0
VERTEX
  8
0
  5
9E3
 10
183.401
 20
189.364
 30
0.000000
  70
    32
  0
VERTEX
  8
0
  5
9E4
 10
183.420
 20
189.249
 30
0.000000
  70
    32
  0
VERTEX
  8
0
  5
9E5
 10
183.442
 20
189.135
 30
0.000000
  70
    32
  0
VERTEX
  8
0
  5
9E6
 10
183.468
 20
189.023
 30
0.000000
  70
    32
  0
VERTEX
  8
0
  5
9E7
 10
183.498
 20
188.914
 30
0.000000
  70
    32
  0
VERTEX
  8
0
  5
9E8
 10
183.532
 20
188.806
 30
0.000000
  70
    32
  0
VERTEX
  8
0
  5
9E9
 10
183.569
 20
188.701
 30
0.000000
  70
    32
  0
VERTEX
  8
0
  5
9EA
 10
183.610
 20
188.598
 30
0.000000
  70
    32
  0
VERTEX
  8
0
  5
9EB
 10
183.655
 20
188.499
 30
0.000000
  70
    32
  0
VERTEX
  8
0
  5
9EC
 10
183.703
 20
188.402
 30
0.000000
  70
    32
  0
VERTEX
  8
0
  5
9ED
 10
183.754
 20
188.309
 30
0.000000
  70
    32
  0
VERTEX
  8
0
  5
9EE
 10
183.808
 20
188.220
 30
0.000000
  70
    32
  0
VERTEX
  8
0
  5
9EF
 10
183.866
 20
188.135
 30
0.000000
  70
    32
  0
VERTEX
  8
0
  5
9F0
 10
183.926
 20
188.054
 30
0.000000
  70
    32
  0
VERTEX
  8
0
  5
9F1
 10
183.989
 20
187.977
 30
0.000000
  70
    32
  0
VERTEX
  8
0
  5
9F2
 10
184.055
 20
187.904
 30
0.000000
  70
    32
  0
VERTEX
  8
0
  5
9F3
 10
184.123
 20
187.836
 30
0.000000
  70
    32
  0
VERTEX
  8
0
  5
9F4
 10
184.193
 20
187.773
 30
0.000000
  70
    32
  0
VERTEX
  8
0
  5
9F5
 10
184.266
 20
187.715
 30
0.000000
  70
    32
  0
VERTEX
  8
0
  5
9F6
 10
184.340
 20
187.662
 30
0.000000
  70
    32
  0
VERTEX
  8
0
  5
9F7
 10
184.416
 20
187.615
 30
0.000000
  70
    32
  0
VERTEX
  8
0
  5
9F8
 10
184.494
 20
187.572
 30
0.000000
  70
    32
  0
VERTEX
  8
0
  5
9F9
 10
184.573
 20
187.535
 30
0.000000
  70
    32
  0
VERTEX
  8
0
  5
9FA
 10
184.653
 20
187.504
 30
0.000000
  70
    32
  0
VERTEX
  8
0
  5
9FB
 10
184.735
 20
187.478
 30
0.000000
  70
    32
  0
VERTEX
  8
0
  5
9FC
 10
184.817
 20
187.458
 30
0.000000
  70
    32
  0
VERTEX
  8
0
  5
9FD
 10
184.899
 20
187.443
 30
0.000000
  70
    32
  0
VERTEX
  8
0
  5
9FE
 10
184.982
 20
187.435
 30
0.000000
  70
    32
  0
VERTEX
  8
0
  5
9FF
 10
185.066
 20
187.432
 30
0.000000
  70
    32
  0
VERTEX
  8
0
  5
A00
 10
185.149
 20
187.435
 30
0.000000
  70
    32
  0
VERTEX
  8
0
  5
A01
 10
185.232
 20
187.443
 30
0.000000
  70
    32
  0
VERTEX
  8
0
  5
A02
 10
185.315
 20
187.458
 30
0.000000
  70
    32
  0
VERTEX
  8
0
  5
A03
 10
185.397
 20
187.478
 30
0.000000
  70
    32
  0
VERTEX
  8
0
  5
A04
 10
185.478
 20
187.504
 30
0.000000
  70
    32
  0
VERTEX
  8
0
  5
A05
 10
185.558
 20
187.535
 30
0.000000
  70
    32
  0
VERTEX
  8
0
  5
A06
 10
185.637
 20
187.572
 30
0.000000
  70
    32
  0
VERTEX
  8
0
  5
A07
 10
185.715
 20
187.615
 30
0.000000
  70
    32
  0
VERTEX
  8
0
  5
A08
 10
185.791
 20
187.662
 30
0.000000
  70
    32
  0
VERTEX
  8
0
  5
A09
 10
185.866
 20
187.715
 30
0.000000
  70
    32
  0
VERTEX
  8
0
  5
A0A
 10
185.938
 20
187.773
 30
0.000000
  70
    32
  0
VERTEX
  8
0
  5
A0B
 10
186.009
 20
187.836
 30
0.000000
  70
    32
  0
VERTEX
  8
0
  5
A0C
 10
186.077
 20
187.904
 30
0.000000
  70
    32
  0
VERTEX
  8
0
  5
A0D
 10
186.142
 20
187.977
 30
0.000000
  70
    32
  0
VERTEX
  8
0
  5
A0E
 10
186.205
 20
188.054
 30
0.000000
  70
    32
  0
VERTEX
  8
0
  5
A0F
 10
186.266
 20
188.135
 30
0.000000
  70
    32
  0
VERTEX
  8
0
  5
A10
 10
186.323
 20
188.220
 30
0.000000
  70
    32
  0
VERTEX
  8
0
  5
A11
 10
186.378
 20
188.309
 30
0.000000
  70
    32
  0
VERTEX
  8
0
  5
A12
 10
186.429
 20
188.402
 30
0.000000
  70
    32
  0
VERTEX
  8
0
  5
A13
 10
186.477
 20
188.499
 30
0.000000
  70
    32
  0
VERTEX
  8
0
  5
A14
 10
186.521
 20
188.598
 30
0.000000
  70
    32
  0
VERTEX
  8
0
  5
A15
 10
186.562
 20
188.701
 30
0.000000
  70
    32
  0
VERTEX
  8
0
  5
A16
 10
186.600
 20
188.806
 30
0.000000
  70
    32
  0
VERTEX
  8
0
  5
A17
 10
186.634
 20
188.914
 30
0.000000
  70
    32
  0
VERTEX
  8
0
  5
A18
 10
186.664
 20
189.023
 30
0.000000
  70
    32
  0
VERTEX
  8
0
  5
A19
 10
186.690
 20
189.135
 30
0.000000
  70
    32
  0
VERTEX
  8
0
  5
A1A
 10
186.712
 20
189.249
 30
0.000000
  70
    32
  0
VERTEX
  8
0
  5
A1B
 10
186.730
 20
189.364
 30
0.000000
  70
    32
  0
VERTEX
  8
0
  5
A1C
 10
186.744
 20
189.480
 30
0.000000
  70
    32
  0
VERTEX
  8
0
  5
A1D
 10
186.755
 20
189.597
 30
0.000000
  70
    32
  0
VERTEX
  8
0
  5
A1E
 10
186.761
 20
189.714
 30
0.000000
  70
    32
  0
VERTEX
  8
0
  5
A1F
 10
186.763
 20
189.832
 30
0.000000
  70
    32
  0
VERTEX
  8
0
  5
A20
 10
186.761
 20
189.950
 30
0.000000
  70
    32
  0
VERTEX
  8
0
  5
A21
 10
186.755
 20
190.067
 30
0.000000
  70
    32
  0
VERTEX
  8
0
  5
A22
 10
186.744
 20
190.184
 30
0.000000
  70
    32
  0
VERTEX
  8
0
  5
A23
 10
186.730
 20
190.300
 30
0.000000
  70
    32
  0
VERTEX
  8
0
  5
A24
 10
186.712
 20
190.415
 30
0.000000
  70
    32
  0
VERTEX
  8
0
  5
A25
 10
186.690
 20
190.529
 30
0.000000
  70
    32
  0
VERTEX
  8
0
  5
A26
 10
186.664
 20
190.640
 30
0.000000
  70
    32
  0
VERTEX
  8
0
  5
A27
 10
186.634
 20
190.750
 30
0.000000
  70
    32
  0
VERTEX
  8
0
  5
A28
 10
186.600
 20
190.858
 30
0.000000
  70
    32
  0
VERTEX
  8
0
  5
A29
 10
186.562
 20
190.963
 30
0.000000
  70
    32
  0
VERTEX
  8
0
  5
A2A
 10
186.521
 20
191.066
 30
0.000000
  70
    32
  0
VERTEX
  8
0
  5
A2B
 10
186.477
 20
191.165
 30
0.000000
  70
    32
  0
VERTEX
  8
0
  5
A2C
 10
186.429
 20
191.262
 30
0.000000
  70
    32
  0
VERTEX
  8
0
  5
A2D
 10
186.378
 20
191.354
 30
0.000000
  70
    32
  0
VERTEX
  8
0
  5
A2E
 10
186.323
 20
191.444
 30
0.000000
  70
    32
  0
VERTEX
  8
0
  5
A2F
 10
186.266
 20
191.529
 30
0.000000
  70
    32
  0
VERTEX
  8
0
  5
A30
 10
186.205
 20
191.610
 30
0.000000
  70
    32
  0
VERTEX
  8
0
  5
A31
 10
186.142
 20
191.687
 30
0.000000
  70
    32
  0
VERTEX
  8
0
  5
A32
 10
186.077
 20
191.760
 30
0.000000
  70
    32
  0
VERTEX
  8
0
  5
A33
 10
186.009
 20
191.827
 30
0.000000
  70
    32
  0
VERTEX
  8
0
  5
A34
 10
185.938
 20
191.890
 30
0.000000
  70
    32
  0
VERTEX
  8
0
  5
A35
 10
185.866
 20
191.949
 30
0.000000
  70
    32
  0
VERTEX
  8
0
  5
A36
 10
185.791
 20
192.002
 30
0.000000
  70
    32
  0
VERTEX
  8
0
  5
A37
 10
185.715
 20
192.049
 30
0.000000
  70
    32
  0
VERTEX
  8
0
  5
A38
 10
185.637
 20
192.092
 30
0.000000
  70
    32
  0
VERTEX
  8
0
  5
A39
 10
185.558
 20
192.129
 30
0.000000
  70
    32
  0
VERTEX
  8
0
  5
A3A
 10
185.478
 20
192.160
 30
0.000000
  70
    32
  0
VERTEX
  8
0
  5
A3B
 10
185.397
 20
192.186
 30
0.000000
  70
    32
  0
VERTEX
  8
0
  5
A3C
 10
185.315
 20
192.206
 30
0.000000
  70
    32
  0
VERTEX
  8
0
  5
A3D
 10
185.232
 20
192.220
 30
0.000000
  70
    32
  0
VERTEX
  8
0
  5
A3E
 10
185.149
 20
192.229
 30
0.000000
  70
    32
  0
VERTEX
  8
0
  5
A3F
 10
185.066
 20
192.232
 30
0.000000
  70
    32
  0
SEQEND
  8
0
  5
A40
  0
LINE
  5
4DB
  8
1
 10
117.0550939466729
 20
130.2464242407986
 30
0.0
 11
117.0550939466729
 21
143.31638110887749
 31
0.0
  0
LINE
  5
4DC
  8
1
 10
87.055093946672969
 20
130.2464242407986
 30
0.0
 11
87.055093946672969
 21
143.31638110887749
 31
0.0
  0
LINE
  5
4DE
  8
0
 10
72.055093946672969
 20
121.6125005360993
 30
0.0
 11
72.055093946672983
 21
151.6125005360993
 31
0.0
  0
LINE
  5
4DF
  8
0
 10
72.055093946672969
 20
121.6125005360993
 30
0.0
 11
132.05509394667291
 21
121.6125005360993
 31
0.0
  0
LINE
  5
4E0
  8
1
 10
137.05509394667291
 20
136.6125005360993
 30
0.0
 11
67.055093946672969
 21
136.6125005360993
 31
0.0
  0
LINE
  5
4E1
  8
0
 10
72.055093946672983
 20
151.6125005360993
 30
0.0
 11
132.05509394667291
 21
151.6125005360993
 31
0.0
  0
LINE
  5
4E2
  8
0
 10
72.055093946672969
 20
139.6125005360993
 30
0.0
 11
132.05509394667291
 21
139.6125005360993
 31
0.0
  0
LINE
  5
4E3
  8
0
 10
72.055093946672969
 20
133.6125005360993
 30
0.0
 11
132.05509394667291
 21
133.6125005360993
 31
0.0
  0
CIRCLE
  5
4E4
  8
0
 10
117.0550939466729
 20
136.6125005360993
 30
0.0
 40
2.75
  0
CIRCLE
  5
4E5
  8
0
 10
87.055093946672969
 20
136.6125005360993
 30
0.0
 40
2.75
  0
TEXT
  5
5A0
  8
0
 62
     3
 10
0.0
 20
0.0
 30
0.0
 40
10.0
  1
L6-AJC3060N
  7
STANDARD1
  0
ENDSEC
  0
EOF
