  0
SECTION
  2
HEADER
  9
$ACADVER
  1
AC1009
  9
$INSBASE
 10
0.0
 20
0.0
 30
0.0
  9
$EXTMIN
 10
0.0
 20
-1.4802182810368341
 30
0.0
  9
$EXTMAX
 10
218.61206522778801
 20
204.41066480602049
 30
0.0
  9
$LIMMIN
 10
0.0
 20
0.0
  9
$LIMMAX
 10
385.0
 20
270.0
  9
$ORTHOMODE
 70
     1
  9
$REGENMODE
 70
     1
  9
$FILLMODE
 70
     1
  9
$QTEXTMODE
 70
     0
  9
$MIRRTEXT
 70
     0
  9
$DRAGMODE
 70
     2
  9
$LTSCALE
 40
10.0
  9
$OSMODE
 70
  3071
  9
$ATTMODE
 70
     1
  9
$TEXTSIZE
 40
1.5
  9
$TRACEWID
 40
0.05
  9
$TEXTSTYLE
  7
STANDARD
  9
$CLAYER
  8
0
  9
$CELTYPE
  6
BYLAYER
  9
$CECOLOR
 62
   256
  9
$DIMSCALE
 40
1.0
  9
$DIMASZ
 40
3.0
  9
$DIMEXO
 40
2.0
  9
$DIMDLI
 40
10.0
  9
$DIMRND
 40
0.0
  9
$DIMDLE
 40
0.0
  9
$DIMEXE
 40
2.0
  9
$DIMTP
 40
0.0
  9
$DIMTM
 40
0.0
  9
$DIMTXT
 40
3.0
  9
$DIMCEN
 40
0.09
  9
$DIMTSZ
 40
0.0
  9
$DIMTOL
 70
     0
  9
$DIMLIM
 70
     0
  9
$DIMTIH
 70
     0
  9
$DIMTOH
 70
     0
  9
$DIMSE1
 70
     0
  9
$DIMSE2
 70
     0
  9
$DIMTAD
 70
     1
  9
$DIMZIN
 70
     0
  9
$DIMBLK
  1

  9
$DIMASO
 70
     0
  9
$DIMSHO
 70
     0
  9
$DIMPOST
  1

  9
$DIMAPOST
  1

  9
$DIMALT
 70
     0
  9
$DIMALTD
 70
     2
  9
$DIMALTF
 40
25.399999999999999
  9
$DIMLFAC
 40
1.0
  9
$DIMTOFL
 70
     1
  9
$DIMTVP
 40
1.6000000000000001
  9
$DIMTIX
 70
     1
  9
$DIMSOXD
 70
     0
  9
$DIMSAH
 70
     0
  9
$DIMBLK1
  1

  9
$DIMBLK2
  1

  9
$DIMSTYLE
  2
STANDARD
  9
$DIMCLRD
 70
     0
  9
$DIMCLRE
 70
     0
  9
$DIMCLRT
 70
     0
  9
$DIMTFAC
 40
1.0
  9
$DIMGAP
 40
1.0
  9
$LUNITS
 70
     2
  9
$LUPREC
 70
     2
  9
$SKETCHINC
 40
0.1
  9
$FILLETRAD
 40
0.0
  9
$AUNITS
 70
     0
  9
$AUPREC
 70
     2
  9
$MENU
  1
E:\r13\win\SUPPORT\ACAD
  9
$ELEVATION
 40
0.0
  9
$PELEVATION
 40
0.0
  9
$THICKNESS
 40
0.0
  9
$LIMCHECK
 70
     0
  9
$BLIPMODE
 70
     0
  9
$CHAMFERA
 40
1.0
  9
$CHAMFERB
 40
1.0
  9
$SKPOLY
 70
     0
  9
$TDCREATE
 40
2450305.4050315968
  9
$TDUPDATE
 40
2456597.5614833799
  9
$TDINDWG
 40
0.0009534259
  9
$TDUSRTIMER
 40
0.0009534259
  9
$USRTIMER
 70
     1
  9
$ANGBASE
 50
0.0
  9
$ANGDIR
 70
     0
  9
$PDMODE
 70
     0
  9
$PDSIZE
 40
0.0
  9
$PLINEWID
 40
0.0
  9
$COORDS
 70
     1
  9
$SPLFRAME
 70
     0
  9
$SPLINETYPE
 70
     6
  9
$SPLINESEGS
 70
     8
  9
$ATTDIA
 70
     0
  9
$ATTREQ
 70
     1
  9
$HANDLING
 70
     1
  9
$HANDSEED
  5
3DB
  9
$SURFTAB1
 70
     6
  9
$SURFTAB2
 70
     6
  9
$SURFTYPE
 70
     6
  9
$SURFU
 70
     6
  9
$SURFV
 70
     6
  9
$UCSNAME
  2

  9
$UCSORG
 10
0.0
 20
0.0
 30
0.0
  9
$UCSXDIR
 10
1.0
 20
0.0
 30
0.0
  9
$UCSYDIR
 10
0.0
 20
1.0
 30
0.0
  9
$PUCSNAME
  2

  9
$PUCSORG
 10
0.0
 20
0.0
 30
0.0
  9
$PUCSXDIR
 10
1.0
 20
0.0
 30
0.0
  9
$PUCSYDIR
 10
0.0
 20
1.0
 30
0.0
  9
$USERI1
 70
     3
  9
$USERI2
 70
     1
  9
$USERI3
 70
     0
  9
$USERI4
 70
     1
  9
$USERI5
 70
     0
  9
$USERR1
 40
1.0
  9
$USERR2
 40
3.0
  9
$USERR3
 40
3.0
  9
$USERR4
 40
3.0
  9
$USERR5
 40
10.0
  9
$WORLDVIEW
 70
     1
  9
$SHADEDGE
 70
     3
  9
$SHADEDIF
 70
    70
  9
$TILEMODE
 70
     1
  9
$MAXACTVP
 70
    16
  9
$PLIMCHECK
 70
     0
  9
$PEXTMIN
 10
1.0000000000000000E+020
 20
1.0000000000000000E+020
 30
1.0000000000000000E+020
  9
$PEXTMAX
 10
-1.0000000000000000E+020
 20
-1.0000000000000000E+020
 30
-1.0000000000000000E+020
  9
$PLIMMIN
 10
0.0
 20
0.0
  9
$PLIMMAX
 10
12.0
 20
9.0
  9
$UNITMODE
 70
     0
  9
$VISRETAIN
 70
     0
  9
$PLINEGEN
 70
     0
  9
$PSLTSCALE
 70
     0
  0
ENDSEC
  0
SECTION
  2
TABLES
  0
TABLE
  2
VPORT
 70
     1
  0
VPORT
  2
*ACTIVE
 70
     0
 10
0.0
 20
0.0
 11
1.0
 21
1.0
 12
192.49412581440311
 22
163.44375437976839
 13
0.0
 23
0.0
 14
5.0
 24
5.0
 15
10.0
 25
10.0
 16
0.0
 26
0.0
 36
1.0
 17
0.0
 27
0.0
 37
0.0
 40
332.99088632058158
 41
1.9089595375722539
 42
50.0
 43
0.0
 44
0.0
 50
0.0
 51
0.0
 71
     0
 72
  1000
 73
     1
 74
     0
 75
     0
 76
     0
 77
     0
 78
     1
  0
ENDTAB
  0
TABLE
  2
LTYPE
 70
     3
  0
LTYPE
  2
CONTINUOUS
 70
     0
  3
Solid Line
 72
    65
 73
     0
 40
0.0
  0
LTYPE
  2
CENTER
 70
     0
  3
____ _ ____ _ ____ _ ____ _ ____ _ ____ _ ____
 72
    65
 73
     4
 40
2.0
 49
1.25
 49
-0.25
 49
0.25
 49
-0.25
  0
LTYPE
  2
PHANTOM2
 70
     0
  3
___ _ _ ___ _ _ ___ _ _ ___ _ _
 72
    65
 73
     6
 40
1.25
 49
0.625
 49
-0.125
 49
0.125
 49
-0.125
 49
0.125
 49
-0.125
  0
ENDTAB
  0
TABLE
  2
LAYER
 70
     3
  0
LAYER
  2
0
 70
     0
 62
     7
  6
CONTINUOUS
  0
LAYER
  2
1
 70
     0
 62
     1
  6
CENTER
  0
LAYER
  2
3
 70
     0
 62
     3
  6
CONTINUOUS
  0
ENDTAB
  0
TABLE
  2
STYLE
 70
     2
  0
STYLE
  2
STANDARD
 70
     0
 40
0.0
 41
1.0
 50
0.0
 71
     0
 42
1.5
  3
ROMANS
  4
EXTFONT
  0
STYLE
  2
STANDARD1
 70
     0
 40
0.0
 41
1.0
 50
0.0
 71
     0
 42
3.0
  3
txt
  4

  0
ENDTAB
  0
TABLE
  2
VIEW
 70
     0
  0
ENDTAB
  0
TABLE
  2
UCS
 70
     0
  0
ENDTAB
  0
TABLE
  2
APPID
 70
     6
  0
APPID
  2
ACAD
 70
     0
  0
APPID
  2
GENIUS_GENODEF_13
 70
     0
  0
APPID
  2
GENIUS_GENOREF_13
 70
     0
  0
APPID
  2
GENIUS_GENOBJ-N-FIL_13
 70
     0
  0
APPID
  2
ACAD_MLEADERVER
 70
     0
  0
APPID
  2
ACAD_NAV_VCDISPLAY
 70
     0
  0
ENDTAB
  0
TABLE
  2
DIMSTYLE
 70
     1
  0
DIMSTYLE
  2
STANDARD
 70
     0
  3

  4

  5

  6

  7

 40
1.0
 41
0.18
 42
0.0625
 43
0.38
 44
0.18
 45
0.0
 46
0.0
 47
0.0
 48
0.0
140
0.18
141
0.09
142
0.0
143
25.399999999999999
144
1.0
145
0.0
146
1.0
147
0.09
 71
     0
 72
     0
 73
     1
 74
     1
 75
     0
 76
     0
 77
     0
 78
     0
170
     0
171
     2
172
     0
173
     0
174
     0
175
     0
176
     0
177
     0
178
     0
  0
ENDTAB
  0
ENDSEC
  0
SECTION
  2
BLOCKS
  0
BLOCK
  8
0
  2
$MODEL_SPACE
 70
     0
 10
0.0
 20
0.0
 30
0.0
  3
$MODEL_SPACE
  1

  0
ENDBLK
  5
293
  8
0
  0
BLOCK
 67
     1
  8
0
  2
$PAPER_SPACE
 70
     0
 10
0.0
 20
0.0
 30
0.0
  3
$PAPER_SPACE
  1

  0
ENDBLK
  5
291
 67
     1
  8
0
  0
ENDSEC
  0
SECTION
  2
ENTITIES
  0
LINE
  5
164
  8
1
 10
213.61206522778781
 20
157.286622699845
 30
0.0
 11
213.61206522778781
 21
106.6446834307084
 31
0.0
  0
LINE
  5
165
  8
1
 10
144.13933124414211
 20
157.28662269937209
 30
0.0
 11
144.14003238307771
 21
106.3117633027956
 31
0.0
  0
LINE
  5
166
  8
0
 10
139.1394000171554
 20
121.9044212619156
 30
0.0
 11
139.13940001715551
 21
140.286622699845
 31
0.0
  0
LINE
  5
167
  8
0
 10
149.13940001715551
 20
140.28662269984491
 30
0.0
 11
149.13940001715551
 21
121.9044212619156
 31
0.0
1001
GENIUS_GENOREF_13
1005
0
  0
LINE
  5
168
  8
3
 10
139.88940001715551
 20
142.786622699845
 30
0.0
 11
139.88940001715551
 21
121.9044212619156
 31
0.0
  0
LINE
  5
169
  8
3
 10
148.38940001715551
 20
142.786622699845
 30
0.0
 11
148.3894000171554
 21
121.9044212619156
 31
0.0
1001
GENIUS_GENOREF_13
1005
0
  0
ARC
  5
16A
  8
0
 10
139.30847153321079
 20
117.55268128435431
 30
0.0
 40
0.5
 50
89.933793850447003
 51
205.611625043049
  0
ARC
  5
16B
  8
0
 10
153.28551654831389
 20
124.2528464051391
 30
0.0
 40
16.0
 50
205.61162504321811
 51
229.21059989814259
  0
ARC
  5
16C
  8
0
 10
144.1399636100646
 20
112.8117633023226
 30
0.0
 40
1.500000000000004
 50
204.53049603451959
 51
335.51497865670899
  0
ARC
  5
16D
  8
0
 10
144.1395888992808
 20
113.65322341945451
 30
0.0
 40
2.0
 50
229.21059989814319
 51
310.78940010185681
  0
LINE
  5
16E
  8
0
 10
147.15618406053579
 20
120.286431002621
 30
0.0
 11
141.12261597377511
 21
120.286431002621
 31
0.0
  0
LINE
  5
16F
  8
0
 10
139.1394000171554
 20
121.9044212619156
 30
0.0
 11
149.13940001715551
 21
121.9044212619156
 31
0.0
1001
GENIUS_GENOREF_13
1005
0
  0
LINE
  5
170
  8
0
 10
146.0153248305692
 20
117.35322341945459
 30
0.0
 11
142.26347520374111
 21
117.35322341945449
 31
0.0
  0
LINE
  5
171
  8
0
 10
142.13014801715531
 20
112.286622699845
 30
0.0
 11
142.66433534117601
 21
112.286622699845
 31
0.0
  0
LINE
  5
172
  8
0
 10
142.13014801715531
 20
112.286622699845
 30
0.0
 11
141.63940001715531
 21
112.77737069984499
 31
0.0
  0
LINE
  5
173
  8
0
 10
141.63940001715531
 20
112.77737069984499
 30
0.0
 11
142.13592205626151
 21
112.77737069984499
 31
0.0
  0
LINE
  5
174
  8
0
 10
141.63940001715531
 20
113.2816126667359
 30
0.0
 11
141.63940001715531
 21
112.77737069984499
 31
0.0
  0
LINE
  5
175
  8
3
 10
142.13014801715531
 20
112.7829835927931
 30
0.0
 11
142.13014801715531
 21
112.286622699845
 31
0.0
  0
LINE
  5
176
  8
0
 10
142.0517998642992
 20
117.4406356712841
 30
0.0
 11
141.52723419897291
 21
117.9629499449107
 31
0.0
  0
ARC
  5
177
  8
0
 10
142.26347520374111
 20
117.65322341945451
 30
0.0
 40
0.3
 50
225.12321856476461
 51
270.00000000000188
1001
GENIUS_GENODEF_13
1002
{
1000
HIER
1070
     0
1002
}
1002
{
1000
MANEDIT
1070
     0
1002
}
1002
{
1000
NOSEL
1070
     0
1002
}
1002
{
1000
BEHIND
1070
     0
1002
}
1002
{
1000
REACTOR
1002
}
1001
GENIUS_GENOBJ-N-FIL_13
1002
{
1000
OWNER
1000
GEN
1002
}
  0
ARC
  5
178
  8
0
 10
141.315558859531
 20
117.7503621967403
 30
0.0
 40
0.3
 50
45.123218564764713
 51
89.933793850447884
1001
GENIUS_GENODEF_13
1002
{
1000
HIER
1070
     0
1002
}
1002
{
1000
MANEDIT
1070
     0
1002
}
1002
{
1000
NOSEL
1070
     0
1002
}
1002
{
1000
BEHIND
1070
     0
1002
}
1002
{
1000
REACTOR
1002
}
1001
GENIUS_GENOBJ-N-FIL_13
1002
{
1000
OWNER
1000
GEN
1002
}
  0
ARC
  5
179
  8
0
 10
141.12261597377511
 20
120.486431002621
 30
0.0
 40
0.2
 50
189.5940682268602
 51
270.0
  0
LINE
  5
17A
  8
3
 10
142.13014801715531
 20
120.286431002621
 30
0.0
 11
142.13014801715531
 21
117.38447844495801
 31
0.0
  0
LINE
  5
17B
  8
0
 10
141.63940001715531
 20
120.286431002621
 30
0.0
 11
141.63940001715531
 21
117.8512655329825
 31
0.0
  0
LINE
  5
17C
  8
0
 10
139.1394000171554
 20
121.9044212619156
 30
0.0
 11
140.44010356232769
 21
121.1520498331994
 31
0.0
  0
ARC
  5
17D
  8
0
 10
139.93940001715549
 20
120.286431002621
 30
0.0
 40
1.0
 50
9.5940682268621398
 51
59.953442900047513
  0
LINE
  5
17E
  8
0
 10
141.3159055140423
 20
118.05036199645789
 30
0.0
 11
139.3090492907296
 21
118.0526809505505
 31
0.0
  0
LINE
  5
17F
  8
0
 10
145.61484245738561
 20
112.286622699845
 30
0.0
 11
146.14865201715531
 21
112.286622699845
 31
0.0
  0
LINE
  5
180
  8
0
 10
146.14865201715531
 20
112.286622699845
 30
0.0
 11
146.63940001715531
 21
112.77737069984499
 31
0.0
  0
LINE
  5
181
  8
0
 10
146.1432557423002
 20
112.77737069984499
 30
0.0
 11
146.63940001715531
 21
112.77737069984499
 31
0.0
  0
LINE
  5
182
  8
3
 10
146.14865201715531
 20
112.7826161986346
 30
0.0
 11
146.14865201715531
 21
112.286622699845
 31
0.0
  0
LINE
  5
183
  8
0
 10
146.63940001715531
 20
113.2812116785842
 30
0.0
 11
146.63940001715531
 21
112.77737069984499
 31
0.0
  0
ARC
  5
184
  8
0
 10
148.97096613529951
 20
117.5532234194545
 30
0.0
 40
0.5
 50
334.39059729825073
 51
90.0
1001
GENIUS_GENOREF_13
1005
0
  0
LINE
  5
185
  8
0
 10
149.13940001715551
 20
121.9044212619156
 30
0.0
 11
147.8386964719831
 21
121.1520498331994
 31
0.0
1001
GENIUS_GENOREF_13
1005
0
  0
LINE
  5
186
  8
0
 10
146.75172093364051
 20
117.965355453811
 30
0.0
 11
146.22745686492451
 21
117.44109138509801
 31
0.0
  0
ARC
  5
187
  8
0
 10
146.96385296799579
 20
117.7532234194544
 30
0.0
 40
0.3
 50
90.000000000000895
 51
134.99999999983891
1001
GENIUS_GENODEF_13
1002
{
1000
HIER
1070
     0
1002
}
1002
{
1000
MANEDIT
1070
     0
1002
}
1002
{
1000
NOSEL
1070
     0
1002
}
1002
{
1000
BEHIND
1070
     0
1002
}
1002
{
1000
REACTOR
1002
}
1001
GENIUS_GENOBJ-N-FIL_13
1002
{
1000
OWNER
1000
GEN
1002
}
  0
ARC
  5
188
  8
0
 10
146.0153248305692
 20
117.6532234194546
 30
0.0
 40
0.3
 50
270.00000000000199
 51
314.99999999983902
1001
GENIUS_GENODEF_13
1002
{
1000
HIER
1070
     0
1002
}
1002
{
1000
MANEDIT
1070
     0
1002
}
1002
{
1000
NOSEL
1070
     0
1002
}
1002
{
1000
BEHIND
1070
     0
1002
}
1002
{
1000
REACTOR
1002
}
1001
GENIUS_GENOBJ-N-FIL_13
1002
{
1000
OWNER
1000
GEN
1002
}
  0
ARC
  5
189
  8
0
 10
147.15618406053579
 20
120.486431002621
 30
0.0
 40
0.2
 50
270.0
 51
350.40593177313968
  0
LINE
  5
18A
  8
0
 10
146.63940001715531
 20
120.286431002621
 30
0.0
 11
146.63940001715531
 21
117.85303453732649
 31
0.0
  0
LINE
  5
18B
  8
3
 10
146.14865201715531
 20
120.286431002621
 30
0.0
 11
146.14865201715531
 21
117.3844784449583
 31
0.0
  0
ARC
  5
18C
  8
0
 10
148.33940001715541
 20
120.286431002621
 30
0.0
 40
1.0
 50
120.04655709995249
 51
170.40593177313781
  0
LINE
  5
18D
  8
0
 10
148.97096613529951
 20
118.0532234194545
 30
0.0
 11
146.96385296799579
 21
118.0532234194545
 31
0.0
1001
GENIUS_GENOREF_13
1005
0
  0
ARC
  5
18E
  8
0
 10
134.99366125024781
 20
124.2528464051391
 30
0.0
 40
16.0
 50
310.78940010185738
 51
334.39059729808298
1001
GENIUS_GENOREF_13
1005
0
  0
CIRCLE
  5
18F
  8
0
 10
144.13940001715551
 20
140.286622699845
 30
0.0
 40
2.7000000000000002
  0
LINE
  5
190
  8
0
 10
148.18940001715549
 20
147.286622699845
 30
0.0
 11
140.08940001715541
 21
147.286622699845
 31
0.0
1001
GENIUS_GENOREF_13
1005
0
  0
LINE
  5
191
  8
0
 10
140.38940001715531
 20
152.286622699845
 30
0.0
 11
147.88940001715531
 21
152.286622699845
 31
0.0
  0
LINE
  5
192
  8
0
 10
148.38940001715531
 20
151.786622699845
 30
0.0
 11
139.88940001715531
 21
151.786622699845
 31
0.0
  0
LINE
  5
193
  8
0
 10
141.63940001715531
 20
147.286622699845
 30
0.0
 11
146.63940001715531
 21
147.286622699845
 31
0.0
  0
LINE
  5
194
  8
0
 10
139.88940001715551
 20
142.786622699845
 30
0.0
 11
139.13940001715551
 21
140.286622699845
 31
0.0
  0
LINE
  5
195
  8
0
 10
143.11959611443689
 20
142.786622699845
 30
0.0
 11
139.88940001715551
 21
142.786622699845
 31
0.0
  0
LINE
  5
196
  8
0
 10
141.43940001715549
 20
140.286622699845
 30
0.0
 11
139.13940001715551
 21
140.286622699845
 31
0.0
  0
LINE
  5
197
  8
0
 10
140.08940001715541
 20
147.286622699845
 30
0.0
 11
139.88940001715551
 21
147.08662269984501
 31
0.0
  0
LINE
  5
198
  8
0
 10
139.88940001715531
 20
147.286622699845
 30
0.0
 11
141.63940001715531
 21
147.286622699845
 31
0.0
  0
LINE
  5
199
  8
0
 10
139.88940001715531
 20
151.786622699845
 30
0.0
 11
140.38940001715531
 21
152.286622699845
 31
0.0
  0
LINE
  5
19A
  8
0
 10
139.88940001715531
 20
151.786622699845
 30
0.0
 11
139.88940001715531
 21
147.286622699845
 31
0.0
  0
LINE
  5
19B
  8
0
 10
139.88940001715551
 20
147.08662269984501
 30
0.0
 11
139.88940001715551
 21
142.786622699845
 31
0.0
  0
LINE
  5
19C
  8
0
 10
148.38940001715551
 20
142.786622699845
 30
0.0
 11
149.13940001715551
 21
140.28662269984491
 31
0.0
1001
GENIUS_GENOREF_13
1005
0
  0
LINE
  5
19D
  8
0
 10
148.38940001715551
 20
142.786622699845
 30
0.0
 11
145.15920391987399
 21
142.786622699845
 31
0.0
1001
GENIUS_GENOREF_13
1005
0
  0
LINE
  5
19E
  8
0
 10
149.13940001715551
 20
140.286622699845
 30
0.0
 11
146.8394000171555
 21
140.286622699845
 31
0.0
1001
GENIUS_GENOREF_13
1005
0
  0
LINE
  5
19F
  8
0
 10
148.38940001715551
 20
147.08662269984501
 30
0.0
 11
148.18940001715549
 21
147.286622699845
 31
0.0
1001
GENIUS_GENOREF_13
1005
0
  0
LINE
  5
1A0
  8
0
 10
146.63940001715531
 20
147.286622699845
 30
0.0
 11
148.38940001715531
 21
147.286622699845
 31
0.0
  0
LINE
  5
1A1
  8
0
 10
147.88940001715531
 20
152.286622699845
 30
0.0
 11
148.38940001715531
 21
151.786622699845
 31
0.0
  0
LINE
  5
1A2
  8
0
 10
148.38940001715531
 20
151.786622699845
 30
0.0
 11
148.38940001715531
 21
147.286622699845
 31
0.0
  0
LINE
  5
1A3
  8
0
 10
148.38940001715551
 20
147.08662269984501
 30
0.0
 11
148.38940001715551
 21
142.786622699845
 31
0.0
1001
GENIUS_GENOREF_13
1005
0
  0
LINE
  5
1A7
  8
0
 10
218.61206522778801
 20
140.286622699845
 30
0.0
 11
208.61206522778801
 21
140.286622699845
 31
0.0
1001
GENIUS_GENOREF_13
1005
0
  0
LINE
  5
1A8
  8
0
 10
217.86206522778801
 20
142.786622699845
 30
0.0
 11
209.36206522778801
 21
142.78662269984511
 31
0.0
1001
GENIUS_GENOREF_13
1005
0
  0
LINE
  5
1A9
  8
0
 10
217.86206522778781
 20
151.786622699845
 30
0.0
 11
209.36206522778781
 21
151.786622699845
 31
0.0
  0
LINE
  5
1AA
  8
0
 10
209.86206522778781
 20
152.286622699845
 30
0.0
 11
217.36206522778781
 21
152.286622699845
 31
0.0
  0
LINE
  5
1AB
  8
0
 10
211.11206522778781
 20
147.286622699845
 30
0.0
 11
216.11206522778781
 21
147.286622699845
 31
0.0
  0
LINE
  5
1AC
  8
0
 10
217.66206522778791
 20
147.286622699845
 30
0.0
 11
209.56206522778791
 21
147.286622699845
 31
0.0
1001
GENIUS_GENOREF_13
1005
0
  0
LINE
  5
1AD
  8
0
 10
216.62884927116829
 20
120.286431002621
 30
0.0
 11
210.59528118440761
 21
120.286431002621
 31
0.0
  0
LINE
  5
1AE
  8
0
 10
208.61206522778789
 20
121.9044212619156
 30
0.0
 11
218.61206522778801
 21
121.9044212619156
 31
0.0
1001
GENIUS_GENOREF_13
1005
0
  0
LINE
  5
1AF
  8
0
 10
218.11245645413379
 20
111.6446834307084
 30
0.0
 11
215.78786377474671
 21
111.6446834307084
 31
0.0
  0
LINE
  5
1B0
  8
0
 10
218.11245645413391
 20
118.05322341945541
 30
0.0
 11
201.11245645413391
 21
118.05322341945541
 31
0.0
  0
LINE
  5
1B1
  8
3
 10
209.36206522778801
 20
142.786622699845
 30
0.0
 11
209.36206522778801
 21
121.9044212619156
 31
0.0
  0
LINE
  5
1B2
  8
0
 10
208.61206522778789
 20
121.9044212619156
 30
0.0
 11
208.61206522778801
 21
140.286622699845
 31
0.0
  0
LINE
  5
1B3
  8
0
 10
206.06245645413529
 20
111.6446834307084
 30
0.0
 11
201.11245645413379
 21
111.6446834307084
 31
0.0
  0
LINE
  5
1B4
  8
0
 10
201.11245645413391
 20
111.6446834307084
 30
0.0
 11
201.11245645413391
 21
118.05322341945541
 31
0.0
  0
ARC
  5
1B5
  8
0
 10
210.59528118440761
 20
120.486431002621
 30
0.0
 40
0.2
 50
189.5940682268602
 51
270.0
  0
LINE
  5
1B6
  8
0
 10
211.28954629202809
 20
111.64468343070661
 30
0.0
 11
209.1624564541338
 21
111.64468343070661
 31
0.0
  0
ARC
  5
1B7
  8
0
 10
209.41206522778791
 20
120.286431002621
 30
0.0
 40
1.0
 50
9.5940682268635253
 51
59.953442900047513
  0
LINE
  5
1B8
  8
0
 10
208.61206522778789
 20
121.9044212619156
 30
0.0
 11
209.91276877296011
 21
121.1520498331994
 31
0.0
  0
ARC
  5
1B9
  8
0
 10
207.61302004704299
 20
112.8032234194537
 30
0.0
 40
1.500000000000004
 50
215.08472302120899
 51
324.88969072530728
  0
ARC
  5
1BA
  8
0
 10
207.61245645413379
 20
110.27909501994191
 30
0.0
 40
2.0657520924870849
 50
41.380850822950507
 51
138.61914917704891
  0
LINE
  5
1BB
  8
0
 10
212.39714081043491
 20
112.77737069984499
 30
0.0
 11
214.68026925634081
 21
112.77737069984499
 31
0.0
  0
LINE
  5
1BC
  8
0
 10
211.7372259369958
 20
112.286622699845
 30
0.0
 11
215.34018412977991
 21
112.286622699845
 31
0.0
  0
LINE
  5
1BD
  8
3
 10
215.62131722778781
 20
120.286431002621
 30
0.0
 11
215.62131722778781
 21
118.05322341945541
 31
0.0
  0
LINE
  5
1BE
  8
0
 10
211.11206522778781
 20
120.286431002621
 30
0.0
 11
211.11206522778781
 21
117.8512655329825
 31
0.0
  0
LINE
  5
1BF
  8
3
 10
211.60281322778781
 20
120.286431002621
 30
0.0
 11
211.60281322778781
 21
118.05322341945541
 31
0.0
  0
ARC
  5
1C1
  8
0
 10
213.5387050333878
 20
110.5532234194533
 30
0.0
 40
2.5
 50
25.886129447825471
 51
154.1138705522209
  0
LINE
  5
1C2
  8
0
 10
209.36206522778781
 20
147.286622699845
 30
0.0
 11
211.11206522778781
 21
147.286622699845
 31
0.0
  0
LINE
  5
1C3
  8
0
 10
209.36206522778781
 20
151.786622699845
 30
0.0
 11
209.86206522778781
 21
152.286622699845
 31
0.0
  0
LINE
  5
1C4
  8
0
 10
209.36206522778801
 20
147.08662269984501
 30
0.0
 11
209.36206522778801
 21
142.786622699845
 31
0.0
  0
LINE
  5
1C5
  8
0
 10
209.36206522778801
 20
142.786622699845
 30
0.0
 11
208.61206522778801
 21
140.286622699845
 31
0.0
  0
LINE
  5
1C6
  8
0
 10
209.56206522778791
 20
147.286622699845
 30
0.0
 11
209.36206522778801
 21
147.08662269984501
 31
0.0
  0
LINE
  5
1C7
  8
0
 10
209.36206522778781
 20
151.786622699845
 30
0.0
 11
209.36206522778781
 21
147.286622699845
 31
0.0
  0
LINE
  5
1C8
  8
3
 10
217.86206522778801
 20
142.786622699845
 30
0.0
 11
217.86206522778789
 21
121.9044212619156
 31
0.0
1001
GENIUS_GENOREF_13
1005
0
  0
LINE
  5
1C9
  8
0
 10
218.61206522778801
 20
140.28662269984491
 30
0.0
 11
218.61206522778801
 21
121.9044212619156
 31
0.0
1001
GENIUS_GENOREF_13
1005
0
  0
LINE
  5
1CA
  8
0
 10
216.11206522778781
 20
120.286431002621
 30
0.0
 11
216.11206522778781
 21
117.85303453732649
 31
0.0
  0
ARC
  5
1CB
  8
0
 10
216.62884927116829
 20
120.486431002621
 30
0.0
 40
0.2
 50
270.0
 51
350.40593177313968
  0
ARC
  5
1CC
  8
0
 10
217.81206522778791
 20
120.286431002621
 30
0.0
 40
1.0
 50
120.04655709995249
 51
170.4059317731365
  0
LINE
  5
1CD
  8
0
 10
218.61206522778801
 20
121.9044212619156
 30
0.0
 11
217.3113616826156
 21
121.1520498331994
 31
0.0
1001
GENIUS_GENOREF_13
1005
0
  0
LINE
  5
1CE
  8
0
 10
218.11245645413391
 20
111.6446834307084
 30
0.0
 11
218.11245645413391
 21
118.05322341945541
 31
0.0
  0
LINE
  5
1CF
  8
0
 10
217.36206522778781
 20
152.286622699845
 30
0.0
 11
217.86206522778781
 21
151.786622699845
 31
0.0
  0
LINE
  5
1D0
  8
0
 10
217.86206522778801
 20
147.08662269984501
 30
0.0
 11
217.86206522778801
 21
142.786622699845
 31
0.0
1001
GENIUS_GENOREF_13
1005
0
  0
LINE
  5
1D1
  8
0
 10
217.86206522778801
 20
142.786622699845
 30
0.0
 11
218.61206522778801
 21
140.28662269984491
 31
0.0
1001
GENIUS_GENOREF_13
1005
0
  0
LINE
  5
1D2
  8
0
 10
217.86206522778801
 20
147.08662269984501
 30
0.0
 11
217.66206522778791
 21
147.286622699845
 31
0.0
1001
GENIUS_GENOREF_13
1005
0
  0
LINE
  5
1D3
  8
0
 10
216.11206522778781
 20
147.286622699845
 30
0.0
 11
217.86206522778781
 21
147.286622699845
 31
0.0
  0
LINE
  5
1D4
  8
0
 10
217.86206522778781
 20
151.786622699845
 30
0.0
 11
217.86206522778781
 21
147.286622699845
 31
0.0
  0
LINE
  5
1D6
  8
1
 10
154.13940001715531
 20
194.41066480602049
 30
0.0
 11
134.13940001715531
 21
194.41066480602049
 31
0.0
  0
LINE
  5
1D7
  8
1
 10
144.13940001715531
 20
204.41066480602049
 30
0.0
 11
144.13940001715531
 21
184.41066480602049
 31
0.0
  0
LINE
  5
1D8
  8
0
 10
142.02561743231939
 20
181.93566480601251
 30
0.0
 11
142.02561743231931
 21
189.87944828238761
 31
0.0
1001
GENIUS_GENOREF_13
1005
0
  0
LINE
  5
1D9
  8
0
 10
141.413868506017
 20
181.93566480601251
 30
0.0
 11
141.413868506017
 21
190.21883012633771
 31
0.0
1001
GENIUS_GENOREF_13
1005
0
  0
LINE
  5
1DA
  8
0
 10
146.8655691624933
 20
181.93566480601251
 30
0.0
 11
146.8655691624933
 21
190.21924478519139
 31
0.0
1001
GENIUS_GENOREF_13
1005
0
  0
LINE
  5
1DB
  8
0
 10
146.25382023619099
 20
181.93566480601251
 30
0.0
 11
146.25382023619099
 21
189.8797457891616
 31
0.0
1001
GENIUS_GENOREF_13
1005
0
  0
LINE
  5
1DC
  8
0
 10
149.4706473181997
 20
181.93566480601251
 30
0.0
 11
149.4706473181997
 21
198.93566480601251
 31
0.0
  0
LINE
  5
1DD
  8
0
 10
138.80815271611101
 20
181.93566480601251
 30
0.0
 11
138.80815271611101
 21
198.93566480601251
 31
0.0
  0
LINE
  5
1DE
  8
0
 10
138.80815271611101
 20
181.93566480601251
 30
0.0
 11
149.4706473181997
 21
181.93566480601251
 31
0.0
  0
LINE
  5
1DF
  8
0
 10
138.80815271611101
 20
198.93566480601251
 30
0.0
 11
142.01234218999781
 21
198.93566480601251
 31
0.0
  0
CIRCLE
  5
1E0
  8
0
 10
144.13940001715531
 20
194.41066480602049
 30
0.0
 40
5.0
1001
GENIUS_GENOREF_13
1005
0
  0
CIRCLE
  5
1E1
  8
0
 10
144.13940001715531
 20
194.41066480602049
 30
0.0
 40
4.25
1001
GENIUS_GENOREF_13
1005
0
  0
POLYLINE
  5
1E2
  8
0
 66
     1
 10
0.0
 20
0.0
 30
0.0
 70
     1
1001
GENIUS_GENOREF_13
1005
0
  0
VERTEX
  5
1E3
  8
0
 10
142.6960243441813
 20
196.91066480602049
 30
0.0
  0
VERTEX
  5
1E4
  8
0
 10
141.2526486712072
 20
194.41066480602049
 30
0.0
  0
VERTEX
  5
1E5
  8
0
 10
142.6960243441813
 20
191.91066480602049
 30
0.0
  0
VERTEX
  5
1E6
  8
0
 10
145.58277569012941
 20
191.91066480602049
 30
0.0
  0
VERTEX
  5
1E7
  8
0
 10
147.02615136310339
 20
194.41066480602049
 30
0.0
  0
VERTEX
  5
1E8
  8
0
 10
145.58277569012941
 20
196.91066480602049
 30
0.0
  0
SEQEND
  5
1E9
  8
0
  0
LINE
  5
1EA
  8
0
 10
141.41386850601691
 20
198.60249948570331
 30
0.0
 11
141.41386850601691
 21
198.93566480601251
 31
0.0
1001
GENIUS_GENOREF_13
1005
0
  0
LINE
  5
1EC
  8
0
 10
146.8655691624933
 20
198.60208482684959
 30
0.0
 11
146.8655691624933
 21
198.93566480601251
 31
0.0
1001
GENIUS_GENOREF_13
1005
0
  0
LINE
  5
1ED
  8
0
 10
146.2664578443129
 20
198.93566480601251
 30
0.0
 11
149.4706473181997
 21
198.93566480601251
 31
0.0
  0
TEXT
  5
34C
  8
0
 62
     3
 10
0.0
 20
0.0
 30
0.0
 40
5.0
  1
L6-AJT8
  7
STANDARD1
  0
ENDSEC
  0
EOF
