  0
SECTION
  2
HEADER
  9
$ACADVER
  1
AC1009
  9
$INSBASE
 10
0.0
 20
0.0
 30
0.0
  9
$EXTMIN
 10
0.0
 20
-2.960436562073669
 30
0.0
  9
$EXTMAX
 10
204.75131004349711
 20
167.34038080490291
 30
0.0
  9
$LIMMIN
 10
0.0
 20
0.0
  9
$LIMMAX
 10
275.0
 20
175.0
  9
$ORTHOMODE
 70
     1
  9
$REGENMODE
 70
     1
  9
$FILLMODE
 70
     1
  9
$QTEXTMODE
 70
     0
  9
$MIRRTEXT
 70
     0
  9
$DRAGMODE
 70
     2
  9
$LTSCALE
 40
10.0
  9
$OSMODE
 70
  3071
  9
$ATTMODE
 70
     1
  9
$TEXTSIZE
 40
0.2
  9
$TRACEWID
 40
0.05
  9
$TEXTSTYLE
  7
STANDARD
  9
$CLAYER
  8
0
  9
$CELTYPE
  6
BYLAYER
  9
$CECOLOR
 62
   256
  9
$DIMSCALE
 40
1.0
  9
$DIMASZ
 40
3.0
  9
$DIMEXO
 40
1.0
  9
$DIMDLI
 40
6.0
  9
$DIMRND
 40
0.0
  9
$DIMDLE
 40
0.0
  9
$DIMEXE
 40
1.0
  9
$DIMTP
 40
495.0
  9
$DIMTM
 40
0.0
  9
$DIMTXT
 40
3.0
  9
$DIMCEN
 40
0.0
  9
$DIMTSZ
 40
0.0
  9
$DIMTOL
 70
     0
  9
$DIMLIM
 70
     0
  9
$DIMTIH
 70
     0
  9
$DIMTOH
 70
     0
  9
$DIMSE1
 70
     0
  9
$DIMSE2
 70
     0
  9
$DIMTAD
 70
     1
  9
$DIMZIN
 70
     0
  9
$DIMBLK
  1

  9
$DIMASO
 70
     0
  9
$DIMSHO
 70
     0
  9
$DIMPOST
  1

  9
$DIMAPOST
  1

  9
$DIMALT
 70
     0
  9
$DIMALTD
 70
     2
  9
$DIMALTF
 40
25.399999999999999
  9
$DIMLFAC
 40
1.0
  9
$DIMTOFL
 70
     1
  9
$DIMTVP
 40
0.0
  9
$DIMTIX
 70
     1
  9
$DIMSOXD
 70
     0
  9
$DIMSAH
 70
     0
  9
$DIMBLK1
  1

  9
$DIMBLK2
  1

  9
$DIMSTYLE
  2
STANDARD
  9
$DIMCLRD
 70
     0
  9
$DIMCLRE
 70
     0
  9
$DIMCLRT
 70
     4
  9
$DIMTFAC
 40
1.0
  9
$DIMGAP
 40
1.0
  9
$LUNITS
 70
     2
  9
$LUPREC
 70
     4
  9
$SKETCHINC
 40
0.1
  9
$FILLETRAD
 40
0.0
  9
$AUNITS
 70
     0
  9
$AUPREC
 70
     0
  9
$MENU
  1
E:\r13\win\SUPPORT\ACAD
  9
$ELEVATION
 40
0.0
  9
$PELEVATION
 40
0.0
  9
$THICKNESS
 40
0.0
  9
$LIMCHECK
 70
     0
  9
$BLIPMODE
 70
     0
  9
$CHAMFERA
 40
0.0
  9
$CHAMFERB
 40
0.0
  9
$SKPOLY
 70
     0
  9
$TDCREATE
 40
2450653.5278402781
  9
$TDUPDATE
 40
2456597.5615253942
  9
$TDINDWG
 40
0.1204017245
  9
$TDUSRTIMER
 40
0.1204017245
  9
$USRTIMER
 70
     1
  9
$ANGBASE
 50
0.0
  9
$ANGDIR
 70
     0
  9
$PDMODE
 70
     0
  9
$PDSIZE
 40
0.0
  9
$PLINEWID
 40
0.0
  9
$COORDS
 70
     1
  9
$SPLFRAME
 70
     0
  9
$SPLINETYPE
 70
     6
  9
$SPLINESEGS
 70
     8
  9
$ATTDIA
 70
     0
  9
$ATTREQ
 70
     1
  9
$HANDLING
 70
     1
  9
$HANDSEED
  5
8D3
  9
$SURFTAB1
 70
     6
  9
$SURFTAB2
 70
     6
  9
$SURFTYPE
 70
     6
  9
$SURFU
 70
     6
  9
$SURFV
 70
     6
  9
$UCSNAME
  2

  9
$UCSORG
 10
0.0
 20
0.0
 30
0.0
  9
$UCSXDIR
 10
1.0
 20
0.0
 30
0.0
  9
$UCSYDIR
 10
0.0
 20
1.0
 30
0.0
  9
$PUCSNAME
  2

  9
$PUCSORG
 10
0.0
 20
0.0
 30
0.0
  9
$PUCSXDIR
 10
1.0
 20
0.0
 30
0.0
  9
$PUCSYDIR
 10
0.0
 20
1.0
 30
0.0
  9
$USERI1
 70
     4
  9
$USERI2
 70
     1
  9
$USERI3
 70
     1
  9
$USERI4
 70
     0
  9
$USERI5
 70
     0
  9
$USERR1
 40
1.0
  9
$USERR2
 40
3.0
  9
$USERR3
 40
3.0
  9
$USERR4
 40
3.0
  9
$USERR5
 40
10.0
  9
$WORLDVIEW
 70
     1
  9
$SHADEDGE
 70
     3
  9
$SHADEDIF
 70
    70
  9
$TILEMODE
 70
     1
  9
$MAXACTVP
 70
    16
  9
$PLIMCHECK
 70
     0
  9
$PEXTMIN
 10
1.0000000000000000E+020
 20
1.0000000000000000E+020
 30
1.0000000000000000E+020
  9
$PEXTMAX
 10
-1.0000000000000000E+020
 20
-1.0000000000000000E+020
 30
-1.0000000000000000E+020
  9
$PLIMMIN
 10
0.0
 20
0.0
  9
$PLIMMAX
 10
12.0
 20
9.0
  9
$UNITMODE
 70
     0
  9
$VISRETAIN
 70
     0
  9
$PLINEGEN
 70
     0
  9
$PSLTSCALE
 70
     0
  0
ENDSEC
  0
SECTION
  2
TABLES
  0
TABLE
  2
VPORT
 70
     1
  0
VPORT
  2
*ACTIVE
 70
     0
 10
0.0
 20
0.0
 11
1.0
 21
1.0
 12
137.495804153145
 22
105.14973110994291
 13
0.0
 23
0.0
 14
5.0
 24
5.0
 15
10.0
 25
10.0
 16
0.0
 26
0.0
 36
1.0
 17
0.0
 27
0.0
 37
0.0
 40
218.28380694200069
 41
1.9089595375722539
 42
50.0
 43
0.0
 44
0.0
 50
0.0
 51
0.0
 71
     0
 72
   100
 73
     1
 74
     0
 75
     0
 76
     0
 77
     0
 78
     0
  0
ENDTAB
  0
TABLE
  2
LTYPE
 70
     3
  0
LTYPE
  2
CONTINUOUS
 70
     0
  3
Solid Line
 72
    65
 73
     0
 40
0.0
  0
LTYPE
  2
CENTER
 70
     0
  3
____ _ ____ _ ____ _ ____ _ ____ _ ____ _ ____
 72
    65
 73
     4
 40
2.0
 49
1.25
 49
-0.25
 49
0.25
 49
-0.25
  0
LTYPE
  2
PHANTOM2
 70
     0
  3
___ _ _ ___ _ _ ___ _ _ ___ _ _
 72
    65
 73
     6
 40
1.25
 49
0.625
 49
-0.125
 49
0.125
 49
-0.125
 49
0.125
 49
-0.125
  0
ENDTAB
  0
TABLE
  2
LAYER
 70
     4
  0
LAYER
  2
0
 70
     0
 62
     7
  6
CONTINUOUS
  0
LAYER
  2
11
 70
     0
 62
     3
  6
CONTINUOUS
  0
LAYER
  2
ITTEN
 70
     0
 62
     1
  6
CENTER
  0
LAYER
  2
1
 70
     0
 62
     1
  6
CENTER
  0
ENDTAB
  0
TABLE
  2
STYLE
 70
     2
  0
STYLE
  2
STANDARD
 70
     0
 40
0.0
 41
1.0
 50
0.0
 71
     0
 42
0.2
  3
simplex
  4
bigfont
  0
STYLE
  2
STANDARD1
 70
     0
 40
0.0
 41
1.0
 50
0.0
 71
     0
 42
3.0
  3
txt
  4

  0
ENDTAB
  0
TABLE
  2
VIEW
 70
     0
  0
ENDTAB
  0
TABLE
  2
UCS
 70
     0
  0
ENDTAB
  0
TABLE
  2
APPID
 70
     5
  0
APPID
  2
ACAD
 70
     0
  0
APPID
  2
GENIUS_GENODEF_13
 70
     0
  0
APPID
  2
GENIUS_GENOBJ-N-FIL_13
 70
     0
  0
APPID
  2
ACAD_MLEADERVER
 70
     0
  0
APPID
  2
ACAD_NAV_VCDISPLAY
 70
     0
  0
ENDTAB
  0
TABLE
  2
DIMSTYLE
 70
     1
  0
DIMSTYLE
  2
STANDARD
 70
     0
  3

  4

  5

  6

  7

 40
1.0
 41
0.18
 42
0.0625
 43
0.38
 44
0.18
 45
0.0
 46
0.0
 47
0.0
 48
0.0
140
0.18
141
0.09
142
0.0
143
25.399999999999999
144
1.0
145
0.0
146
1.0
147
0.09
 71
     0
 72
     0
 73
     1
 74
     1
 75
     0
 76
     0
 77
     0
 78
     0
170
     0
171
     2
172
     0
173
     0
174
     0
175
     0
176
     0
177
     0
178
     0
  0
ENDTAB
  0
ENDSEC
  0
SECTION
  2
BLOCKS
  0
BLOCK
  8
0
  2
$MODEL_SPACE
 70
     0
 10
0.0
 20
0.0
 30
0.0
  3
$MODEL_SPACE
  1

  0
ENDBLK
  5
7
  8
0
  0
BLOCK
 67
     1
  8
0
  2
$PAPER_SPACE
 70
     0
 10
0.0
 20
0.0
 30
0.0
  3
$PAPER_SPACE
  1

  0
ENDBLK
  5
A
 67
     1
  8
0
  0
BLOCK
  8
0
  2
STDGX5
 70
     0
 10
0.0
 20
0.0
 30
0.0
  3
STDGX5
  1

  0
ENDBLK
  5
1D9
  8
0
  0
ENDSEC
  0
SECTION
  2
ENTITIES
  0
INSERT
  5
46D
  8
11
  2
STDGX5
 10
346.42796014082143
 20
314.25340914057767
 30
0.0
  0
INSERT
  5
46E
  8
11
  2
STDGX5
 10
416.97259358818309
 20
356.77683177098118
 30
0.0
 41
0.5
 42
0.5
 43
0.5
  0
LINE
  5
61F
  8
0
 10
61.751310043496972
 20
109.2278808049023
 30
0.0
 11
61.751310043497028
 21
108.340380804902
 31
0.0
  0
LINE
  5
620
  8
0
 10
50.751310043497313
 20
113.4403808049024
 30
0.0
 11
50.751310043496851
 21
106.3403808049023
 31
0.0
  0
LINE
  5
621
  8
0
 10
52.751310043496972
 20
109.2278808049019
 30
0.0
 11
52.751310043497021
 21
106.3403808049022
 31
0.0
  0
LINE
  5
622
  8
0
 10
51.751310043497078
 20
105.3403808049022
 30
0.0
 11
51.751310043497078
 21
105.3403808049022
 31
0.0
  0
ARC
  5
625
  8
0
 10
51.751310043496972
 20
106.3403808049022
 30
0.0
 40
1.0
 50
179.9999999999967
 51
0.0000000000016284
  0
ARC
  5
626
  8
0
 10
68.751310043496972
 20
106.3403808049022
 30
0.0
 40
1.0
 50
179.99999999999841
 51
0.0000000000032569
  0
ARC
  5
627
  8
0
 10
59.197042268878079
 20
105.5403808049022
 30
0.0
 40
0.2
 50
184.99999999999969
 51
270.0
  0
ARC
  5
628
  8
0
 10
61.305577818115808
 20
105.5403808049023
 30
0.0
 40
0.2
 50
270.0
 51
355.00000000000028
  0
LINE
  5
629
  8
0
 10
61.751310043497028
 20
108.3403808049023
 30
0.0
 11
61.504816757734147
 21
105.52294965635269
 31
0.0
  0
LINE
  5
62A
  8
0
 10
58.751310043496858
 20
108.3403808049023
 30
0.0
 11
58.997803329259739
 21
105.52294965635269
 31
0.0
  0
ARC
  5
62C
  8
0
 10
56.957528874524712
 20
115.3081054028353
 30
0.0
 40
0.2438389014767358
 50
1.2468232812850519
 51
82.036693494781588
  0
LINE
  5
62D
  8
0
 10
56.681694801226229
 20
111.3403808049024
 30
0.0
 11
53.051310043496699
 21
111.3403808049024
 31
0.0
  0
LINE
  5
62E
  8
0
 10
60.251310043496403
 20
111.34038080490249
 30
0.0
 11
58.301310043496592
 21
111.34038080490249
 31
0.0
  0
LINE
  5
62F
  8
0
 10
57.201310043496619
 20
115.313411204194
 30
0.0
 11
57.201310043496562
 21
111.8599960471728
 31
0.0
  0
LINE
  5
630
  8
0
 10
58.00131004349663
 20
118.14038080490241
 30
0.0
 11
58.00131004349663
 21
111.64038080490251
 31
0.0
  0
ARC
  5
631
  8
0
 10
57.051310043496812
 20
115.7403808049024
 30
0.0
 40
0.2
 50
162.64597536373981
 51
252.5423968762602
  0
ARC
  5
632
  8
0
 10
57.801310043496642
 20
118.14038080490241
 30
0.0
 40
0.2
 50
0.0
 51
162.64597536374251
  0
LINE
  5
633
  8
0
 10
52.751310043496737
 20
111.64038080490251
 30
0.0
 11
52.751310043496737
 21
113.14038080490241
 31
0.0
  0
LINE
  5
634
  8
0
 10
52.45131004349679
 20
113.4403808049024
 30
0.0
 11
50.751310043496851
 21
113.4403808049024
 31
0.0
  0
ARC
  5
635
  8
0
 10
57.201310043496562
 20
111.3403808049024
 30
0.0
 40
0.3
 50
210.00000000001509
 51
59.999999999984922
  0
ARC
  5
636
  8
0
 10
57.50131004349663
 20
111.8599960471728
 30
0.0
 40
0.3
 50
179.99999999999841
 51
239.99999999998491
  0
ARC
  5
637
  8
0
 10
56.681694801226229
 20
111.0403808049025
 30
0.0
 40
0.3
 50
30.000000000015081
 51
90.0
  0
ARC
  5
638
  8
0
 10
58.301310043496592
 20
111.64038080490251
 30
0.0
 40
0.3
 50
180.0
 51
270.0
  0
ARC
  5
639
  8
0
 10
53.051310043496699
 20
111.64038080490251
 30
0.0
 40
0.3
 50
180.0
 51
270.0
  0
ARC
  5
63A
  8
0
 10
52.45131004349679
 20
113.14038080490241
 30
0.0
 40
0.3
 50
0.0
 51
90.0
  0
ARC
  5
63B
  8
0
 10
67.451310043496903
 20
111.64038080490251
 30
0.0
 40
0.3
 50
270.0
 51
0.0
  0
LINE
  5
63C
  8
0
 10
57.610414047889613
 20
118.2000358035296
 30
0.0
 11
56.860414047889769
 21
115.8000358035296
 31
0.0
  0
LINE
  5
63D
  8
0
 10
60.251310043496737
 20
111.34038080490249
 30
0.0
 11
61.60131004349676
 21
111.34038080490249
 31
0.0
  0
LINE
  5
63E
  8
0
 10
63.820925285766577
 20
111.3403808049024
 30
0.0
 11
67.451310043496903
 21
111.3403808049024
 31
0.0
  0
ARC
  5
63F
  8
0
 10
68.051310043496812
 20
113.14038080490241
 30
0.0
 40
0.3
 50
90.0
 51
180.0
  0
LINE
  5
640
  8
0
 10
68.051310043496812
 20
113.4403808049024
 30
0.0
 11
69.75131004349663
 21
113.4403808049024
 31
0.0
  0
LINE
  5
641
  8
0
 10
67.751310043496844
 20
111.64038080490251
 30
0.0
 11
67.751310043496744
 21
113.14038080490241
 31
0.0
  0
LINE
  5
642
  8
0
 10
62.892206039103307
 20
118.2000358035296
 30
0.0
 11
63.642206039103151
 21
115.8000358035296
 31
0.0
  0
ARC
  5
643
  8
0
 10
62.201310043496221
 20
111.64038080490251
 30
0.0
 40
0.3
 50
270.0
 51
0.0
  0
ARC
  5
644
  8
0
 10
63.820925285766577
 20
111.0403808049025
 30
0.0
 40
0.3
 50
90.0
 51
149.99999999998491
  0
ARC
  5
645
  8
0
 10
63.001310043496289
 20
111.8599960471728
 30
0.0
 40
0.3
 50
300.00000000001501
 51
0.0000000000016284
  0
ARC
  5
646
  8
0
 10
63.301310043496237
 20
111.3403808049024
 30
0.0
 40
0.3
 50
120.00000000001501
 51
329.99999999998488
  0
ARC
  5
647
  8
0
 10
62.701310043496278
 20
118.14038080490241
 30
0.0
 40
0.2
 50
17.354024636257432
 51
180.0
  0
ARC
  5
648
  8
0
 10
63.4513100434961
 20
115.7403808049024
 30
0.0
 40
0.2
 50
287.45760312373977
 51
17.35402463626016
  0
LINE
  5
649
  8
0
 10
62.501310043496289
 20
118.14038080490241
 30
0.0
 11
62.501310043496289
 21
111.64038080490251
 31
0.0
  0
LINE
  5
64A
  8
0
 10
63.301310043496301
 20
115.313411204194
 30
0.0
 11
63.301310043496237
 21
111.8599960471728
 31
0.0
  0
LINE
  5
64B
  8
0
 10
60.251310043496403
 20
111.34038080490249
 30
0.0
 11
62.201310043496221
 21
111.34038080490249
 31
0.0
  0
ARC
  5
64C
  8
0
 10
63.545091212468201
 20
115.3081054028353
 30
0.0
 40
0.2438389014767358
 50
97.963306505218398
 51
178.75317671871491
  0
LINE
  5
650
  8
0
 10
68.751310043496858
 20
105.3403808049022
 30
0.0
 11
68.751310043496858
 21
105.3403808049022
 31
0.0
  0
LINE
  5
651
  8
0
 10
67.751310043496972
 20
109.2278808049019
 30
0.0
 11
67.751310043496844
 21
106.3403808049022
 31
0.0
  0
LINE
  5
652
  8
0
 10
59.197042268878079
 20
105.3403808049022
 30
0.0
 11
61.305577818115808
 21
105.3403808049023
 31
0.0
  0
LINE
  5
653
  8
0
 10
58.751310043496908
 20
109.2278808049023
 30
0.0
 11
58.751310043496858
 21
108.340380804902
 31
0.0
  0
ARC
  5
654
  8
0
 10
54.751310043496972
 20
109.5903808049023
 30
0.0
 40
0.25
 50
270.0
 51
316.39718102729557
  0
ARC
  5
655
  8
0
 10
55.751310043496972
 20
109.5903808049023
 30
0.0
 40
0.25
 50
223.6028189727044
 51
270.0
  0
ARC
  5
656
  8
0
 10
55.251310043496972
 20
109.39038080490231
 30
0.0
 40
0.25
 50
43.602818972704462
 51
136.39718102729549
  0
LINE
  5
657
  8
0
 10
55.570275560738366
 20
109.41796701179889
 30
0.0
 11
55.432344526255577
 21
109.56279459800569
 31
0.0
  0
LINE
  5
658
  8
0
 10
54.932344526255569
 20
109.41796701179889
 30
0.0
 11
55.070275560738359
 21
109.56279459800569
 31
0.0
  0
LINE
  5
659
  8
0
 10
54.570275560738359
 20
109.41796701179889
 30
0.0
 11
54.432344526255569
 21
109.56279459800569
 31
0.0
  0
LINE
  5
65A
  8
0
 10
53.932344526255577
 20
109.41796701179889
 30
0.0
 11
54.070275560738366
 21
109.56279459800569
 31
0.0
  0
ARC
  5
65B
  8
0
 10
54.251310043496972
 20
109.39038080490231
 30
0.0
 40
0.25
 50
43.602818972704462
 51
136.39718102729549
  0
ARC
  5
65C
  8
0
 10
53.751310043496972
 20
109.5903808049023
 30
0.0
 40
0.25
 50
270.0
 51
316.39718102729557
  0
ARC
  5
65D
  8
0
 10
54.751310043496972
 20
109.5903808049023
 30
0.0
 40
0.25
 50
223.6028189727044
 51
270.0
  0
ARC
  5
65E
  8
0
 10
53.751310043496972
 20
109.5903808049023
 30
0.0
 40
0.25
 50
223.6028189727044
 51
270.0
  0
ARC
  5
65F
  8
0
 10
53.251310043496972
 20
109.39038080490231
 30
0.0
 40
0.25
 50
43.602818972704462
 51
136.39718102729549
  0
LINE
  5
660
  8
0
 10
53.570275560738366
 20
109.41796701179889
 30
0.0
 11
53.432344526255577
 21
109.56279459800569
 31
0.0
  0
LINE
  5
661
  8
0
 10
52.751310043496972
 20
109.2278808049023
 30
0.0
 11
53.070275560738366
 21
109.56279459800569
 31
0.0
  0
ARC
  5
662
  8
0
 10
56.751310043496972
 20
109.5903808049023
 30
0.0
 40
0.25
 50
270.0
 51
316.39718102729557
  0
ARC
  5
663
  8
0
 10
57.251310043496972
 20
109.39038080490231
 30
0.0
 40
0.25
 50
43.602818972704462
 51
136.39718102729549
  0
LINE
  5
664
  8
0
 10
56.932344526255569
 20
109.41796701179889
 30
0.0
 11
57.070275560738359
 21
109.56279459800569
 31
0.0
  0
LINE
  5
665
  8
0
 10
56.57027556073831
 20
109.41796701179889
 30
0.0
 11
56.432344526255577
 21
109.56279459800569
 31
0.0
  0
LINE
  5
666
  8
0
 10
55.932344526255577
 20
109.41796701179889
 30
0.0
 11
56.070275560738366
 21
109.56279459800569
 31
0.0
  0
ARC
  5
667
  8
0
 10
56.251310043496972
 20
109.39038080490231
 30
0.0
 40
0.25
 50
43.602818972704462
 51
136.39718102729549
  0
ARC
  5
668
  8
0
 10
55.751310043496972
 20
109.5903808049023
 30
0.0
 40
0.25
 50
270.0
 51
316.39718102729557
  0
ARC
  5
669
  8
0
 10
56.751310043496972
 20
109.5903808049023
 30
0.0
 40
0.25
 50
223.6028189727044
 51
270.0
  0
LINE
  5
66A
  8
0
 10
58.751310043496908
 20
109.2278808049023
 30
0.0
 11
58.432344526255577
 21
109.56279459800569
 31
0.0
  0
ARC
  5
66B
  8
0
 10
58.251310043496908
 20
109.39038080490231
 30
0.0
 40
0.25
 50
43.602818972704462
 51
136.39718102729549
  0
LINE
  5
66C
  8
0
 10
57.932344526255577
 20
109.41796701179879
 30
0.0
 11
58.070275560738366
 21
109.56279459800569
 31
0.0
  0
ARC
  5
66D
  8
0
 10
57.751310043496972
 20
109.5903808049022
 30
0.0
 40
0.25
 50
223.6028189727044
 51
270.0
  0
LINE
  5
66E
  8
0
 10
57.57027556073831
 20
109.41796701179879
 30
0.0
 11
57.432344526255569
 21
109.56279459800569
 31
0.0
  0
ARC
  5
66F
  8
0
 10
57.251310043496908
 20
109.39038080490231
 30
0.0
 40
0.25
 50
43.602818972704462
 51
136.39718102729549
  0
ARC
  5
670
  8
0
 10
57.751310043496972
 20
109.5903808049022
 30
0.0
 40
0.25
 50
270.0
 51
316.39718102729557
  0
ARC
  5
671
  8
0
 10
62.75131004349663
 20
109.5903808049022
 30
0.0
 40
0.25
 50
223.6028189727044
 51
270.0
  0
ARC
  5
672
  8
0
 10
63.251310043496566
 20
109.39038080490231
 30
0.0
 40
0.25
 50
43.602818972704462
 51
136.39718102729549
  0
LINE
  5
673
  8
0
 10
62.932344526255179
 20
109.41796701179879
 30
0.0
 11
63.070275560737912
 21
109.56279459800569
 31
0.0
  0
ARC
  5
674
  8
0
 10
62.75131004349663
 20
109.5903808049022
 30
0.0
 40
0.25
 50
270.0
 51
316.39718102729557
  0
LINE
  5
675
  8
0
 10
62.570275560737912
 20
109.41796701179879
 30
0.0
 11
62.432344526255228
 21
109.56279459800569
 31
0.0
  0
ARC
  5
676
  8
0
 10
62.251310043496566
 20
109.39038080490231
 30
0.0
 40
0.25
 50
43.602818972704462
 51
136.39718102729549
  0
LINE
  5
677
  8
0
 10
61.751310043496566
 20
109.2278808049023
 30
0.0
 11
62.070275560737912
 21
109.56279459800569
 31
0.0
  0
ARC
  5
678
  8
0
 10
63.75131004349651
 20
109.5903808049023
 30
0.0
 40
0.25
 50
270.0
 51
316.39718102729557
  0
ARC
  5
679
  8
0
 10
64.751310043496517
 20
109.5903808049023
 30
0.0
 40
0.25
 50
223.6028189727044
 51
270.0
  0
ARC
  5
67A
  8
0
 10
64.251310043496517
 20
109.39038080490231
 30
0.0
 40
0.25
 50
43.602818972704462
 51
136.39718102729549
  0
LINE
  5
67B
  8
0
 10
64.570275560737912
 20
109.41796701179889
 30
0.0
 11
64.432344526255235
 21
109.56279459800569
 31
0.0
  0
LINE
  5
67C
  8
0
 10
63.932344526255179
 20
109.41796701179889
 30
0.0
 11
64.070275560737912
 21
109.56279459800569
 31
0.0
  0
LINE
  5
67D
  8
0
 10
63.570275560737912
 20
109.41796701179889
 30
0.0
 11
63.432344526255228
 21
109.56279459800569
 31
0.0
  0
ARC
  5
67E
  8
0
 10
63.251310043496517
 20
109.39038080490231
 30
0.0
 40
0.25
 50
43.602818972704462
 51
136.39718102729549
  0
ARC
  5
67F
  8
0
 10
63.75131004349651
 20
109.5903808049023
 30
0.0
 40
0.25
 50
223.6028189727044
 51
270.0
  0
ARC
  5
680
  8
0
 10
66.751310043496517
 20
109.5903808049023
 30
0.0
 40
0.25
 50
270.0
 51
316.39718102729557
  0
ARC
  5
681
  8
0
 10
67.251310043496517
 20
109.39038080490231
 30
0.0
 40
0.25
 50
43.602818972704462
 51
136.39718102729549
  0
LINE
  5
682
  8
0
 10
67.751310043496517
 20
109.2278808049023
 30
0.0
 11
67.432344526255235
 21
109.56279459800569
 31
0.0
  0
LINE
  5
683
  8
0
 10
66.932344526255235
 20
109.41796701179889
 30
0.0
 11
67.070275560737912
 21
109.56279459800569
 31
0.0
  0
LINE
  5
684
  8
0
 10
66.932344526255235
 20
109.41796701179889
 30
0.0
 11
67.070275560737912
 21
109.56279459800569
 31
0.0
  0
ARC
  5
685
  8
0
 10
66.751310043496517
 20
109.5903808049023
 30
0.0
 40
0.25
 50
270.0
 51
316.39718102729557
  0
ARC
  5
686
  8
0
 10
65.751310043496517
 20
109.5903808049023
 30
0.0
 40
0.25
 50
270.0
 51
316.39718102729557
  0
ARC
  5
687
  8
0
 10
66.751310043496517
 20
109.5903808049023
 30
0.0
 40
0.25
 50
223.6028189727044
 51
270.0
  0
ARC
  5
688
  8
0
 10
66.251310043496517
 20
109.39038080490231
 30
0.0
 40
0.25
 50
43.602818972704462
 51
136.39718102729549
  0
LINE
  5
689
  8
0
 10
66.570275560737912
 20
109.41796701179889
 30
0.0
 11
66.432344526255235
 21
109.56279459800569
 31
0.0
  0
LINE
  5
68A
  8
0
 10
65.932344526255235
 20
109.41796701179889
 30
0.0
 11
66.070275560737912
 21
109.56279459800569
 31
0.0
  0
LINE
  5
68B
  8
0
 10
65.570275560737912
 20
109.41796701179889
 30
0.0
 11
65.432344526255235
 21
109.56279459800569
 31
0.0
  0
LINE
  5
68C
  8
0
 10
64.932344526255235
 20
109.41796701179889
 30
0.0
 11
65.070275560737912
 21
109.56279459800569
 31
0.0
  0
ARC
  5
68D
  8
0
 10
65.251310043496517
 20
109.39038080490231
 30
0.0
 40
0.25
 50
43.602818972704462
 51
136.39718102729549
  0
ARC
  5
68E
  8
0
 10
64.751310043496517
 20
109.5903808049023
 30
0.0
 40
0.25
 50
270.0
 51
316.39718102729557
  0
ARC
  5
68F
  8
0
 10
65.751310043496517
 20
109.5903808049023
 30
0.0
 40
0.25
 50
223.6028189727044
 51
270.0
  0
LINE
  5
690
  8
0
 10
69.75131004349663
 20
113.4403808049024
 30
0.0
 11
69.751310043497085
 21
106.3403808049023
 31
0.0
  0
LINE
  5
691
  8
1
 10
60.251310043496972
 20
102.8403808049023
 30
0.0
 11
60.251310043497021
 21
120.8403808049024
 31
0.0
  0
LINE
  5
696
  8
0
 10
99.751310043496304
 20
118.34038080490249
 30
0.0
 11
99.751310043497142
 21
105.52294965635269
 31
0.0
  0
LINE
  5
697
  8
0
 10
99.751310043497142
 20
105.52294965635269
 30
0.0
 11
199.75131004349711
 21
105.52294965635259
 31
0.0
  0
LINE
  5
698
  8
0
 10
99.75131004349663
 20
113.4403808049025
 30
0.0
 11
199.7513100434966
 21
113.4403808049024
 31
0.0
  0
LINE
  5
699
  8
0
 10
99.751310043496304
 20
118.34038080490249
 30
0.0
 11
199.75131004349629
 21
118.3403808049022
 31
0.0
  0
LINE
  5
69A
  8
0
 10
99.751310043496474
 20
115.7403808049024
 30
0.0
 11
199.7513100434964
 21
115.7403808049024
 31
0.0
  0
LINE
  5
69B
  8
0
 10
199.75131004349629
 20
118.340380804909
 30
0.0
 11
199.75131004349711
 21
105.5229496563593
 31
0.0
  0
LINE
  5
70A
  8
0
 10
99.751310043497114
 20
73.522949656352552
 30
0.0
 11
199.75131004349711
 21
73.522949656352537
 31
0.0
  0
LINE
  5
710
  8
0
 10
99.751310043497114
 20
58.522949656352701
 30
0.0
 11
199.75131004349711
 21
58.522949656352701
 31
0.0
  0
LINE
  5
711
  8
0
 10
99.751310043497114
 20
56.52294965635253
 30
0.0
 11
199.75131004349711
 21
56.522949656352552
 31
0.0
  0
LINE
  5
712
  8
0
 10
99.751310043497114
 20
75.522949656352765
 30
0.0
 11
99.751310043497114
 21
56.52294965635253
 31
0.0
  0
LINE
  5
713
  8
0
 10
199.75131004349711
 20
75.522949656352765
 30
0.0
 11
199.75131004349711
 21
56.52294965635253
 31
0.0
  0
LINE
  5
714
  8
1
 10
94.751310043497114
 20
66.022949656352651
 30
0.0
 11
204.75131004349711
 21
66.022949656352651
 31
0.0
  0
LINE
  5
717
  8
0
 10
99.751310043497114
 20
75.522949656352765
 30
0.0
 11
199.75131004349711
 21
75.522949656352679
 31
0.0
  0
LINE
  5
785
  8
0
 10
99.751310043496346
 20
167.34038080490291
 30
0.0
 11
199.75131004349629
 21
167.34038080490291
 31
0.0
  0
LINE
  5
786
  8
0
 10
99.751310043496346
 20
165.34038080490291
 30
0.0
 11
199.75131004349629
 21
165.34038080490291
 31
0.0
  0
LINE
  5
787
  8
0
 10
99.751310043496346
 20
160.09038080490299
 30
0.0
 11
199.75131004349629
 21
160.0903808049035
 31
0.0
  0
LINE
  5
788
  8
0
 10
99.751310043496318
 20
161.24038080490291
 30
0.0
 11
199.75131004349629
 21
161.24038080490291
 31
0.0
  0
LINE
  5
789
  8
0
 10
99.751310043496346
 20
154.44038080490239
 30
0.0
 11
199.75131004349629
 21
154.44038080490171
 31
0.0
  0
LINE
  5
78A
  8
0
 10
99.751310043496346
 20
155.5903808049022
 30
0.0
 11
199.75131004349629
 21
155.59038080490171
 31
0.0
  0
LINE
  5
78B
  8
0
 10
99.751310043496346
 20
150.3403808049024
 30
0.0
 11
199.75131004349629
 21
150.3403808049012
 31
0.0
  0
LINE
  5
78C
  8
0
 10
99.751310043496346
 20
148.3403808049024
 30
0.0
 11
199.75131004349629
 21
148.34038080490129
 31
0.0
  0
LINE
  5
78D
  8
0
 10
99.751310043496346
 20
148.3403808049024
 30
0.0
 11
99.751310043496346
 21
167.34038080490291
 31
0.0
  0
LINE
  5
78E
  8
0
 10
199.75131004349629
 20
148.3403808049024
 30
0.0
 11
199.75131004349629
 21
167.34038080490291
 31
0.0
  0
LINE
  5
78F
  8
1
 10
94.751310043496304
 20
157.84038080490279
 30
0.0
 11
204.75131004349629
 21
157.84038080490279
 31
0.0
  0
LINE
  5
795
  8
0
 10
99.751310043497085
 20
67.522949656352665
 30
0.0
 11
199.75131004349711
 21
67.522949656352665
 31
0.0
  0
LINE
  5
796
  8
0
 10
99.751310043497085
 20
64.522949656352637
 30
0.0
 11
199.75131004349711
 21
64.522949656352637
 31
0.0
  0
TEXT
  5
845
  8
0
 62
     3
 10
0.0
 20
0.0
 30
0.0
 40
10.0
  1
L6-ASDRL-2000
  7
STANDARD1
  0
ENDSEC
  0
EOF
