  0
SECTION
  2
HEADER
  9
$ACADVER
  1
AC1009
  9
$INSBASE
 10
7.37824081052986
 20
15.90864369846679
 30
0.0
  9
$EXTMIN
 10
0.0
 20
-2.960436562073669
 30
0.0
  9
$EXTMAX
 10
123.91379060068149
 20
125.60972083132449
 30
0.0
  9
$LIMMIN
 10
0.0
 20
0.0
  9
$LIMMAX
 10
385.0
 20
270.0
  9
$ORTHOMODE
 70
     1
  9
$REGENMODE
 70
     1
  9
$FILLMODE
 70
     1
  9
$QTEXTMODE
 70
     0
  9
$MIRRTEXT
 70
     0
  9
$DRAGMODE
 70
     2
  9
$LTSCALE
 40
10.0
  9
$OSMODE
 70
  3071
  9
$ATTMODE
 70
     1
  9
$TEXTSIZE
 40
4.0
  9
$TRACEWID
 40
0.05
  9
$TEXTSTYLE
  7
STANDARD
  9
$CLAYER
  8
2
  9
$CELTYPE
  6
BYLAYER
  9
$CECOLOR
 62
   256
  9
$DIMSCALE
 40
1.0
  9
$DIMASZ
 40
3.0
  9
$DIMEXO
 40
2.0
  9
$DIMDLI
 40
10.0
  9
$DIMRND
 40
0.0
  9
$DIMDLE
 40
0.0
  9
$DIMEXE
 40
2.0
  9
$DIMTP
 40
0.0
  9
$DIMTM
 40
0.0
  9
$DIMTXT
 40
3.0
  9
$DIMCEN
 40
0.09
  9
$DIMTSZ
 40
0.0
  9
$DIMTOL
 70
     0
  9
$DIMLIM
 70
     0
  9
$DIMTIH
 70
     0
  9
$DIMTOH
 70
     0
  9
$DIMSE1
 70
     0
  9
$DIMSE2
 70
     0
  9
$DIMTAD
 70
     1
  9
$DIMZIN
 70
     0
  9
$DIMBLK
  1

  9
$DIMASO
 70
     0
  9
$DIMSHO
 70
     0
  9
$DIMPOST
  1

  9
$DIMAPOST
  1

  9
$DIMALT
 70
     0
  9
$DIMALTD
 70
     2
  9
$DIMALTF
 40
25.399999999999999
  9
$DIMLFAC
 40
1.0
  9
$DIMTOFL
 70
     1
  9
$DIMTVP
 40
1.6000000000000001
  9
$DIMTIX
 70
     1
  9
$DIMSOXD
 70
     0
  9
$DIMSAH
 70
     0
  9
$DIMBLK1
  1

  9
$DIMBLK2
  1

  9
$DIMSTYLE
  2
STANDARD
  9
$DIMCLRD
 70
     0
  9
$DIMCLRE
 70
     0
  9
$DIMCLRT
 70
     0
  9
$DIMTFAC
 40
1.0
  9
$DIMGAP
 40
1.0
  9
$LUNITS
 70
     2
  9
$LUPREC
 70
     2
  9
$SKETCHINC
 40
0.1
  9
$FILLETRAD
 40
2.0
  9
$AUNITS
 70
     0
  9
$AUPREC
 70
     2
  9
$MENU
  1
E:\r13\win\SUPPORT\ACAD
  9
$ELEVATION
 40
0.0
  9
$PELEVATION
 40
0.0
  9
$THICKNESS
 40
0.0
  9
$LIMCHECK
 70
     0
  9
$BLIPMODE
 70
     0
  9
$CHAMFERA
 40
1.0
  9
$CHAMFERB
 40
1.0
  9
$SKPOLY
 70
     0
  9
$TDCREATE
 40
2450252.6853964119
  9
$TDUPDATE
 40
2456597.5615401161
  9
$TDINDWG
 40
0.2299546644
  9
$TDUSRTIMER
 40
0.2299546644
  9
$USRTIMER
 70
     1
  9
$ANGBASE
 50
0.0
  9
$ANGDIR
 70
     0
  9
$PDMODE
 70
     0
  9
$PDSIZE
 40
0.0
  9
$PLINEWID
 40
0.0
  9
$COORDS
 70
     1
  9
$SPLFRAME
 70
     0
  9
$SPLINETYPE
 70
     6
  9
$SPLINESEGS
 70
     8
  9
$ATTDIA
 70
     0
  9
$ATTREQ
 70
     1
  9
$HANDLING
 70
     1
  9
$HANDSEED
  5
3881
  9
$SURFTAB1
 70
     6
  9
$SURFTAB2
 70
     6
  9
$SURFTYPE
 70
     6
  9
$SURFU
 70
     6
  9
$SURFV
 70
     6
  9
$UCSNAME
  2

  9
$UCSORG
 10
0.0
 20
0.0
 30
0.0
  9
$UCSXDIR
 10
1.0
 20
0.0
 30
0.0
  9
$UCSYDIR
 10
0.0
 20
1.0
 30
0.0
  9
$PUCSNAME
  2

  9
$PUCSORG
 10
0.0
 20
0.0
 30
0.0
  9
$PUCSXDIR
 10
1.0
 20
0.0
 30
0.0
  9
$PUCSYDIR
 10
0.0
 20
1.0
 30
0.0
  9
$USERI1
 70
     3
  9
$USERI2
 70
     1
  9
$USERI3
 70
     0
  9
$USERI4
 70
     1
  9
$USERI5
 70
     0
  9
$USERR1
 40
1.0
  9
$USERR2
 40
3.0
  9
$USERR3
 40
3.0
  9
$USERR4
 40
3.0
  9
$USERR5
 40
10.0
  9
$WORLDVIEW
 70
     1
  9
$SHADEDGE
 70
     3
  9
$SHADEDIF
 70
    70
  9
$TILEMODE
 70
     1
  9
$MAXACTVP
 70
    16
  9
$PLIMCHECK
 70
     0
  9
$PEXTMIN
 10
1.0000000000000000E+020
 20
1.0000000000000000E+020
 30
1.0000000000000000E+020
  9
$PEXTMAX
 10
-1.0000000000000000E+020
 20
-1.0000000000000000E+020
 30
-1.0000000000000000E+020
  9
$PLIMMIN
 10
0.0
 20
0.0
  9
$PLIMMAX
 10
12.0
 20
9.0
  9
$UNITMODE
 70
     0
  9
$VISRETAIN
 70
     0
  9
$PLINEGEN
 70
     0
  9
$PSLTSCALE
 70
     0
  0
ENDSEC
  0
SECTION
  2
TABLES
  0
TABLE
  2
VPORT
 70
     1
  0
VPORT
  2
*ACTIVE
 70
     0
 10
0.0
 20
0.0
 11
1.0
 21
1.0
 12
192.49412581440311
 22
162.8616388594717
 13
0.0
 23
0.0
 14
5.0
 24
5.0
 15
5.0
 25
5.0
 16
0.0
 26
0.0
 36
1.0
 17
0.0
 27
0.0
 37
0.0
 40
334.81001162774987
 41
1.9089595375722539
 42
50.0
 43
0.0
 44
0.0
 50
0.0
 51
0.0
 71
     0
 72
  1000
 73
     1
 74
     0
 75
     0
 76
     0
 77
     0
 78
     1
  0
ENDTAB
  0
TABLE
  2
LTYPE
 70
     4
  0
LTYPE
  2
CONTINUOUS
 70
     0
  3
Solid Line
 72
    65
 73
     0
 40
0.0
  0
LTYPE
  2
CENTER
 70
     0
  3
____ _ ____ _ ____ _ ____ _ ____ _ ____ _ ____
 72
    65
 73
     4
 40
2.0
 49
1.25
 49
-0.25
 49
0.25
 49
-0.25
  0
LTYPE
  2
HIDDEN
 70
     0
  3
_ _ _ _ _ _ _ _ _ _ _ _ _ _ _ _ _ _ _ _ _ _ _
 72
    65
 73
     2
 40
0.375
 49
0.25
 49
-0.125
  0
LTYPE
  2
PHANTOM2
 70
     0
  3
___ _ _ ___ _ _ ___ _ _ ___ _ _
 72
    65
 73
     6
 40
1.25
 49
0.625
 49
-0.125
 49
0.125
 49
-0.125
 49
0.125
 49
-0.125
  0
ENDTAB
  0
TABLE
  2
LAYER
 70
     4
  0
LAYER
  2
0
 70
     0
 62
     7
  6
CONTINUOUS
  0
LAYER
  2
1
 70
     0
 62
     1
  6
CENTER
  0
LAYER
  2
3
 70
     0
 62
     3
  6
CONTINUOUS
  0
LAYER
  2
2
 70
     0
 62
     2
  6
HIDDEN
  0
ENDTAB
  0
TABLE
  2
STYLE
 70
     2
  0
STYLE
  2
STANDARD
 70
     0
 40
0.0
 41
1.0
 50
0.0
 71
     0
 42
4.0
  3
simplex
  4
bigfont
  0
STYLE
  2
STANDARD1
 70
     0
 40
0.0
 41
1.0
 50
0.0
 71
     0
 42
3.0
  3
txt
  4

  0
ENDTAB
  0
TABLE
  2
VIEW
 70
     0
  0
ENDTAB
  0
TABLE
  2
UCS
 70
     0
  0
ENDTAB
  0
TABLE
  2
APPID
 70
     9
  0
APPID
  2
ACAD
 70
     0
  0
APPID
  2
GENIUS_GENODEF_13
 70
     0
  0
APPID
  2
GENIUS_GENOENT_13
 70
     0
  0
APPID
  2
GENIUS_GENOBJ_13
 70
     0
  0
APPID
  2
GENIUS_GENOLIS_13
 70
     0
  0
APPID
  2
GENIUS_GENOREF_13
 70
     0
  0
APPID
  2
GENIUS_GENOBJ-N-FIL_13
 70
     0
  0
APPID
  2
ACAD_MLEADERVER
 70
     0
  0
APPID
  2
ACAD_NAV_VCDISPLAY
 70
     0
  0
ENDTAB
  0
TABLE
  2
DIMSTYLE
 70
     1
  0
DIMSTYLE
  2
STANDARD
 70
     0
  3

  4

  5

  6

  7

 40
1.0
 41
0.18
 42
0.0625
 43
0.38
 44
0.18
 45
0.0
 46
0.0
 47
0.0
 48
0.0
140
0.18
141
0.09
142
0.0
143
25.399999999999999
144
1.0
145
0.0
146
1.0
147
0.09
 71
     0
 72
     0
 73
     1
 74
     1
 75
     0
 76
     0
 77
     0
 78
     0
170
     0
171
     2
172
     0
173
     0
174
     0
175
     0
176
     0
177
     0
178
     0
  0
ENDTAB
  0
ENDSEC
  0
SECTION
  2
BLOCKS
  0
BLOCK
  8
0
  2
$MODEL_SPACE
 70
     0
 10
0.0
 20
0.0
 30
0.0
  3
$MODEL_SPACE
  1

  0
ENDBLK
  5
35E3
  8
0
  0
BLOCK
 67
     1
  8
0
  2
$PAPER_SPACE
 70
     0
 10
0.0
 20
0.0
 30
0.0
  3
$PAPER_SPACE
  1

  0
ENDBLK
  5
35E1
 67
     1
  8
0
  0
ENDSEC
  0
SECTION
  2
ENTITIES
  0
LINE
  5
3488
  8
0
 10
123.91379060068149
 20
46.574327065317277
 30
0.0
 11
123.91379060068139
 21
19.974327065317009
 31
0.0
  0
LINE
  5
3489
  8
0
 10
93.913790600681509
 20
46.574327065317277
 30
0.0
 11
93.913790600681409
 21
19.974327065317858
 31
0.0
  0
LINE
  5
348A
  8
0
 10
121.21379060068141
 20
17.274327065317351
 30
0.0
 11
96.613790600681398
 21
17.274327065317351
 31
0.0
  0
ARC
  5
348B
  8
0
 10
96.613790600681398
 20
19.974327065317389
 30
0.0
 40
2.7000000000000002
 50
180.0
 51
270.0
  0
ARC
  5
348C
  8
0
 10
121.21379060068141
 20
19.974327065317389
 30
0.0
 40
2.7000000000000002
 50
270.0
 51
0.0
  0
LINE
  5
348D
  8
0
 10
121.21379060068141
 20
49.274327065317323
 30
0.0
 11
96.613790600681455
 21
49.274327065317323
 31
0.0
  0
LINE
  5
348E
  8
0
 10
123.3114082970226
 20
48.274327065317323
 30
0.0
 11
94.516172904340465
 21
48.274327065317323
 31
0.0
  0
ARC
  5
348F
  8
0
 10
96.613790600681455
 20
46.574327065317277
 30
0.0
 40
2.7000000000000002
 50
90.0
 51
180.0
  0
LINE
  5
3490
  8
0
 10
111.91379060068139
 20
51.605197523598669
 30
0.0
 11
105.9137906006813
 21
51.60519752359869
 31
0.0
  0
ARC
  5
3494
  8
0
 10
121.21379060068141
 20
46.574327065317277
 30
0.0
 40
2.7000000000000002
 50
0.0
 51
90.0
  0
LINE
  5
3496
  8
0
 10
30.652865825969911
 20
47.774327065317323
 30
0.0
 11
30.652865825969911
 21
19.774327065317319
 31
0.0
  0
LINE
  5
3497
  8
0
 10
31.652865825969911
 20
19.274327065317319
 30
0.0
 11
60.652865825969911
 21
48.274327065317323
 31
0.0
  0
LINE
  5
3498
  8
0
 10
32.359972607156251
 20
18.567220284130858
 30
0.0
 11
31.652865825969911
 21
19.274327065317319
 31
0.0
  0
ARC
  5
3499
  8
0
 10
31.152865825969911
 20
19.774327065317319
 30
0.0
 40
0.5
 50
180.0
 51
270.0
  0
LINE
  5
349A
  8
0
 10
31.152865825969911
 20
19.274327065317319
 30
0.0
 11
31.652865825969911
 21
19.274327065317319
 31
0.0
  0
ARC
  5
349B
  8
0
 10
33.774186169529479
 20
19.981433846503862
 30
0.0
 40
2.0
 50
224.99999999999989
 51
315.0
1001
GENIUS_GENODEF_13
1002
{
1000
HIER
1070
     0
1002
}
1002
{
1000
MANEDIT
1070
     0
1002
}
1002
{
1000
NOSEL
1070
     0
1002
}
1002
{
1000
BEHIND
1070
     0
1002
}
1002
{
1000
REACTOR
1002
}
1001
GENIUS_GENOBJ-N-FIL_13
1002
{
1000
OWNER
1000
GEN
1002
}
  0
LINE
  5
349C
  8
1
 10
27.889414628303712
 20
26.03803713620087
 30
0.0
 11
32.101163163536292
 21
21.826288600968311
 31
0.0
  0
LINE
  5
349D
  8
0
 10
30.652865825969911
 20
24.222945957561379
 30
0.0
 11
29.165359665843852
 21
25.605456396815988
 31
0.0
  0
LINE
  5
349E
  8
0
 10
28.32199536768854
 20
24.76209209866067
 30
0.0
 11
30.652865825969911
 21
22.254202055516821
 31
0.0
  0
LINE
  5
349F
  8
0
 10
28.32199536768854
 20
24.76209209866067
 30
0.0
 11
29.165359665843852
 21
25.605456396815988
 31
0.0
  0
LINE
  5
34A0
  8
0
 10
60.152865825969911
 20
49.274327065317323
 30
0.0
 11
32.152865825969911
 21
49.274327065317323
 31
0.0
  0
LINE
  5
34A1
  8
1
 10
34.889786091099488
 20
52.037778262983522
 30
0.0
 11
39.101534626332068
 21
47.826029727750942
 31
0.0
  0
LINE
  5
34A2
  8
1
 10
27.889414628303712
 20
45.037406800187711
 30
0.0
 11
32.101163163536263
 21
40.825658264955152
 31
0.0
  0
LINE
  5
34A3
  8
0
 10
30.652865825969911
 20
43.22231562154807
 30
0.0
 11
29.165359665843852
 21
44.604826060802829
 31
0.0
  0
LINE
  5
34A4
  8
0
 10
28.32199536768843
 20
43.761461762647421
 30
0.0
 11
30.652865825969911
 21
41.253571719503427
 31
0.0
  0
LINE
  5
34A5
  8
0
 10
28.32199536768843
 20
43.761461762647421
 30
0.0
 11
29.165359665843852
 21
44.604826060802829
 31
0.0
  0
ARC
  5
34A6
  8
0
 10
32.152865825969911
 20
47.774327065317323
 30
0.0
 40
1.5
 50
90.0
 51
180.0
  0
LINE
  5
34A7
  8
0
 10
36.165731128639841
 20
51.60519752359869
 30
0.0
 11
35.322366830484498
 21
50.761833225443347
 31
0.0
  0
LINE
  5
34A8
  8
0
 10
36.165731128639841
 20
51.60519752359869
 30
0.0
 11
38.673621171783431
 21
49.274327065317337
 31
0.0
  0
LINE
  5
34A9
  8
0
 10
36.704877269739121
 20
49.274327065317308
 30
0.0
 11
35.322366830484498
 21
50.761833225443347
 31
0.0
  0
LINE
  5
34AA
  8
1
 10
53.889155755086328
 20
52.037778262983522
 30
0.0
 11
58.100904290318873
 21
47.826029727750942
 31
0.0
  0
LINE
  5
34AB
  8
0
 10
61.359972607156472
 20
47.567220284130748
 30
0.0
 11
60.652865825969911
 21
48.274327065317323
 31
0.0
  0
LINE
  5
34AC
  8
0
 10
60.652865825969911
 20
48.774327065317323
 30
0.0
 11
60.652865825969911
 21
48.274327065317323
 31
0.0
  0
ARC
  5
34AD
  8
0
 10
60.152865825969911
 20
48.774327065317323
 30
0.0
 40
0.5
 50
0.0
 51
90.0
  0
LINE
  5
34AE
  8
0
 10
55.165100792626653
 20
51.60519752359869
 30
0.0
 11
57.67299083577047
 21
49.274327065317323
 31
0.0
  0
LINE
  5
34AF
  8
0
 10
55.704246933725898
 20
49.274327065317323
 30
0.0
 11
54.321736494471217
 21
50.761833225443297
 31
0.0
  0
LINE
  5
34B0
  8
0
 10
55.165100792626653
 20
51.60519752359869
 30
0.0
 11
54.321736494471217
 21
50.761833225443297
 31
0.0
  0
ARC
  5
34B1
  8
0
 10
59.945759044783408
 20
46.15300672175767
 30
0.0
 40
2.0
 50
315.0
 51
44.999999999999837
1001
GENIUS_GENODEF_13
1002
{
1000
HIER
1070
     0
1002
}
1002
{
1000
MANEDIT
1070
     0
1002
}
1002
{
1000
NOSEL
1070
     0
1002
}
1002
{
1000
BEHIND
1070
     0
1002
}
1002
{
1000
REACTOR
1002
}
1001
GENIUS_GENOBJ-N-FIL_13
1002
{
1000
OWNER
1000
GEN
1002
}
  0
LINE
  5
34B2
  8
1
 10
108.91379060068139
 20
56.60519752359869
 30
0.0
 11
108.91379060068139
 21
12.981433846503871
 31
0.0
  0
LINE
  5
34B3
  8
0
 10
30.652865825969911
 20
97.109720831324523
 30
0.0
 11
30.652865825969911
 21
124.10972083132449
 31
0.0
  0
LINE
  5
34B4
  8
0
 10
61.945759044783408
 20
97.609720831324523
 30
0.0
 11
61.945759044783408
 21
123.60972083132449
 31
0.0
  0
LINE
  5
34B5
  8
0
 10
32.152865825969911
 20
95.609720831324523
 30
0.0
 11
59.945759044783408
 21
95.609720831324523
 31
0.0
  0
LINE
  5
34B6
  8
0
 10
32.152865825969911
 20
125.60972083132449
 30
0.0
 11
59.945759044783408
 21
125.60972083132449
 31
0.0
  0
LINE
  5
34B7
  8
0
 10
60.652865825969911
 20
97.109720831324523
 30
0.0
 11
60.652865825969911
 21
124.10972083132449
 31
0.0
  0
ARC
  5
34B8
  8
0
 10
32.152865825969911
 20
124.10972083132449
 30
0.0
 40
1.5
 50
90.0
 51
180.0
  0
ARC
  5
34B9
  8
0
 10
32.152865825969911
 20
97.109720831324523
 30
0.0
 40
1.5
 50
180.0
 51
270.0
  0
ARC
  5
34BA
  8
0
 10
59.152865825969911
 20
124.10972083132449
 30
0.0
 40
1.5
 50
0.0
 51
90.0
  0
ARC
  5
34BB
  8
0
 10
59.152865825969911
 20
97.109720831324523
 30
0.0
 40
1.5
 50
270.0
 51
0.0
  0
ARC
  5
34BC
  8
0
 10
59.945759044783408
 20
123.60972083132449
 30
0.0
 40
2.0
 50
0.0
 51
89.999999999999943
  0
ARC
  5
34BD
  8
0
 10
59.945759044783408
 20
97.609720831324523
 30
0.0
 40
2.0
 50
269.99999999999989
 51
0.0
  0
LINE
  5
34BE
  8
1
 10
25.652865825969911
 20
110.60972083132449
 30
0.0
 11
66.945759044783358
 21
110.60972083132449
 31
0.0
  0
LINE
  5
34C3
  8
0
 10
58.402606952752592
 20
106.60972083132449
 30
0.0
 11
58.402606952752592
 21
114.60972083132449
 31
0.0
  0
LINE
  5
34C4
  8
0
 10
54.902606952752592
 20
106.60972083132449
 30
0.0
 11
54.902606952752592
 21
107.60972083132449
 31
0.0
  0
LINE
  5
34C5
  8
0
 10
54.902606952752592
 20
114.60972083132449
 30
0.0
 11
58.402606952752592
 21
114.60972083132449
 31
0.0
  0
LINE
  5
34C6
  8
0
 10
54.90260695275262
 20
106.60972083132449
 30
0.0
 11
58.402606952752592
 21
106.60972083132449
 31
0.0
  0
LINE
  5
34C7
  8
0
 10
39.403237288765752
 20
106.60972083132449
 30
0.0
 11
39.403237288765752
 21
114.60972083132449
 31
0.0
  0
LINE
  5
34C8
  8
0
 10
35.903237288765752
 20
106.60972083132449
 30
0.0
 11
35.90323728876578
 21
107.60972083132449
 31
0.0
  0
LINE
  5
34CB
  8
0
 10
35.90323728876578
 20
106.60972083132449
 30
0.0
 11
39.403237288765752
 21
106.60972083132449
 31
0.0
  0
LINE
  5
34CE
  8
0
 10
35.903237288765752
 20
114.60972083132449
 30
0.0
 11
39.403237288765752
 21
114.60972083132449
 31
0.0
  0
LINE
  5
34D0
  8
0
 10
30.652865825969911
 20
98.609720831324523
 30
0.0
 11
37.653237288765702
 21
98.609720831324523
 31
0.0
  0
LINE
  5
34D1
  8
0
 10
30.652865825969911
 20
122.60972083132449
 30
0.0
 11
37.653237288765702
 21
122.60972083132449
 31
0.0
  0
ARC
  5
34D2
  8
0
 10
30.652865825969911
 20
110.60972083132449
 30
0.0
 40
0.75
 50
270.0
 51
90.0
  0
ARC
  5
34D3
  8
2
 10
34.252865825970851
 20
36.030046023385992
 30
0.0
 40
3.5
 50
13.72913267549076
 51
86.724171040216518
  0
ARC
  5
34D4
  8
2
 10
34.252865825970851
 20
32.518608107248681
 30
0.0
 40
3.5
 50
273.2758289597835
 51
346.27086732450931
  0
LINE
  5
34D5
  8
2
 10
34.452865825963528
 20
39.524327065317337
 30
0.0
 11
33.652865825969911
 21
39.524327065317337
 31
0.0
  0
LINE
  5
34D6
  8
2
 10
37.652865825969911
 20
36.860708409680299
 30
0.0
 11
37.652865825969911
 21
31.687945720954382
 31
0.0
  0
LINE
  5
34D7
  8
2
 10
34.452865825969923
 20
39.524327065317337
 30
0.0
 11
34.452865825969923
 21
29.02432706531734
 31
0.0
  0
LINE
  5
34D8
  8
2
 10
34.452865825969923
 20
29.02432706531734
 30
0.0
 11
33.652865825969911
 21
29.02432706531734
 31
0.0
  0
LINE
  5
34D9
  8
2
 10
31.652865825969911
 20
36.732827065317352
 30
0.0
 11
32.590771338268382
 21
37.274327065317308
 31
0.0
  0
LINE
  5
34DA
  8
2
 10
31.652865825969911
 20
31.81582706531724
 30
0.0
 11
32.590771338268269
 21
31.27432706531734
 31
0.0
  0
LINE
  5
34DB
  8
2
 10
31.65286582596994
 20
37.274327065317337
 30
0.0
 11
31.652865825969911
 21
31.27432706531734
 31
0.0
  0
LINE
  5
34DC
  8
0
 10
20.652865825969911
 20
37.274327065317337
 30
0.0
 11
20.652865825969879
 21
31.274327065317369
 31
0.0
  0
LINE
  5
34DD
  8
0
 10
19.652865825969911
 20
36.274327065317337
 30
0.0
 11
20.652865825969911
 21
37.274327065317337
 31
0.0
  0
LINE
  5
34DE
  8
0
 10
20.652865825969911
 20
31.274327065317369
 30
0.0
 11
19.652865825969911
 21
32.274327065317358
 31
0.0
  0
LINE
  5
34DF
  8
2
 10
33.652865825969911
 20
31.274327065317369
 30
0.0
 11
30.652865825969911
 21
31.274327065317369
 31
0.0
  0
LINE
  5
34E0
  8
2
 10
31.652865825969911
 20
31.81582706531724
 30
0.0
 11
30.652865825969911
 21
31.81582706531724
 31
0.0
  0
LINE
  5
34E1
  8
2
 10
31.65286582596994
 20
36.732827065317409
 30
0.0
 11
30.652865825969911
 21
36.732827065317409
 31
0.0
  0
LINE
  5
34E2
  8
2
 10
33.652865825969911
 20
37.274327065317337
 30
0.0
 11
30.652865825969911
 21
37.274327065317337
 31
0.0
  0
LINE
  5
34E3
  8
0
 10
19.652865825969911
 20
32.274327065317358
 30
0.0
 11
19.652865825969911
 21
36.274327065317337
 31
0.0
  0
LINE
  5
34E4
  8
2
 10
33.652865825969911
 20
39.524327065317337
 30
0.0
 11
33.652865825969911
 21
29.02432706531734
 31
0.0
  0
LINE
  5
34E5
  8
0
 10
11.63142307908703
 20
31.95141690321158
 30
0.0
 11
11.63142307908703
 21
29.824327065317231
 31
0.0
  0
LINE
  5
34E6
  8
0
 10
18.03996306783591
 20
38.774327065317337
 30
0.0
 11
18.03996306783591
 21
21.77432706531734
 31
0.0
  0
LINE
  5
34E7
  8
0
 10
11.63142307908884
 20
21.77432706531734
 30
0.0
 11
18.03996306783591
 21
21.77432706531734
 31
0.0
  0
LINE
  5
34E8
  8
0
 10
11.63142307908884
 20
26.724327065318811
 30
0.0
 11
11.63142307908884
 21
21.77432706531728
 31
0.0
  0
ARC
  5
34E9
  8
0
 10
10.26583466832238
 20
28.27432706531728
 30
0.0
 40
2.0657520924870849
 50
311.38085082295112
 51
48.619149177049479
  0
ARC
  5
34EA
  8
0
 10
12.789963067834149
 20
28.274890658226539
 30
0.0
 40
1.500000000000004
 50
125.1103092746927
 51
234.9152769787909
  0
LINE
  5
34EB
  8
0
 10
11.63142307908884
 20
38.774327065317337
 30
0.0
 11
18.03996306783591
 21
38.774327065317337
 31
0.0
  0
ARC
  5
34EC
  8
0
 10
10.539963067833749
 20
34.200575644571323
 30
0.0
 40
2.5
 50
295.88612944777219
 51
64.113870552181325
  0
LINE
  5
34ED
  8
0
 10
11.63142307908884
 20
38.77432706531728
 30
0.0
 11
11.63142307908884
 21
36.449734385930199
 31
0.0
  0
LINE
  5
34EF
  8
1
 10
45.652865825969911
 20
116.35972083132449
 30
0.0
 11
45.652865825969911
 21
104.85972083132449
 31
0.0
  0
LINE
  5
34F0
  8
0
 10
50.152865825969911
 20
69.477036642578284
 30
0.0
 11
50.152865825969911
 21
63.068496653831232
 31
0.0
  0
LINE
  5
34F1
  8
0
 10
33.152865825969911
 20
69.477036642578284
 30
0.0
 11
33.152865825969911
 21
63.068496653831232
 31
0.0
  0
LINE
  5
34F2
  8
0
 10
50.152865825969911
 20
63.068496653831232
 30
0.0
 11
33.152865825969911
 21
63.068496653831232
 31
0.0
  0
ARC
  5
34F4
  8
0
 10
39.652865825969862
 20
70.842625053344761
 30
0.0
 40
2.0657520924870849
 50
221.38085082295109
 51
318.61914917704951
  0
ARC
  5
34F5
  8
0
 10
39.653429418879107
 20
68.318496653832995
 30
0.0
 40
1.500000000000004
 50
35.110309274692682
 51
144.9152769787909
  0
LINE
  5
34F6
  8
0
 10
38.102865825971378
 20
69.477036642578284
 30
0.0
 11
33.152865825969862
 21
69.477036642578284
 31
0.0
  0
LINE
  5
34F7
  8
0
 10
50.152865825969847
 20
69.477036642578284
 30
0.0
 11
47.828273146582767
 21
69.477036642578284
 31
0.0
  0
ARC
  5
34F8
  8
0
 10
45.579114405223891
 20
70.568496653833392
 30
0.0
 40
2.5
 50
205.88612944777219
 51
334.11387055218142
  0
LINE
  5
34F9
  8
0
 10
43.329955663864148
 20
69.477036642580103
 30
0.0
 11
41.202865825969809
 21
69.477036642580103
 31
0.0
  0
ARC
  5
34FA
  8
2
 10
43.897146867901249
 20
45.67432706531639
 30
0.0
 40
3.5
 50
183.27582895978341
 51
256.27086732450931
  0
ARC
  5
34FB
  8
2
 10
47.408584784038567
 20
45.67432706531639
 30
0.0
 40
3.5
 50
283.7291326754908
 51
356.72417104021662
  0
LINE
  5
34FC
  8
2
 10
48.239247170332867
 20
42.274327065317323
 30
0.0
 11
43.066484481606949
 21
42.274327065317323
 31
0.0
  0
LINE
  5
34FD
  8
2
 10
48.652865825969911
 20
46.274327065317323
 30
0.0
 11
48.652865825969911
 21
49.274327065317323
 31
0.0
  0
LINE
  5
34FE
  8
2
 10
48.111365825969983
 20
48.274327065317287
 30
0.0
 11
48.111365825969983
 21
49.274327065317323
 31
0.0
  0
LINE
  5
34FF
  8
2
 10
43.194365825969797
 20
48.274327065317323
 30
0.0
 11
43.194365825969797
 21
49.274327065317323
 31
0.0
  0
LINE
  5
3500
  8
2
 10
42.65286582596994
 20
46.274327065317323
 30
0.0
 11
42.65286582596994
 21
49.274327065317323
 31
0.0
  0
LINE
  5
3501
  8
2
 10
50.902865825969911
 20
45.474327065317311
 30
0.0
 11
40.402865825969911
 21
45.474327065317311
 31
0.0
  0
LINE
  5
3502
  8
2
 10
50.902865825969911
 20
46.274327065317323
 30
0.0
 11
40.402865825969911
 21
46.274327065317323
 31
0.0
  0
LINE
  5
3503
  8
2
 10
48.652865825969911
 20
48.274327065317287
 30
0.0
 11
42.652865825969911
 21
48.274327065317323
 31
0.0
  0
LINE
  5
3504
  8
2
 10
40.402865825969911
 20
45.474327065317311
 30
0.0
 11
40.402865825969911
 21
46.274327065317323
 31
0.0
  0
LINE
  5
3505
  8
2
 10
43.194365825969797
 20
48.274327065317323
 30
0.0
 11
42.652865825969911
 21
47.336421553018958
 31
0.0
  0
LINE
  5
3506
  8
2
 10
48.111365825969933
 20
48.274327065317323
 30
0.0
 11
48.652865825969883
 21
47.336421553018852
 31
0.0
  0
LINE
  5
3507
  8
2
 10
50.902865825969911
 20
45.474327065323699
 30
0.0
 11
50.902865825969911
 21
46.274327065317323
 31
0.0
  0
LINE
  5
3508
  8
0
 10
43.652865825969933
 20
60.274327065317323
 30
0.0
 11
47.652865825969911
 21
60.274327065317323
 31
0.0
  0
LINE
  5
3509
  8
0
 10
48.652865825969911
 20
59.274327065317323
 30
0.0
 11
42.65286582596994
 21
59.274327065317351
 31
0.0
  0
LINE
  5
350A
  8
0
 10
42.65286582596994
 20
59.274327065317323
 30
0.0
 11
43.652865825969933
 21
60.274327065317323
 31
0.0
  0
LINE
  5
350B
  8
0
 10
47.652865825969911
 20
60.274327065317323
 30
0.0
 11
48.652865825969911
 21
59.274327065317323
 31
0.0
  0
LINE
  5
350C
  8
0
 10
42.65286582596994
 20
49.274327065317323
 30
0.0
 11
42.652865825969968
 21
59.274327065317323
 31
0.0
  0
LINE
  5
350D
  8
3
 10
43.194365825969797
 20
49.274327065317323
 30
0.0
 11
43.194365825969797
 21
59.815827065317187
 31
0.0
  0
LINE
  5
350E
  8
3
 10
48.111365825970012
 20
49.274327065317323
 30
0.0
 11
48.111365825970012
 21
59.815827065317187
 31
0.0
  0
LINE
  5
350F
  8
0
 10
48.652865825969883
 20
49.274327065317323
 30
0.0
 11
48.652865825969847
 21
59.274327065317323
 31
0.0
  0
LINE
  5
3510
  8
0
 10
30.652865825969911
 20
37.274327065317337
 30
0.0
 11
20.652865825969911
 21
37.274327065317337
 31
0.0
  0
LINE
  5
3511
  8
3
 10
30.652865825969911
 20
36.732827065317409
 30
0.0
 11
20.11136582596998
 21
36.732827065317409
 31
0.0
  0
LINE
  5
3512
  8
3
 10
30.652865825969911
 20
31.815827065317269
 30
0.0
 11
20.11136582596998
 21
31.815827065317269
 31
0.0
  0
LINE
  5
3513
  8
0
 10
30.652865825969911
 20
31.27432706531734
 30
0.0
 11
20.652865825969911
 21
31.27432706531734
 31
0.0
  0
LINE
  5
3514
  8
1
 10
45.652865825969911
 20
39.774327065317323
 30
0.0
 11
45.652865825969911
 21
71.977036642578284
 31
0.0
  0
LINE
  5
3515
  8
1
 10
40.152865825969911
 20
34.274327065317337
 30
0.0
 11
9.1314230790870283
 21
34.274327065317337
 31
0.0
  0
LINE
  5
36CA
  8
0
 10
54.321736494471217
 20
113.60972083132449
 30
0.0
 11
54.321736494471217
 21
107.60972083132449
 31
0.0
  0
LINE
  5
36CB
  8
0
 10
55.165100792626653
 20
113.60972083132449
 30
0.0
 11
55.165100792626667
 21
107.60972083132449
 31
0.0
  0
LINE
  5
36CC
  8
0
 10
57.67299083577047
 20
113.60972083132449
 30
0.0
 11
57.67299083577047
 21
107.60972083132449
 31
0.0
  0
LINE
  5
36CF
  8
0
 10
38.673621171783452
 20
113.60972083132449
 30
0.0
 11
38.673621171783452
 21
107.60972083132449
 31
0.0
  0
LINE
  5
36D0
  8
0
 10
36.165731128639862
 20
113.60972083132449
 30
0.0
 11
36.165731128639813
 21
107.60972083132449
 31
0.0
  0
LINE
  5
36D1
  8
0
 10
35.322366830484498
 20
113.60972083132449
 30
0.0
 11
35.322366830484498
 21
107.60972083132449
 31
0.0
  0
LINE
  5
36D4
  8
0
 10
35.903237288765752
 20
113.60972083132449
 30
0.0
 11
35.903237288765752
 21
114.60972083132449
 31
0.0
  0
LINE
  5
36D5
  8
0
 10
54.90260695275262
 20
113.60972083132459
 30
0.0
 11
54.902606952752592
 21
114.60972083132449
 31
0.0
  0
LINE
  5
36D6
  8
0
 10
29.165359665843852
 20
113.60972083132449
 30
0.0
 11
29.165359665843852
 21
107.60972083132449
 31
0.0
  0
LINE
  5
36D7
  8
0
 10
28.321995367688459
 20
113.60972083132449
 30
0.0
 11
28.32199536768843
 21
107.60972083132449
 31
0.0
  0
LINE
  5
3704
  8
0
 10
111.91379060068139
 20
51.60519752359869
 30
0.0
 11
111.91379060068139
 21
49.274327065317323
 31
0.0
  0
LINE
  5
3705
  8
0
 10
105.91379060068139
 20
51.60519752359869
 30
0.0
 11
105.91379060068139
 21
49.274327065317323
 31
0.0
  0
LINE
  5
370E
  8
0
 10
30.652865825969911
 20
113.60972083132449
 30
0.0
 11
28.32199536768843
 21
113.60972083132449
 31
0.0
  0
LINE
  5
370F
  8
0
 10
30.652865825969911
 20
107.60972083132449
 30
0.0
 11
28.32199536768843
 21
107.60972083132449
 31
0.0
  0
LINE
  5
3710
  8
0
 10
35.322366830484498
 20
113.60972083132449
 30
0.0
 11
38.673621171783452
 21
113.60972083132449
 31
0.0
  0
LINE
  5
3711
  8
0
 10
35.322366830484498
 20
107.60972083132449
 30
0.0
 11
38.673621171783452
 21
107.60972083132449
 31
0.0
  0
LINE
  5
3712
  8
0
 10
54.321736494471217
 20
113.60972083132449
 30
0.0
 11
57.67299083577047
 21
113.60972083132449
 31
0.0
  0
LINE
  5
3713
  8
0
 10
54.321736494471217
 20
107.60972083132449
 30
0.0
 11
57.67299083577047
 21
107.60972083132449
 31
0.0
  0
CIRCLE
  5
3714
  8
0
 10
45.652865825969911
 20
110.60972083132449
 30
0.0
 40
3.2999999999999989
  0
LINE
  5
374B
  8
0
 10
35.188399731902571
 20
18.567220284130759
 30
0.0
 11
61.359972607156472
 21
44.738793159384599
 31
0.0
  0
TEXT
  5
37F3
  8
0
 62
     3
 10
0.0
 20
0.0
 30
0.0
 40
10.0
  1
L6-BZN30
  7
STANDARD1
  0
ENDSEC
  0
EOF
