  0
SECTION
  2
HEADER
  9
$ACADVER
  1
AC1009
  9
$INSBASE
 10
7.37824081052986
 20
15.90864369846679
 30
0.0
  9
$EXTMIN
 10
0.0
 20
-2.960436562073669
 30
0.0
  9
$EXTMAX
 10
185.99110053956599
 20
167.5589977779498
 30
0.0
  9
$LIMMIN
 10
0.0
 20
0.0
  9
$LIMMAX
 10
385.0
 20
270.0
  9
$ORTHOMODE
 70
     1
  9
$REGENMODE
 70
     1
  9
$FILLMODE
 70
     1
  9
$QTEXTMODE
 70
     0
  9
$MIRRTEXT
 70
     0
  9
$DRAGMODE
 70
     2
  9
$LTSCALE
 40
10.0
  9
$OSMODE
 70
  3071
  9
$ATTMODE
 70
     1
  9
$TEXTSIZE
 40
4.0
  9
$TRACEWID
 40
0.05
  9
$TEXTSTYLE
  7
STANDARD
  9
$CLAYER
  8
2
  9
$CELTYPE
  6
BYLAYER
  9
$CECOLOR
 62
   256
  9
$DIMSCALE
 40
1.0
  9
$DIMASZ
 40
3.0
  9
$DIMEXO
 40
2.0
  9
$DIMDLI
 40
10.0
  9
$DIMRND
 40
0.0
  9
$DIMDLE
 40
0.0
  9
$DIMEXE
 40
2.0
  9
$DIMTP
 40
0.0
  9
$DIMTM
 40
0.0
  9
$DIMTXT
 40
3.0
  9
$DIMCEN
 40
0.09
  9
$DIMTSZ
 40
0.0
  9
$DIMTOL
 70
     0
  9
$DIMLIM
 70
     0
  9
$DIMTIH
 70
     0
  9
$DIMTOH
 70
     0
  9
$DIMSE1
 70
     0
  9
$DIMSE2
 70
     0
  9
$DIMTAD
 70
     1
  9
$DIMZIN
 70
     0
  9
$DIMBLK
  1

  9
$DIMASO
 70
     0
  9
$DIMSHO
 70
     0
  9
$DIMPOST
  1

  9
$DIMAPOST
  1

  9
$DIMALT
 70
     0
  9
$DIMALTD
 70
     2
  9
$DIMALTF
 40
25.399999999999999
  9
$DIMLFAC
 40
1.0
  9
$DIMTOFL
 70
     1
  9
$DIMTVP
 40
1.6000000000000001
  9
$DIMTIX
 70
     1
  9
$DIMSOXD
 70
     0
  9
$DIMSAH
 70
     0
  9
$DIMBLK1
  1

  9
$DIMBLK2
  1

  9
$DIMSTYLE
  2
STANDARD
  9
$DIMCLRD
 70
     0
  9
$DIMCLRE
 70
     0
  9
$DIMCLRT
 70
     0
  9
$DIMTFAC
 40
1.0
  9
$DIMGAP
 40
1.0
  9
$LUNITS
 70
     2
  9
$LUPREC
 70
     2
  9
$SKETCHINC
 40
0.1
  9
$FILLETRAD
 40
2.0
  9
$AUNITS
 70
     0
  9
$AUPREC
 70
     2
  9
$MENU
  1
E:\r13\win\SUPPORT\ACAD
  9
$ELEVATION
 40
0.0
  9
$PELEVATION
 40
0.0
  9
$THICKNESS
 40
0.0
  9
$LIMCHECK
 70
     0
  9
$BLIPMODE
 70
     0
  9
$CHAMFERA
 40
1.0
  9
$CHAMFERB
 40
1.0
  9
$SKPOLY
 70
     0
  9
$TDCREATE
 40
2450252.6853964119
  9
$TDUPDATE
 40
2456597.561548403
  9
$TDINDWG
 40
0.2187923148
  9
$TDUSRTIMER
 40
0.2187923148
  9
$USRTIMER
 70
     1
  9
$ANGBASE
 50
0.0
  9
$ANGDIR
 70
     0
  9
$PDMODE
 70
     0
  9
$PDSIZE
 40
0.0
  9
$PLINEWID
 40
0.0
  9
$COORDS
 70
     1
  9
$SPLFRAME
 70
     0
  9
$SPLINETYPE
 70
     6
  9
$SPLINESEGS
 70
     8
  9
$ATTDIA
 70
     0
  9
$ATTREQ
 70
     1
  9
$HANDLING
 70
     1
  9
$HANDSEED
  5
3AD6
  9
$SURFTAB1
 70
     6
  9
$SURFTAB2
 70
     6
  9
$SURFTYPE
 70
     6
  9
$SURFU
 70
     6
  9
$SURFV
 70
     6
  9
$UCSNAME
  2

  9
$UCSORG
 10
0.0
 20
0.0
 30
0.0
  9
$UCSXDIR
 10
1.0
 20
0.0
 30
0.0
  9
$UCSYDIR
 10
0.0
 20
1.0
 30
0.0
  9
$PUCSNAME
  2

  9
$PUCSORG
 10
0.0
 20
0.0
 30
0.0
  9
$PUCSXDIR
 10
1.0
 20
0.0
 30
0.0
  9
$PUCSYDIR
 10
0.0
 20
1.0
 30
0.0
  9
$USERI1
 70
     3
  9
$USERI2
 70
     1
  9
$USERI3
 70
     0
  9
$USERI4
 70
     1
  9
$USERI5
 70
     0
  9
$USERR1
 40
1.0
  9
$USERR2
 40
3.0
  9
$USERR3
 40
3.0
  9
$USERR4
 40
3.0
  9
$USERR5
 40
10.0
  9
$WORLDVIEW
 70
     1
  9
$SHADEDGE
 70
     3
  9
$SHADEDIF
 70
    70
  9
$TILEMODE
 70
     1
  9
$MAXACTVP
 70
    16
  9
$PLIMCHECK
 70
     0
  9
$PEXTMIN
 10
1.0000000000000000E+020
 20
1.0000000000000000E+020
 30
1.0000000000000000E+020
  9
$PEXTMAX
 10
-1.0000000000000000E+020
 20
-1.0000000000000000E+020
 30
-1.0000000000000000E+020
  9
$PLIMMIN
 10
0.0
 20
0.0
  9
$PLIMMAX
 10
12.0
 20
9.0
  9
$UNITMODE
 70
     0
  9
$VISRETAIN
 70
     0
  9
$PLINEGEN
 70
     0
  9
$PSLTSCALE
 70
     0
  0
ENDSEC
  0
SECTION
  2
TABLES
  0
TABLE
  2
VPORT
 70
     1
  0
VPORT
  2
*ACTIVE
 70
     0
 10
0.0
 20
0.0
 11
1.0
 21
1.0
 12
-3.8333164192626441
 22
-7.8088592925974458
 13
0.0
 23
0.0
 14
5.0
 24
5.0
 15
5.0
 25
5.0
 16
0.0
 26
0.0
 36
1.0
 17
196.32744223366581
 27
170.67049815206909
 37
0.0
 40
334.81001162774982
 41
1.9089595375722539
 42
50.0
 43
0.0
 44
0.0
 50
0.0
 51
0.0
 71
     0
 72
  1000
 73
     1
 74
     0
 75
     0
 76
     0
 77
     0
 78
     1
  0
ENDTAB
  0
TABLE
  2
LTYPE
 70
     8
  0
LTYPE
  2
CONTINUOUS
 70
     0
  3
Solid Line
 72
    65
 73
     0
 40
0.0
  0
LTYPE
  2
CENTER
 70
     0
  3
____ _ ____ _ ____ _ ____ _ ____ _ ____ _ ____
 72
    65
 73
     4
 40
2.0
 49
1.25
 49
-0.25
 49
0.25
 49
-0.25
  0
LTYPE
  2
HIDDEN
 70
     0
  3
_ _ _ _ _ _ _ _ _ _ _ _ _ _ _ _ _ _ _ _ _ _ _
 72
    65
 73
     2
 40
0.375
 49
0.25
 49
-0.125
  0
LTYPE
  2
PHANTOM2
 70
     0
  3
Phantom (.5x) ___ _ _ ___ _ _ ___ _ _ ___ _ _
 72
    65
 73
     6
 40
1.25
 49
0.625
 49
-0.125
 49
0.125
 49
-0.125
 49
0.125
 49
-0.125
  0
LTYPE
  2
AMCONSTR
 70
     0
  3
_______________________
 72
    65
 73
     2
 40
9999.0
 49
9999.0
 49
0.0
  0
LTYPE
  2
CENTER2
 70
     0
  3
Center (.5x) ___ _ ___ _ ___ _ ___ _ ___ _ ___
 72
    65
 73
     4
 40
1.125
 49
0.75
 49
-0.125
 49
0.125
 49
-0.125
  0
LTYPE
  2
HIDDEN2
 70
     0
  3
Hidden (.5x) _ _ _ _ _ _ _ _ _ _ _ _ _ _ _ _ _
 72
    65
 73
     2
 40
0.1875
 49
0.125
 49
-0.0625
  0
LTYPE
  2
AMZIGZAG2
 70
     0
  3
/\/-/\/-/\/-/\/-/\/-/\/
 72
    65
 73
     2
 40
0.4401
 49
0.0001
 49
-0.4400000000000001
  0
ENDTAB
  0
TABLE
  2
LAYER
 70
     4
  0
LAYER
  2
0
 70
     0
 62
     7
  6
CONTINUOUS
  0
LAYER
  2
1
 70
     0
 62
     1
  6
CENTER
  0
LAYER
  2
3
 70
     0
 62
     3
  6
CONTINUOUS
  0
LAYER
  2
2
 70
     0
 62
     2
  6
HIDDEN
  0
ENDTAB
  0
TABLE
  2
STYLE
 70
     3
  0
STYLE
  2
STANDARD
 70
     0
 40
0.0
 41
1.0
 50
0.0
 71
     0
 42
4.0
  3
simplex
  4
bigfont
  0
STYLE
  2

 70
     1
 40
0.0
 41
1.0
 50
0.0
 71
     0
 42
4.0
  3
ltypeshp.shx
  4

  0
STYLE
  2
STANDARD1
 70
     0
 40
0.0
 41
1.0
 50
0.0
 71
     0
 42
3.0
  3
txt
  4

  0
ENDTAB
  0
TABLE
  2
VIEW
 70
     0
  0
ENDTAB
  0
TABLE
  2
UCS
 70
     0
  0
ENDTAB
  0
TABLE
  2
APPID
 70
    20
  0
APPID
  2
ACAD
 70
     0
  0
APPID
  2
GENIUS_GENODEF_13
 70
     0
  0
APPID
  2
GENIUS_GENOENT_13
 70
     0
  0
APPID
  2
GENIUS_GENOBJ_13
 70
     0
  0
APPID
  2
GENIUS_GENOLIS_13
 70
     0
  0
APPID
  2
GENIUS_GENOREF_13
 70
     0
  0
APPID
  2
GENIUS_GENOBJ-N-FIL_13
 70
     0
  0
APPID
  2
GENIUS_GENDIM_13
 70
     0
  0
APPID
  2
GENIUS_GENDTOL_13
 70
     0
  0
APPID
  2
GENIUS_GE3DTOL_13
 70
     0
  0
APPID
  2
MCAD_NO_VIS
 70
     0
  0
APPID
  2
ACAD_TEMP_GRAPHIC
 70
     0
  0
APPID
  2
AD_DRAW
 70
     0
  0
APPID
  2
ACATTRIBSERVICES
 70
     0
  0
APPID
  2
ASURF_PCURVE_APPNAME
 70
     0
  0
APPID
  2
DESIGNERASSEMBLIES
 70
     0
  0
APPID
  2
ACADM_DIM_EDIT
 70
     0
  0
APPID
  2
AMDT_DM_ADJ
 70
     0
  0
APPID
  2
ACAD_MLEADERVER
 70
     0
  0
APPID
  2
ACAD_NAV_VCDISPLAY
 70
     0
  0
ENDTAB
  0
TABLE
  2
DIMSTYLE
 70
     1
  0
DIMSTYLE
  2
STANDARD
 70
     0
  3

  4

  5

  6

  7

 40
1.0
 41
0.18
 42
0.0625
 43
0.38
 44
0.18
 45
0.0
 46
0.0
 47
0.0
 48
0.0
140
0.18
141
0.09
142
0.0
143
25.399999999999999
144
1.0
145
0.0
146
1.0
147
0.09
 71
     0
 72
     0
 73
     1
 74
     1
 75
     0
 76
     0
 77
     0
 78
     0
170
     0
171
     2
172
     0
173
     0
174
     0
175
     0
176
     0
177
     0
178
     0
  0
ENDTAB
  0
ENDSEC
  0
SECTION
  2
BLOCKS
  0
BLOCK
  8
0
  2
$MODEL_SPACE
 70
     0
 10
0.0
 20
0.0
 30
0.0
  3
$MODEL_SPACE
  1

  0
ENDBLK
  5
37F6
  8
0
  0
BLOCK
 67
     1
  8
0
  2
$PAPER_SPACE
 70
     0
 10
0.0
 20
0.0
 30
0.0
  3
$PAPER_SPACE
  1

  0
ENDBLK
  5
37F4
 67
     1
  8
0
  0
BLOCK
  8
0
  2
*U0
 70
     1
 10
0.0
 20
0.0
 30
0.0
  3
*U0
  1

  0
ENDBLK
  5
38B7
  8
0
  0
ENDSEC
  0
SECTION
  2
ENTITIES
  0
LINE
  5
3651
  8
0
 10
170.99110053956599
 20
90.321980821432675
 30
0.0
 11
185.38871823590699
 21
90.321980821432675
 31
0.0
  0
LINE
  5
3652
  8
0
 10
183.29110053956589
 20
91.321980821432518
 30
0.0
 11
158.69110053956589
 21
91.321980821432561
 31
0.0
  0
LINE
  5
3653
  8
0
 10
183.29110053956589
 20
29.321980821430969
 30
0.0
 11
158.69110053956589
 21
29.321980821430941
 31
0.0
  0
ARC
  5
3654
  8
0
 10
158.69110053956589
 20
32.021980821430873
 30
0.0
 40
2.7000000000000002
 50
180.0
 51
270.0
  0
LINE
  5
3655
  8
0
 10
155.99110053956599
 20
88.621980821432629
 30
0.0
 11
155.99110053956591
 21
32.021980821431129
 31
0.0
  0
LINE
  5
3656
  8
0
 10
170.99110053956599
 20
90.321980821432675
 30
0.0
 11
156.5934828432249
 21
90.321980821432675
 31
0.0
  0
ARC
  5
3657
  8
0
 10
158.69110053956589
 20
88.621980821432629
 30
0.0
 40
2.7000000000000002
 50
90.0
 51
180.0
  0
LINE
  5
3658
  8
0
 10
173.99110053956599
 20
93.652851279713744
 30
0.0
 11
167.99110053956599
 21
93.652851279713744
 31
0.0
  0
LINE
  5
365C
  8
0
 10
52.555145263945811
 20
30.614874040245681
 30
0.0
 11
51.848038482759193
 21
31.32198082143228
 31
0.0
  0
ARC
  5
365E
  8
0
 10
183.29110053956589
 20
32.021980821430873
 30
0.0
 40
2.7000000000000002
 50
270.0
 51
0.0
  0
ARC
  5
365F
  8
0
 10
53.969358826318903
 20
32.029087602618837
 30
0.0
 40
2.0
 50
224.9999999999996
 51
314.99999999999989
1001
GENIUS_GENODEF_13
1002
{
1000
HIER
1070
     0
1002
}
1002
{
1000
MANEDIT
1070
     0
1002
}
1002
{
1000
NOSEL
1070
     0
1002
}
1002
{
1000
BEHIND
1070
     0
1002
}
1002
{
1000
REACTOR
1002
}
1001
GENIUS_GENOBJ-N-FIL_13
1002
{
1000
OWNER
1000
GEN
1002
}
  0
LINE
  5
3660
  8
0
 10
110.34803848275951
 20
91.321980821432419
 30
0.0
 11
52.348038482759527
 21
91.321980821432234
 31
0.0
  0
LINE
  5
3661
  8
0
 10
51.848038482759193
 20
31.32198082143228
 30
0.0
 11
110.84803848275951
 21
90.321980821432277
 31
0.0
  0
LINE
  5
3662
  8
0
 10
50.848038482759527
 20
89.821980821432277
 30
0.0
 11
50.848038482759421
 21
31.82198082143228
 31
0.0
  0
LINE
  5
3663
  8
0
 10
185.99110053956599
 20
88.621980821432629
 30
0.0
 11
185.99110053956591
 21
32.021980821430702
 31
0.0
  0
LINE
  5
3664
  8
1
 10
52.03644604084527
 20
34.133832136563782
 30
0.0
 11
48.115497195741199
 21
38.054780981667911
 31
0.0
  0
LINE
  5
3665
  8
0
 10
48.517168024477741
 20
36.809745854775848
 30
0.0
 11
49.360532322633077
 21
37.653110152931177
 31
0.0
  0
LINE
  5
3666
  8
0
 10
48.517168024477741
 20
36.809745854775848
 30
0.0
 11
50.848038482759449
 21
34.301855811631611
 31
0.0
  0
LINE
  5
3667
  8
0
 10
49.360532322633077
 20
37.653110152931177
 30
0.0
 11
50.848038482759421
 21
36.270599713676241
 31
0.0
  0
LINE
  5
3668
  8
0
 10
51.8480384827593
 20
31.32198082143228
 30
0.0
 11
51.348038482759307
 21
31.32198082143228
 31
0.0
  0
ARC
  5
3669
  8
0
 10
51.348038482759307
 20
31.82198082143228
 30
0.0
 40
0.5
 50
179.9999999999998
 51
269.99999999999977
  0
LINE
  5
366A
  8
1
 10
52.03644604084527
 20
56.133314390129023
 30
0.0
 11
48.115497195741057
 21
60.054263235233037
 31
0.0
  0
LINE
  5
366B
  8
0
 10
49.360532322632942
 20
59.652592406496652
 30
0.0
 11
50.848038482759449
 21
58.270081967241502
 31
0.0
  0
LINE
  5
366C
  8
0
 10
48.517168024477677
 20
58.80922810834123
 30
0.0
 11
50.848038482759449
 21
56.30133806519683
 31
0.0
  0
LINE
  5
366D
  8
0
 10
48.517168024477677
 20
58.80922810834123
 30
0.0
 11
49.360532322632942
 21
59.652592406496652
 31
0.0
  0
ARC
  5
366E
  8
0
 10
183.29110053956589
 20
88.621980821432629
 30
0.0
 40
2.7000000000000002
 50
0.0
 51
90.0
  0
ARC
  5
366F
  8
0
 10
52.348038482759527
 20
89.821980821432277
 30
0.0
 40
1.5
 50
90.0
 51
180.0
  0
LINE
  5
3670
  8
1
 10
86.378369413386565
 20
89.791908764022594
 30
0.0
 11
82.115756068958859
 21
94.054522108450527
 31
0.0
  0
LINE
  5
3671
  8
0
 10
83.360791195850652
 20
93.6528512797139
 30
0.0
 11
82.517426897695259
 21
92.809486981558649
 31
0.0
  0
LINE
  5
3672
  8
0
 10
83.360791195850652
 20
93.6528512797139
 30
0.0
 11
85.868681238994895
 21
91.321980821432305
 31
0.0
  0
LINE
  5
3673
  8
0
 10
82.517426897695259
 20
92.809486981558649
 30
0.0
 11
83.899937336950117
 21
91.321980821432305
 31
0.0
  0
ARC
  5
3674
  8
0
 10
110.1409317015716
 20
88.20066047787401
 30
0.0
 40
2.0
 50
314.99999999999989
 51
44.999999999999787
1001
GENIUS_GENODEF_13
1002
{
1000
HIER
1070
     0
1002
}
1002
{
1000
MANEDIT
1070
     0
1002
}
1002
{
1000
NOSEL
1070
     0
1002
}
1002
{
1000
BEHIND
1070
     0
1002
}
1002
{
1000
REACTOR
1002
}
1001
GENIUS_GENOBJ-N-FIL_13
1002
{
1000
OWNER
1000
GEN
1002
}
  0
LINE
  5
3675
  8
1
 10
108.3778516669518
 20
89.791908764022594
 30
0.0
 11
104.11523832252411
 21
94.054522108450314
 31
0.0
  0
LINE
  5
3676
  8
0
 10
105.3602734494162
 20
93.652851279713744
 30
0.0
 11
107.8681634925601
 21
91.321980821432376
 31
0.0
  0
LINE
  5
3677
  8
0
 10
104.5169091512608
 20
92.809486981558507
 30
0.0
 11
105.89941959051551
 21
91.321980821432376
 31
0.0
  0
LINE
  5
3678
  8
0
 10
105.3602734494162
 20
93.652851279713744
 30
0.0
 11
104.5169091512608
 21
92.809486981558507
 31
0.0
  0
LINE
  5
3679
  8
0
 10
110.84803848275951
 20
90.321980821432277
 30
0.0
 11
110.84803848275951
 21
90.821980821432277
 31
0.0
  0
ARC
  5
367A
  8
0
 10
110.34803848275951
 20
90.821980821432277
 30
0.0
 40
0.5
 50
0.0
 51
90.0
  0
LINE
  5
367B
  8
0
 10
111.55514526394469
 20
89.614874040247102
 30
0.0
 11
110.84803848275951
 21
90.321980821432277
 31
0.0
  0
LINE
  5
367C
  8
1
 10
170.99110053956599
 20
25.029087602619061
 30
0.0
 11
170.99110053956599
 21
99.021980821432663
 31
0.0
  0
LINE
  5
3680
  8
0
 10
52.348038482759527
 20
167.5589977779498
 30
0.0
 11
110.1409317015716
 21
167.55899777794971
 31
0.0
  0
LINE
  5
3681
  8
0
 10
83.098297355977024
 20
156.5589977779498
 30
0.0
 11
86.598297355977024
 21
156.5589977779498
 31
0.0
  0
LINE
  5
3682
  8
0
 10
83.098297355977053
 20
148.5589977779498
 30
0.0
 11
86.598297355977024
 21
148.5589977779498
 31
0.0
  0
LINE
  5
3683
  8
0
 10
52.348038482759527
 20
137.5589977779498
 30
0.0
 11
110.1409317015716
 21
137.5589977779498
 31
0.0
  0
LINE
  5
3684
  8
1
 10
45.848038482759527
 20
152.5589977779498
 30
0.0
 11
117.140931701573
 21
152.55899777794971
 31
0.0
  0
LINE
  5
368E
  8
0
 10
83.098297355977024
 20
148.5589977779498
 30
0.0
 11
83.098297355977053
 21
149.5589977779498
 31
0.0
  0
LINE
  5
3691
  8
0
 10
50.848038482759527
 20
139.0589977779498
 30
0.0
 11
50.848038482759527
 21
166.0589977779498
 31
0.0
  0
ARC
  5
3692
  8
0
 10
52.348038482759527
 20
139.0589977779498
 30
0.0
 40
1.5
 50
180.0
 51
270.0
  0
LINE
  5
3693
  8
0
 10
50.848038482759527
 20
140.5589977779498
 30
0.0
 11
57.848409945555318
 21
140.5589977779498
 31
0.0
  0
ARC
  5
3698
  8
0
 10
50.848038482759527
 20
152.5589977779498
 30
0.0
 40
0.75
 50
270.0
 51
90.0
  0
LINE
  5
369A
  8
0
 10
50.848038482759527
 20
164.5589977779498
 30
0.0
 11
57.848409945555318
 21
164.5589977779498
 31
0.0
  0
ARC
  5
369B
  8
0
 10
52.348038482759527
 20
166.0589977779498
 30
0.0
 40
1.5
 50
90.0
 51
180.0
  0
ARC
  5
369C
  8
0
 10
110.1409317015716
 20
139.5589977779498
 30
0.0
 40
2.0
 50
269.99999999999989
 51
0.0
  0
ARC
  5
369D
  8
0
 10
109.34803848275951
 20
139.0589977779498
 30
0.0
 40
1.5
 50
270.0
 51
0.0
  0
ARC
  5
369E
  8
0
 10
109.34803848275951
 20
166.05899777794971
 30
0.0
 40
1.5
 50
0.0
 51
90.0
  0
ARC
  5
369F
  8
0
 10
110.1409317015716
 20
165.5589977779498
 30
0.0
 40
2.0
 50
0.0
 51
89.999999999999943
  0
LINE
  5
36A0
  8
0
 10
108.5977796095422
 20
148.5589977779498
 30
0.0
 11
108.5977796095422
 21
156.5589977779498
 31
0.0
  0
LINE
  5
36A1
  8
0
 10
105.0977796095422
 20
148.5589977779498
 30
0.0
 11
105.0977796095422
 21
149.5589977779498
 31
0.0
  0
LINE
  5
36A4
  8
0
 10
86.598297355977024
 20
148.5589977779498
 30
0.0
 11
86.598297355977024
 21
156.5589977779498
 31
0.0
  0
LINE
  5
36A5
  8
1
 10
95.848038482759534
 20
158.3089977779498
 30
0.0
 11
95.848038482759534
 21
146.8089977779498
 31
0.0
  0
LINE
  5
36A7
  8
0
 10
105.0977796095422
 20
148.5589977779498
 30
0.0
 11
108.5977796095422
 21
148.5589977779498
 31
0.0
  0
LINE
  5
36AA
  8
0
 10
105.0977796095422
 20
156.5589977779498
 30
0.0
 11
108.5977796095422
 21
156.5589977779498
 31
0.0
  0
LINE
  5
36AB
  8
0
 10
110.84803848275951
 20
139.0589977779498
 30
0.0
 11
110.84803848275951
 21
166.05899777794971
 31
0.0
  0
LINE
  5
36AC
  8
0
 10
112.1409317015716
 20
139.5589977779498
 30
0.0
 11
112.1409317015716
 21
165.5589977779498
 31
0.0
  0
LINE
  5
36B5
  8
1
 10
65.848038482759534
 20
158.3089977779498
 30
0.0
 11
65.848038482759534
 21
146.8089977779498
 31
0.0
  0
LINE
  5
36C2
  8
0
 10
100.34803848275951
 20
111.52469039869329
 30
0.0
 11
100.34803848275951
 21
105.1161504099462
 31
0.0
  0
LINE
  5
36C3
  8
1
 10
95.848038482759534
 20
81.821980821432348
 30
0.0
 11
95.848038482759534
 21
114.02469039869329
 31
0.0
  0
LINE
  5
36C5
  8
0
 10
83.348038482759534
 20
111.52469039869329
 30
0.0
 11
83.348038482759534
 21
105.1161504099462
 31
0.0
  0
LINE
  5
36C6
  8
0
 10
100.34803848275951
 20
105.1161504099462
 30
0.0
 11
83.348038482759534
 21
105.1161504099462
 31
0.0
  0
LINE
  5
36C7
  8
0
 10
98.848038482759506
 20
91.321980821432362
 30
0.0
 11
98.848038482759478
 21
101.3219808214324
 31
0.0
  0
LINE
  5
36C8
  8
3
 10
98.306538482759635
 20
91.321980821432362
 30
0.0
 11
98.306538482759635
 21
101.8634808214322
 31
0.0
  0
LINE
  5
36C9
  8
3
 10
93.389538482759434
 20
91.321980821432362
 30
0.0
 11
93.389538482759434
 21
101.8634808214322
 31
0.0
  0
LINE
  5
36CA
  8
0
 10
92.848038482759563
 20
91.321980821432362
 30
0.0
 11
92.848038482759591
 21
101.3219808214324
 31
0.0
  0
LINE
  5
36CC
  8
0
 10
93.848038482759549
 20
102.32198082143231
 30
0.0
 11
97.848038482759534
 21
102.32198082143231
 31
0.0
  0
LINE
  5
36CD
  8
0
 10
98.848038482759534
 20
101.32198082143231
 30
0.0
 11
92.848038482759563
 21
101.3219808214324
 31
0.0
  0
LINE
  5
36CE
  8
0
 10
92.848038482759563
 20
101.32198082143231
 30
0.0
 11
93.848038482759549
 21
102.32198082143231
 31
0.0
  0
LINE
  5
36CF
  8
0
 10
97.848038482759534
 20
102.32198082143231
 30
0.0
 11
98.848038482759534
 21
101.32198082143231
 31
0.0
  0
ARC
  5
36D1
  8
0
 10
89.848602075668737
 20
110.36615040994801
 30
0.0
 40
1.500000000000004
 50
35.110309274692682
 51
144.9152769787909
  0
ARC
  5
36D2
  8
0
 10
89.848038482759478
 20
112.8902788094598
 30
0.0
 40
2.0657520924870849
 50
221.38085082295109
 51
318.61914917704951
  0
LINE
  5
36D3
  8
0
 10
88.298038482761001
 20
111.52469039869329
 30
0.0
 11
83.348038482759478
 21
111.52469039869329
 31
0.0
  0
LINE
  5
36D4
  8
0
 10
100.34803848275951
 20
111.52469039869329
 30
0.0
 11
98.023445803372411
 21
111.52469039869329
 31
0.0
  0
ARC
  5
36D5
  8
0
 10
95.774287062013514
 20
112.6161504099484
 30
0.0
 40
2.5
 50
205.88612944777219
 51
334.11387055218142
  0
LINE
  5
36D6
  8
0
 10
93.525128320653764
 20
111.5246903986951
 30
0.0
 11
91.398038482759446
 21
111.5246903986951
 31
0.0
  0
LINE
  5
36DA
  8
2
 10
101.09803848275951
 20
88.321980821432362
 30
0.0
 11
90.598038482759534
 21
88.321980821432362
 31
0.0
  0
LINE
  5
36DB
  8
2
 10
101.09803848275951
 20
87.521980821432365
 30
0.0
 11
90.598038482759534
 21
87.521980821432365
 31
0.0
  0
ARC
  5
36DC
  8
2
 10
97.603757440828204
 20
87.72198082143143
 30
0.0
 40
3.5
 50
283.7291326754908
 51
356.72417104021662
  0
ARC
  5
36DD
  8
2
 10
94.092319524690879
 20
87.72198082143143
 30
0.0
 40
3.5
 50
183.27582895978341
 51
256.27086732450931
  0
LINE
  5
36DE
  8
2
 10
98.434419827122497
 20
84.321980821432348
 30
0.0
 11
93.261657138396572
 21
84.321980821432348
 31
0.0
  0
LINE
  5
36DF
  8
2
 10
98.848038482759534
 20
90.321980821432376
 30
0.0
 11
92.848038482759534
 21
90.321980821432376
 31
0.0
  0
LINE
  5
36E0
  8
2
 10
92.848038482759563
 20
88.321980821432362
 30
0.0
 11
92.848038482759563
 21
91.321980821432362
 31
0.0
  0
LINE
  5
36E1
  8
2
 10
90.598038482759534
 20
87.521980821432365
 30
0.0
 11
90.598038482759534
 21
88.321980821432362
 31
0.0
  0
LINE
  5
36E2
  8
2
 10
93.389538482759434
 20
90.321980821432376
 30
0.0
 11
93.389538482759434
 21
91.321980821432362
 31
0.0
  0
LINE
  5
36E3
  8
2
 10
93.389538482759434
 20
90.321980821432376
 30
0.0
 11
92.848038482759534
 21
89.384075309134005
 31
0.0
  0
LINE
  5
36E4
  8
2
 10
98.848038482759534
 20
88.321980821432362
 30
0.0
 11
98.848038482759534
 21
91.321980821432362
 31
0.0
  0
LINE
  5
36E5
  8
2
 10
98.306538482759606
 20
90.321980821432376
 30
0.0
 11
98.306538482759606
 21
91.321980821432362
 31
0.0
  0
LINE
  5
36E6
  8
2
 10
98.306538482759564
 20
90.321980821432376
 30
0.0
 11
98.848038482759506
 21
89.384075309133891
 31
0.0
  0
LINE
  5
36E7
  8
2
 10
101.09803848275951
 20
87.521980821438774
 30
0.0
 11
101.09803848275951
 21
88.321980821432362
 31
0.0
  0
LINE
  5
36E8
  8
0
 10
68.848038482759534
 20
101.32198082143231
 30
0.0
 11
62.848038482759563
 21
101.3219808214324
 31
0.0
  0
LINE
  5
36E9
  8
0
 10
67.848038482759534
 20
102.32198082143231
 30
0.0
 11
68.848038482759534
 21
101.32198082143231
 31
0.0
  0
LINE
  5
36EA
  8
0
 10
63.848038482759563
 20
102.32198082143231
 30
0.0
 11
67.848038482759534
 21
102.32198082143231
 31
0.0
  0
LINE
  5
36EB
  8
0
 10
62.848038482759563
 20
101.32198082143231
 30
0.0
 11
63.848038482759563
 21
102.32198082143231
 31
0.0
  0
LINE
  5
36EC
  8
0
 10
63.525128320653778
 20
111.5246903986951
 30
0.0
 11
61.398038482759432
 21
111.5246903986951
 31
0.0
  0
LINE
  5
36ED
  8
0
 10
70.348038482759534
 20
105.1161504099462
 30
0.0
 11
53.348038482759527
 21
105.1161504099462
 31
0.0
  0
LINE
  5
36EE
  8
0
 10
53.348038482759527
 20
111.52469039869329
 30
0.0
 11
53.348038482759527
 21
105.1161504099462
 31
0.0
  0
LINE
  5
36EF
  8
0
 10
58.298038482761001
 20
111.52469039869329
 30
0.0
 11
53.348038482759478
 21
111.52469039869329
 31
0.0
  0
ARC
  5
36F0
  8
0
 10
59.848602075668737
 20
110.36615040994801
 30
0.0
 40
1.500000000000004
 50
35.110309274692682
 51
144.9152769787909
  0
ARC
  5
36F1
  8
0
 10
59.848038482759478
 20
112.8902788094598
 30
0.0
 40
2.0657520924870849
 50
221.38085082295109
 51
318.61914917704951
  0
LINE
  5
36F2
  8
0
 10
70.348038482759534
 20
111.52469039869329
 30
0.0
 11
70.348038482759534
 21
105.1161504099462
 31
0.0
  0
ARC
  5
36F4
  8
0
 10
65.774287062013514
 20
112.6161504099484
 30
0.0
 40
2.5
 50
205.88612944777219
 51
334.11387055218142
  0
LINE
  5
36F5
  8
0
 10
70.348038482759478
 20
111.52469039869329
 30
0.0
 11
68.023445803372397
 21
111.52469039869329
 31
0.0
  0
ARC
  5
36F6
  8
2
 10
67.60375744082819
 20
87.72198082143143
 30
0.0
 40
3.5
 50
283.7291326754908
 51
356.72417104021662
  0
ARC
  5
36F7
  8
2
 10
64.092319524690879
 20
87.72198082143143
 30
0.0
 40
3.5
 50
183.27582895978341
 51
256.27086732450931
  0
LINE
  5
36F8
  8
2
 10
68.434419827122497
 20
84.321980821432348
 30
0.0
 11
63.261657138396572
 21
84.321980821432348
 31
0.0
  0
LINE
  5
36F9
  8
2
 10
71.098038482759534
 20
88.321980821432362
 30
0.0
 11
60.598038482759527
 21
88.321980821432362
 31
0.0
  0
LINE
  5
36FA
  8
2
 10
71.098038482759534
 20
87.521980821432365
 30
0.0
 11
60.598038482759527
 21
87.521980821432365
 31
0.0
  0
LINE
  5
36FB
  8
2
 10
60.598038482759527
 20
87.521980821432365
 30
0.0
 11
60.598038482759527
 21
88.321980821432362
 31
0.0
  0
LINE
  5
36FC
  8
2
 10
68.848038482759534
 20
90.321980821432376
 30
0.0
 11
62.848038482759527
 21
90.321980821432376
 31
0.0
  0
LINE
  5
36FD
  8
2
 10
63.389538482759427
 20
90.321980821432376
 30
0.0
 11
63.389538482759427
 21
91.321980821432362
 31
0.0
  0
LINE
  5
36FE
  8
2
 10
62.848038482759563
 20
88.321980821432362
 30
0.0
 11
62.848038482759563
 21
91.321980821432362
 31
0.0
  0
LINE
  5
36FF
  8
2
 10
63.389538482759427
 20
90.321980821432376
 30
0.0
 11
62.848038482759527
 21
89.384075309134005
 31
0.0
  0
LINE
  5
3700
  8
2
 10
68.306538482759606
 20
90.321980821432376
 30
0.0
 11
68.306538482759606
 21
91.321980821432362
 31
0.0
  0
LINE
  5
3701
  8
2
 10
68.848038482759534
 20
88.321980821432362
 30
0.0
 11
68.848038482759534
 21
91.321980821432362
 31
0.0
  0
LINE
  5
3702
  8
2
 10
68.306538482759549
 20
90.321980821432376
 30
0.0
 11
68.848038482759506
 21
89.384075309133891
 31
0.0
  0
LINE
  5
3703
  8
2
 10
71.098038482759534
 20
87.521980821438774
 30
0.0
 11
71.098038482759534
 21
88.321980821432362
 31
0.0
  0
LINE
  5
3704
  8
0
 10
68.848038482759506
 20
91.321980821432362
 30
0.0
 11
68.848038482759463
 21
101.3219808214324
 31
0.0
  0
LINE
  5
3705
  8
3
 10
68.306538482759635
 20
91.321980821432362
 30
0.0
 11
68.306538482759635
 21
101.8634808214322
 31
0.0
  0
LINE
  5
3706
  8
3
 10
63.389538482759427
 20
91.321980821432362
 30
0.0
 11
63.389538482759427
 21
101.8634808214322
 31
0.0
  0
LINE
  5
3707
  8
0
 10
62.848038482759563
 20
91.321980821432362
 30
0.0
 11
62.848038482759591
 21
101.3219808214324
 31
0.0
  0
LINE
  5
3708
  8
1
 10
65.848038482759534
 20
81.821980821432348
 30
0.0
 11
65.848038482759534
 21
114.02469039869329
 31
0.0
  0
LINE
  5
3709
  8
0
 10
39.848038482759449
 20
48.321980821432277
 30
0.0
 11
40.848038482759449
 21
49.32198082143227
 31
0.0
  0
LINE
  5
370A
  8
2
 10
57.848038482759449
 20
48.908362165795239
 30
0.0
 11
57.848038482759449
 21
43.735599477069307
 31
0.0
  0
LINE
  5
370B
  8
2
 10
51.84803848275947
 20
49.32198082143227
 30
0.0
 11
51.848038482759449
 21
43.321980821432277
 31
0.0
  0
LINE
  5
370C
  8
2
 10
53.848038482759449
 20
51.571980821432277
 30
0.0
 11
53.848038482759449
 21
41.07198082143227
 31
0.0
  0
LINE
  5
370D
  8
2
 10
54.648038482759461
 20
51.571980821432277
 30
0.0
 11
54.648038482759461
 21
41.07198082143227
 31
0.0
  0
LINE
  5
370E
  8
0
 10
40.848038482759449
 20
49.32198082143227
 30
0.0
 11
40.848038482759407
 21
43.321980821432298
 31
0.0
  0
LINE
  5
370F
  8
0
 10
50.848038482759449
 20
43.321980821432277
 30
0.0
 11
40.848038482759449
 21
43.321980821432277
 31
0.0
  0
LINE
  5
3710
  8
3
 10
50.848038482759449
 20
43.863480821432212
 30
0.0
 11
40.306538482759521
 21
43.863480821432212
 31
0.0
  0
LINE
  5
3711
  8
0
 10
40.848038482759449
 20
43.321980821432298
 30
0.0
 11
39.848038482759449
 21
44.321980821432298
 31
0.0
  0
LINE
  5
3712
  8
0
 10
39.848038482759449
 20
44.321980821432298
 30
0.0
 11
39.848038482759449
 21
48.321980821432277
 31
0.0
  0
ARC
  5
3714
  8
2
 10
54.448038482760381
 20
44.566261863363621
 30
0.0
 40
3.5
 50
273.2758289597835
 51
346.27086732450931
  0
LINE
  5
3715
  8
2
 10
54.648038482759461
 20
41.07198082143227
 30
0.0
 11
53.848038482759449
 21
41.07198082143227
 31
0.0
  0
LINE
  5
3716
  8
2
 10
53.848038482759449
 20
43.321980821432298
 30
0.0
 11
50.848038482759449
 21
43.321980821432298
 31
0.0
  0
LINE
  5
3717
  8
2
 10
51.848038482759449
 20
43.863480821432169
 30
0.0
 11
50.848038482759449
 21
43.863480821432169
 31
0.0
  0
LINE
  5
3718
  8
2
 10
51.848038482759449
 20
43.863480821432169
 30
0.0
 11
52.785943995057814
 21
43.321980821432277
 31
0.0
  0
LINE
  5
3719
  8
3
 10
50.848038482759449
 20
48.780480821432349
 30
0.0
 11
40.306538482759521
 21
48.780480821432349
 31
0.0
  0
LINE
  5
371A
  8
0
 10
50.848038482759449
 20
49.32198082143227
 30
0.0
 11
40.848038482759449
 21
49.32198082143227
 31
0.0
  0
LINE
  5
371B
  8
2
 10
53.848038482759449
 20
49.32198082143227
 30
0.0
 11
50.848038482759449
 21
49.32198082143227
 31
0.0
  0
LINE
  5
371C
  8
2
 10
51.848038482759449
 20
48.780480821432292
 30
0.0
 11
52.78594399505792
 21
49.321980821432248
 31
0.0
  0
LINE
  5
371D
  8
2
 10
51.84803848275947
 20
48.780480821432349
 30
0.0
 11
50.848038482759449
 21
48.780480821432349
 31
0.0
  0
ARC
  5
371E
  8
2
 10
54.448038482760381
 20
48.077699779500932
 30
0.0
 40
3.5
 50
13.72913267549076
 51
86.724171040216518
  0
LINE
  5
371F
  8
2
 10
54.648038482753059
 20
51.571980821432277
 30
0.0
 11
53.848038482759449
 21
51.571980821432277
 31
0.0
  0
ARC
  5
3720
  8
0
 10
30.735135724623291
 20
46.248229400686249
 30
0.0
 40
2.5
 50
295.88612944777219
 51
64.113870552181325
  0
LINE
  5
3721
  8
0
 10
38.235135724625451
 20
50.821980821432277
 30
0.0
 11
38.235135724625451
 21
33.821980821432277
 31
0.0
  0
LINE
  5
3722
  8
0
 10
31.826595735878389
 20
33.821980821432277
 30
0.0
 11
38.235135724625451
 21
33.821980821432277
 31
0.0
  0
LINE
  5
3723
  8
0
 10
31.826595735878389
 20
38.77198082143375
 30
0.0
 11
31.826595735878389
 21
33.82198082143222
 31
0.0
  0
ARC
  5
3724
  8
0
 10
30.461007325111922
 20
40.32198082143222
 30
0.0
 40
2.0657520924870849
 50
311.38085082295112
 51
48.619149177049479
  0
ARC
  5
3725
  8
0
 10
32.985135724623689
 20
40.322544414341472
 30
0.0
 40
1.500000000000004
 50
125.1103092746927
 51
234.9152769787909
  0
LINE
  5
3726
  8
0
 10
31.82659573587657
 20
43.99907065932652
 30
0.0
 11
31.82659573587657
 21
41.871980821432167
 31
0.0
  0
LINE
  5
3727
  8
0
 10
31.826595735878389
 20
50.821980821432277
 30
0.0
 11
38.235135724625451
 21
50.821980821432277
 31
0.0
  0
LINE
  5
3728
  8
0
 10
31.826595735878389
 20
50.821980821432213
 30
0.0
 11
31.826595735878389
 21
48.497388142045132
 31
0.0
  0
LINE
  5
3729
  8
1
 10
60.348038482759449
 20
46.321980821432277
 30
0.0
 11
29.326595735878389
 21
46.321980821432277
 31
0.0
  0
LINE
  5
372A
  8
1
 10
60.348038482759449
 20
76.321980821432277
 30
0.0
 11
29.326595735878389
 21
76.321980821432277
 31
0.0
  0
LINE
  5
372B
  8
3
 10
50.848038482759449
 20
78.780480821432349
 30
0.0
 11
40.306538482759521
 21
78.780480821432349
 31
0.0
  0
LINE
  5
372C
  8
0
 10
50.848038482759449
 20
79.321980821432277
 30
0.0
 11
40.848038482759449
 21
79.321980821432277
 31
0.0
  0
LINE
  5
372D
  8
0
 10
50.848038482759449
 20
73.321980821432277
 30
0.0
 11
40.848038482759449
 21
73.321980821432277
 31
0.0
  0
LINE
  5
372E
  8
3
 10
50.848038482759449
 20
73.863480821432205
 30
0.0
 11
40.306538482759521
 21
73.863480821432205
 31
0.0
  0
LINE
  5
372F
  8
0
 10
40.848038482759449
 20
79.321980821432277
 30
0.0
 11
40.848038482759407
 21
73.321980821432305
 31
0.0
  0
LINE
  5
3730
  8
0
 10
39.848038482759449
 20
74.321980821432305
 30
0.0
 11
39.848038482759449
 21
78.321980821432277
 31
0.0
  0
ARC
  5
3731
  8
0
 10
30.735135724623291
 20
76.248229400686256
 30
0.0
 40
2.5
 50
295.88612944777219
 51
64.113870552181325
  0
LINE
  5
3732
  8
0
 10
31.82659573587657
 20
73.99907065932652
 30
0.0
 11
31.82659573587657
 21
71.871980821432174
 31
0.0
  0
LINE
  5
3733
  8
0
 10
40.848038482759449
 20
73.321980821432305
 30
0.0
 11
39.848038482759449
 21
74.321980821432305
 31
0.0
  0
LINE
  5
3734
  8
0
 10
31.826595735878389
 20
80.821980821432277
 30
0.0
 11
38.235135724625451
 21
80.821980821432277
 31
0.0
  0
LINE
  5
3735
  8
0
 10
31.826595735878389
 20
80.821980821432206
 30
0.0
 11
31.826595735878389
 21
78.497388142045125
 31
0.0
  0
LINE
  5
3736
  8
0
 10
39.848038482759449
 20
78.321980821432277
 30
0.0
 11
40.848038482759449
 21
79.321980821432277
 31
0.0
  0
LINE
  5
3738
  8
2
 10
57.848038482759449
 20
78.908362165795239
 30
0.0
 11
57.848038482759449
 21
73.735599477069314
 31
0.0
  0
LINE
  5
3739
  8
2
 10
51.84803848275947
 20
79.321980821432277
 30
0.0
 11
51.848038482759449
 21
73.321980821432277
 31
0.0
  0
LINE
  5
373A
  8
2
 10
53.848038482759449
 20
81.571980821432277
 30
0.0
 11
53.848038482759449
 21
71.071980821432277
 31
0.0
  0
LINE
  5
373B
  8
2
 10
54.648038482759461
 20
81.571980821432277
 30
0.0
 11
54.648038482759461
 21
71.071980821432277
 31
0.0
  0
LINE
  5
373C
  8
2
 10
53.848038482759449
 20
73.321980821432305
 30
0.0
 11
50.848038482759449
 21
73.321980821432305
 31
0.0
  0
LINE
  5
373D
  8
2
 10
51.848038482759449
 20
73.863480821432177
 30
0.0
 11
50.848038482759449
 21
73.863480821432177
 31
0.0
  0
LINE
  5
373E
  8
2
 10
51.848038482759449
 20
73.863480821432177
 30
0.0
 11
52.785943995057814
 21
73.321980821432277
 31
0.0
  0
ARC
  5
373F
  8
2
 10
54.448038482760381
 20
74.566261863363621
 30
0.0
 40
3.5
 50
273.2758289597835
 51
346.27086732450931
  0
LINE
  5
3740
  8
2
 10
54.648038482759461
 20
71.071980821432277
 30
0.0
 11
53.848038482759449
 21
71.071980821432277
 31
0.0
  0
LINE
  5
3741
  8
2
 10
53.848038482759449
 20
79.321980821432277
 30
0.0
 11
50.848038482759449
 21
79.321980821432277
 31
0.0
  0
LINE
  5
3742
  8
2
 10
51.84803848275947
 20
78.780480821432349
 30
0.0
 11
50.848038482759449
 21
78.780480821432349
 31
0.0
  0
LINE
  5
3743
  8
2
 10
51.848038482759449
 20
78.780480821432292
 30
0.0
 11
52.78594399505792
 21
79.321980821432248
 31
0.0
  0
ARC
  5
3744
  8
2
 10
54.448038482760381
 20
78.077699779500932
 30
0.0
 40
3.5
 50
13.72913267549076
 51
86.724171040216518
  0
LINE
  5
3745
  8
2
 10
54.648038482753059
 20
81.571980821432277
 30
0.0
 11
53.848038482759449
 21
81.571980821432277
 31
0.0
  0
LINE
  5
3746
  8
0
 10
38.235135724625451
 20
80.821980821432277
 30
0.0
 11
38.235135724625451
 21
63.821980821432277
 31
0.0
  0
LINE
  5
3747
  8
0
 10
31.826595735878389
 20
63.821980821432277
 30
0.0
 11
38.235135724625451
 21
63.821980821432277
 31
0.0
  0
ARC
  5
3748
  8
0
 10
30.461007325111922
 20
70.32198082143222
 30
0.0
 40
2.0657520924870849
 50
311.38085082295112
 51
48.619149177049479
  0
ARC
  5
3749
  8
0
 10
32.985135724623689
 20
70.322544414341465
 30
0.0
 40
1.500000000000004
 50
125.1103092746927
 51
234.9152769787909
  0
LINE
  5
374A
  8
0
 10
31.826595735878389
 20
68.771980821433743
 30
0.0
 11
31.826595735878389
 21
63.82198082143222
 31
0.0
  0
LINE
  5
3905
  8
0
 10
173.99110053956599
 20
93.652851279713744
 30
0.0
 11
173.99110053956599
 21
91.321980821432604
 31
0.0
  0
LINE
  5
3906
  8
0
 10
167.99110053956599
 20
93.652851279713744
 30
0.0
 11
167.99110053956599
 21
91.321980821432604
 31
0.0
  0
LINE
  5
3908
  8
0
 10
106.15265510445781
 20
149.5589977779498
 30
0.0
 11
107.54290411462659
 21
149.5589977779498
 31
0.0
  0
LINE
  5
3909
  8
0
 10
106.15265510445781
 20
155.5589977779498
 30
0.0
 11
107.54290411462659
 21
155.55899777794971
 31
0.0
  0
LINE
  5
3912
  8
0
 10
107.8681634925601
 20
155.5589977779498
 30
0.0
 11
107.8681634925601
 21
149.5589977779498
 31
0.0
  0
LINE
  5
3913
  8
0
 10
105.3602734494162
 20
155.5589977779498
 30
0.0
 11
105.3602734494162
 21
149.5589977779498
 31
0.0
  0
LINE
  5
3915
  8
0
 10
104.5169091512608
 20
155.5589977779498
 30
0.0
 11
104.5169091512608
 21
149.5589977779498
 31
0.0
  0
LINE
  5
3919
  8
0
 10
49.360532322632942
 20
155.5589977779498
 30
0.0
 11
49.360532322632942
 21
149.5589977779498
 31
0.0
  0
LINE
  5
391A
  8
0
 10
48.517168024477677
 20
155.5589977779498
 30
0.0
 11
48.517168024477677
 21
149.5589977779498
 31
0.0
  0
LINE
  5
391B
  8
0
 10
48.517168024477677
 20
155.5589977779498
 30
0.0
 11
50.848038482759527
 21
155.5589977779498
 31
0.0
  0
LINE
  5
391C
  8
0
 10
48.517168024477677
 20
149.5589977779498
 30
0.0
 11
50.848038482759527
 21
149.5589977779498
 31
0.0
  0
LINE
  5
391F
  8
0
 10
104.5169091512608
 20
155.5589977779498
 30
0.0
 11
107.8681634925601
 21
155.5589977779498
 31
0.0
  0
LINE
  5
3920
  8
0
 10
104.5169091512608
 20
149.5589977779498
 30
0.0
 11
107.8681634925601
 21
149.5589977779498
 31
0.0
  0
LINE
  5
3921
  8
0
 10
105.0977796095422
 20
155.55899777794971
 30
0.0
 11
105.0977796095422
 21
156.5589977779498
 31
0.0
  0
LINE
  5
3925
  8
0
 10
82.517426897695614
 20
155.5589977779498
 30
0.0
 11
85.868681238994895
 21
155.5589977779498
 31
0.0
  0
LINE
  5
3926
  8
0
 10
85.868681238994895
 20
155.5589977779498
 30
0.0
 11
85.868681238994895
 21
149.5589977779498
 31
0.0
  0
LINE
  5
3927
  8
0
 10
84.153172850892645
 20
155.5589977779498
 30
0.0
 11
85.543421861061404
 21
155.55899777794971
 31
0.0
  0
LINE
  5
3928
  8
0
 10
82.517426897695614
 20
155.5589977779498
 30
0.0
 11
82.517426897695614
 21
149.5589977779498
 31
0.0
  0
LINE
  5
3929
  8
0
 10
83.360791195851064
 20
155.5589977779498
 30
0.0
 11
83.360791195851064
 21
149.5589977779498
 31
0.0
  0
LINE
  5
392A
  8
0
 10
82.517426897695614
 20
149.5589977779498
 30
0.0
 11
85.868681238994895
 21
149.5589977779498
 31
0.0
  0
LINE
  5
392B
  8
0
 10
83.098297355977024
 20
155.55899777794971
 30
0.0
 11
83.098297355977024
 21
156.5589977779498
 31
0.0
  0
CIRCLE
  5
3930
  8
0
 10
65.848038482759534
 20
152.5589977779498
 30
0.0
 40
3.2999999999999989
  0
CIRCLE
  5
3931
  8
0
 10
95.848038482759534
 20
152.5589977779498
 30
0.0
 40
3.2999999999999989
  0
LINE
  5
399F
  8
0
 10
55.38357238869196
 20
30.61487404024572
 30
0.0
 11
111.555145263946
 21
86.786446915499525
 31
0.0
  0
TEXT
  5
3A49
  8
0
 62
     3
 10
0.0
 20
0.0
 30
0.0
 40
10.0
  1
L6-BZN60
  7
STANDARD1
  0
ENDSEC
  0
EOF
