  0
SECTION
  2
HEADER
  9
$ACADVER
  1
AC1009
  9
$INSBASE
 10
7.37824081052986
 20
15.90864369846679
 30
0.0
  9
$EXTMIN
 10
0.0
 20
-2.960436562073669
 30
0.0
  9
$EXTMAX
 10
288.1633665470066
 20
250.30829868819521
 30
0.0
  9
$LIMMIN
 10
0.0
 20
0.0
  9
$LIMMAX
 10
385.0
 20
270.0
  9
$ORTHOMODE
 70
     1
  9
$REGENMODE
 70
     1
  9
$FILLMODE
 70
     1
  9
$QTEXTMODE
 70
     0
  9
$MIRRTEXT
 70
     0
  9
$DRAGMODE
 70
     2
  9
$LTSCALE
 40
10.0
  9
$OSMODE
 70
  3071
  9
$ATTMODE
 70
     1
  9
$TEXTSIZE
 40
4.0
  9
$TRACEWID
 40
0.05
  9
$TEXTSTYLE
  7
STANDARD
  9
$CLAYER
  8
0
  9
$CELTYPE
  6
BYLAYER
  9
$CECOLOR
 62
   256
  9
$DIMSCALE
 40
1.0
  9
$DIMASZ
 40
3.0
  9
$DIMEXO
 40
2.0
  9
$DIMDLI
 40
10.0
  9
$DIMRND
 40
0.0
  9
$DIMDLE
 40
0.0
  9
$DIMEXE
 40
2.0
  9
$DIMTP
 40
0.0
  9
$DIMTM
 40
0.0
  9
$DIMTXT
 40
3.0
  9
$DIMCEN
 40
0.09
  9
$DIMTSZ
 40
0.0
  9
$DIMTOL
 70
     0
  9
$DIMLIM
 70
     0
  9
$DIMTIH
 70
     0
  9
$DIMTOH
 70
     0
  9
$DIMSE1
 70
     0
  9
$DIMSE2
 70
     0
  9
$DIMTAD
 70
     1
  9
$DIMZIN
 70
     0
  9
$DIMBLK
  1

  9
$DIMASO
 70
     0
  9
$DIMSHO
 70
     0
  9
$DIMPOST
  1

  9
$DIMAPOST
  1

  9
$DIMALT
 70
     0
  9
$DIMALTD
 70
     2
  9
$DIMALTF
 40
25.399999999999999
  9
$DIMLFAC
 40
1.0
  9
$DIMTOFL
 70
     1
  9
$DIMTVP
 40
1.6000000000000001
  9
$DIMTIX
 70
     1
  9
$DIMSOXD
 70
     0
  9
$DIMSAH
 70
     0
  9
$DIMBLK1
  1

  9
$DIMBLK2
  1

  9
$DIMSTYLE
  2
STANDARD
  9
$DIMCLRD
 70
     0
  9
$DIMCLRE
 70
     0
  9
$DIMCLRT
 70
     0
  9
$DIMTFAC
 40
1.0
  9
$DIMGAP
 40
1.0
  9
$LUNITS
 70
     2
  9
$LUPREC
 70
     2
  9
$SKETCHINC
 40
0.1
  9
$FILLETRAD
 40
0.0
  9
$AUNITS
 70
     0
  9
$AUPREC
 70
     2
  9
$MENU
  1
E:\r13\win\SUPPORT\ACAD
  9
$ELEVATION
 40
0.0
  9
$PELEVATION
 40
0.0
  9
$THICKNESS
 40
0.0
  9
$LIMCHECK
 70
     0
  9
$BLIPMODE
 70
     0
  9
$CHAMFERA
 40
1.0
  9
$CHAMFERB
 40
1.0
  9
$SKPOLY
 70
     0
  9
$TDCREATE
 40
2450252.6853964119
  9
$TDUPDATE
 40
2456597.5616240399
  9
$TDINDWG
 40
0.1576740972
  9
$TDUSRTIMER
 40
0.1576740972
  9
$USRTIMER
 70
     1
  9
$ANGBASE
 50
0.0
  9
$ANGDIR
 70
     0
  9
$PDMODE
 70
     0
  9
$PDSIZE
 40
0.0
  9
$PLINEWID
 40
0.0
  9
$COORDS
 70
     1
  9
$SPLFRAME
 70
     0
  9
$SPLINETYPE
 70
     6
  9
$SPLINESEGS
 70
     8
  9
$ATTDIA
 70
     0
  9
$ATTREQ
 70
     1
  9
$HANDLING
 70
     1
  9
$HANDSEED
  5
28BA
  9
$SURFTAB1
 70
     6
  9
$SURFTAB2
 70
     6
  9
$SURFTYPE
 70
     6
  9
$SURFU
 70
     6
  9
$SURFV
 70
     6
  9
$UCSNAME
  2

  9
$UCSORG
 10
0.0
 20
0.0
 30
0.0
  9
$UCSXDIR
 10
1.0
 20
0.0
 30
0.0
  9
$UCSYDIR
 10
0.0
 20
1.0
 30
0.0
  9
$PUCSNAME
  2

  9
$PUCSORG
 10
0.0
 20
0.0
 30
0.0
  9
$PUCSXDIR
 10
1.0
 20
0.0
 30
0.0
  9
$PUCSYDIR
 10
0.0
 20
1.0
 30
0.0
  9
$USERI1
 70
     3
  9
$USERI2
 70
     1
  9
$USERI3
 70
     0
  9
$USERI4
 70
     1
  9
$USERI5
 70
     0
  9
$USERR1
 40
1.0
  9
$USERR2
 40
3.0
  9
$USERR3
 40
3.0
  9
$USERR4
 40
3.0
  9
$USERR5
 40
10.0
  9
$WORLDVIEW
 70
     1
  9
$SHADEDGE
 70
     3
  9
$SHADEDIF
 70
    70
  9
$TILEMODE
 70
     1
  9
$MAXACTVP
 70
    16
  9
$PLIMCHECK
 70
     0
  9
$PEXTMIN
 10
1.0000000000000000E+020
 20
1.0000000000000000E+020
 30
1.0000000000000000E+020
  9
$PEXTMAX
 10
-1.0000000000000000E+020
 20
-1.0000000000000000E+020
 30
-1.0000000000000000E+020
  9
$PLIMMIN
 10
0.0
 20
0.0
  9
$PLIMMAX
 10
12.0
 20
9.0
  9
$UNITMODE
 70
     0
  9
$VISRETAIN
 70
     0
  9
$PLINEGEN
 70
     0
  9
$PSLTSCALE
 70
     0
  0
ENDSEC
  0
SECTION
  2
TABLES
  0
TABLE
  2
VPORT
 70
     1
  0
VPORT
  2
*ACTIVE
 70
     0
 10
0.0
 20
0.0
 11
1.0
 21
1.0
 12
192.49412581440311
 22
162.8616388594717
 13
0.0
 23
0.0
 14
5.0
 24
5.0
 15
5.0
 25
5.0
 16
0.0
 26
0.0
 36
1.0
 17
0.0
 27
0.0
 37
0.0
 40
334.81001162774987
 41
1.9089595375722539
 42
50.0
 43
0.0
 44
0.0
 50
0.0
 51
0.0
 71
     0
 72
  1000
 73
     1
 74
     0
 75
     0
 76
     0
 77
     0
 78
     1
  0
ENDTAB
  0
TABLE
  2
LTYPE
 70
     3
  0
LTYPE
  2
CONTINUOUS
 70
     0
  3
Solid Line
 72
    65
 73
     0
 40
0.0
  0
LTYPE
  2
CENTER
 70
     0
  3
____ _ ____ _ ____ _ ____ _ ____ _ ____ _ ____
 72
    65
 73
     4
 40
2.0
 49
1.25
 49
-0.25
 49
0.25
 49
-0.25
  0
LTYPE
  2
PHANTOM2
 70
     0
  3
___ _ _ ___ _ _ ___ _ _ ___ _ _
 72
    65
 73
     6
 40
1.25
 49
0.625
 49
-0.125
 49
0.125
 49
-0.125
 49
0.125
 49
-0.125
  0
ENDTAB
  0
TABLE
  2
LAYER
 70
     2
  0
LAYER
  2
0
 70
     0
 62
     7
  6
CONTINUOUS
  0
LAYER
  2
1
 70
     0
 62
     1
  6
CENTER
  0
ENDTAB
  0
TABLE
  2
STYLE
 70
     2
  0
STYLE
  2
STANDARD
 70
     0
 40
0.0
 41
1.0
 50
0.0
 71
     0
 42
4.0
  3
simplex
  4
bigfont
  0
STYLE
  2
STANDARD1
 70
     0
 40
0.0
 41
1.0
 50
0.0
 71
     0
 42
3.0
  3
txt
  4

  0
ENDTAB
  0
TABLE
  2
VIEW
 70
     0
  0
ENDTAB
  0
TABLE
  2
UCS
 70
     0
  0
ENDTAB
  0
TABLE
  2
APPID
 70
     9
  0
APPID
  2
ACAD
 70
     0
  0
APPID
  2
GENIUS_GENODEF_13
 70
     0
  0
APPID
  2
GENIUS_GENOENT_13
 70
     0
  0
APPID
  2
GENIUS_GENOBJ_13
 70
     0
  0
APPID
  2
GENIUS_GENOLIS_13
 70
     0
  0
APPID
  2
GENIUS_GENOREF_13
 70
     0
  0
APPID
  2
GENIUS_GENOBJ-N-FIL_13
 70
     0
  0
APPID
  2
ACAD_MLEADERVER
 70
     0
  0
APPID
  2
ACAD_NAV_VCDISPLAY
 70
     0
  0
ENDTAB
  0
TABLE
  2
DIMSTYLE
 70
     1
  0
DIMSTYLE
  2
STANDARD
 70
     0
  3

  4

  5

  6

  7

 40
1.0
 41
0.18
 42
0.0625
 43
0.38
 44
0.18
 45
0.0
 46
0.0
 47
0.0
 48
0.0
140
0.18
141
0.09
142
0.0
143
25.399999999999999
144
1.0
145
0.0
146
1.0
147
0.09
 71
     0
 72
     0
 73
     1
 74
     1
 75
     0
 76
     0
 77
     0
 78
     0
170
     0
171
     2
172
     0
173
     0
174
     0
175
     0
176
     0
177
     0
178
     0
  0
ENDTAB
  0
ENDSEC
  0
SECTION
  2
BLOCKS
  0
BLOCK
  8
0
  2
$MODEL_SPACE
 70
     0
 10
0.0
 20
0.0
 30
0.0
  3
$MODEL_SPACE
  1

  0
ENDBLK
  5
277B
  8
0
  0
BLOCK
 67
     1
  8
0
  2
$PAPER_SPACE
 70
     0
 10
0.0
 20
0.0
 30
0.0
  3
$PAPER_SPACE
  1

  0
ENDBLK
  5
2779
 67
     1
  8
0
  0
BLOCK
  8
0
  2
STDGX5
 70
     0
 10
0.0
 20
0.0
 30
0.0
  3
STDGX5
  1

  0
ENDBLK
  5
2663
  8
0
  0
ENDSEC
  0
SECTION
  2
ENTITIES
  0
LINE
  5
22F6
  8
1
 10
68.164517601738794
 20
140.30867955617941
 30
0.0
 11
128.16451760173879
 21
140.30867955617941
 31
0.0
  0
LINE
  5
2305
  8
1
 10
178.16413673375459
 20
30.382323553208991
 30
0.0
 11
178.1641367337545
 21
90.382323553208977
 31
0.0
  0
LINE
  5
2332
  8
1
 10
196.07505709799841
 20
140.30867955617941
 30
0.0
 11
160.16451760173871
 21
140.30867955617941
 31
0.0
  0
LINE
  5
235F
  8
1
 10
178.16413673375459
 20
158.30829868819509
 30
0.0
 11
178.16413673375459
 21
122.39775919193571
 31
0.0
  0
LINE
  5
2394
  8
1
 10
178.16413673375459
 20
250.30829868819521
 30
0.0
 11
178.1641367337545
 21
190.30829868819509
 31
0.0
  0
LINE
  5
23A2
  8
1
 10
288.1633665470066
 20
140.30867955617941
 30
0.0
 11
228.1633665470066
 21
140.30867955617941
 31
0.0
  0
LINE
  5
24C8
  8
0
 10
166.5645176017388
 20
137.80829868819509
 30
0.0
 11
166.5645176017388
 21
143.6036364396935
 31
0.0
  0
LINE
  5
24C9
  8
0
 10
163.16451760173859
 20
152.30829868819509
 30
0.0
 11
163.16451760173879
 21
128.3425768097074
 31
0.0
  0
ARC
  5
24CA
  8
0
 10
178.56451760173869
 20
140.3086795561795
 30
0.0
 40
5.0
 50
90.0
 51
180.0000000000006
1001
GENIUS_GENODEF_13
1002
{
1000
HIER
1070
     0
1002
}
1002
{
1000
MANEDIT
1070
     0
1002
}
1002
{
1000
NOSEL
1070
     0
1002
}
1002
{
1000
BEHIND
1070
     0
1002
}
1002
{
1000
REACTOR
1002
}
1001
GENIUS_GENOBJ-N-FIL_13
1002
{
1000
OWNER
1000
GEN
1002
}
  0
CIRCLE
  5
24CB
  8
0
 10
178.1641367337547
 20
140.30867955617941
 30
0.0
 40
2.5
  0
LINE
  5
24CC
  8
0
 10
183.41413673376019
 20
142.9018253067199
 30
0.0
 11
183.41413673376019
 21
137.7155338056661
 31
0.0
  0
LINE
  5
24D0
  8
0
 10
123.16451760173879
 20
125.3086795561793
 30
0.0
 11
123.16451760173879
 21
155.3086795561793
 31
0.0
  0
LINE
  5
24D2
  8
0
 10
233.1633665470066
 20
125.1851904356194
 30
0.0
 11
233.1633665470066
 21
155.30829868819509
 31
0.0
  0
LINE
  5
24D3
  8
0
 10
163.16413673375459
 20
195.30829868819509
 30
0.0
 11
193.16413673375459
 21
195.30829868819509
 31
0.0
  0
LINE
  5
24D5
  8
0
 10
175.5709909832141
 20
135.0586795561737
 30
0.0
 11
180.7572824842679
 21
135.0586795561737
 31
0.0
  0
ARC
  5
24DD
  8
0
 10
173.0141367337273
 20
129.5018253066869
 30
0.0
 40
3.0
 50
134.9999999999994
 51
180.0
  0
ARC
  5
24DE
  8
0
 10
172.5141367337273
 20
129.70893208787351
 30
0.0
 40
4.5
 50
134.99999999999881
 51
179.99999999999889
1001
GENIUS_GENODEF_13
1002
{
1000
HIER
1070
     0
1002
}
1002
{
1000
MANEDIT
1070
     0
1002
}
1002
{
1000
NOSEL
1070
     0
1002
}
1002
{
1000
BEHIND
1070
     0
1002
}
1002
{
1000
REACTOR
1002
}
1001
GENIUS_GENOBJ-N-FIL_13
1002
{
1000
OWNER
1000
GEN
1002
}
  0
LINE
  5
24DF
  8
0
 10
164.66451760173879
 20
134.30829868819509
 30
0.0
 11
164.66451760173891
 21
130.3586795561821
 31
0.0
  0
LINE
  5
24E0
  8
0
 10
166.19803398725529
 20
125.3090604241908
 30
0.0
 11
174.07537197959959
 21
125.3975698398353
 31
0.0
  0
ARC
  5
24E2
  8
0
 10
166.16413673372739
 20
128.30867955617941
 30
0.0
 40
1.5
 50
180.00000000000111
 51
270.0
  0
ARC
  5
24E3
  8
0
 10
166.1643282496384
 20
128.3088710720906
 30
0.0
 40
3.0
 50
179.35625428582429
 51
270.6437457141754
  0
LINE
  5
24E4
  8
0
 10
166.16413673372739
 20
126.8086795561794
 30
0.0
 11
167.7141367337272
 21
126.8086795561793
 31
0.0
  0
LINE
  5
24E5
  8
0
 10
168.01413673372721
 20
127.1086795561832
 30
0.0
 11
168.0141367337273
 21
129.70893208787371
 31
0.0
  0
ARC
  5
24E6
  8
0
 10
167.7141367337272
 20
127.1086795561832
 30
0.0
 40
0.3
 50
269.99999999999608
 51
359.99999999999829
1001
GENIUS_GENODEF_13
1002
{
1000
HIER
1070
     0
1002
}
1002
{
1000
MANEDIT
1070
     0
1002
}
1002
{
1000
NOSEL
1070
     0
1002
}
1002
{
1000
BEHIND
1070
     0
1002
}
1002
{
1000
REACTOR
1002
}
1001
GENIUS_GENOBJ-N-FIL_13
1002
{
1000
OWNER
1000
GEN
1002
}
  0
LINE
  5
24E7
  8
0
 10
164.66413673372739
 20
128.30867955617941
 30
0.0
 11
164.6641367337273
 21
130.3586795561821
 31
0.0
  0
ARC
  5
24E8
  8
0
 10
172.86413673372729
 20
128.0086795561738
 30
0.0
 40
0.3
 50
89.999999999998806
 51
179.99999999999989
  0
ARC
  5
24E9
  8
0
 10
172.26413673372741
 20
127.1086795561739
 30
0.0
 40
0.3
 50
269.99999999999989
 51
359.99999999999989
  0
LINE
  5
24EA
  8
0
 10
172.56413673372731
 20
128.0086795561738
 30
0.0
 11
172.56413673372731
 21
127.1086795561739
 31
0.0
  0
ARC
  5
24EB
  8
0
 10
171.01413673372741
 20
127.8086795561737
 30
0.0
 40
1.0
 50
180.0
 51
270.0
  0
LINE
  5
24EC
  8
0
 10
170.01413673372741
 20
127.8086795561737
 30
0.0
 11
170.0141367337273
 21
129.5018253066869
 31
0.0
  0
LINE
  5
24ED
  8
0
 10
172.26413673372741
 20
126.8086795561737
 30
0.0
 11
171.01413673372741
 21
126.8086795561737
 31
0.0
  0
LINE
  5
24EE
  8
0
 10
175.06413673372731
 20
126.39750672246851
 30
0.0
 11
175.06413673372731
 21
127.5086795561737
 31
0.0
  0
LINE
  5
24EF
  8
0
 10
174.26413673372741
 20
128.3086795561737
 30
0.0
 11
172.86413673372729
 21
128.3086795561737
 31
0.0
  0
ARC
  5
24F0
  8
0
 10
174.06413673372731
 20
126.39750672246851
 30
0.0
 40
1.0
 50
270.6437457141754
 51
359.99999999999989
  0
ARC
  5
24F1
  8
0
 10
174.26413673372741
 20
127.5086795561737
 30
0.0
 40
0.8
 50
0.0
 51
89.999999999997286
  0
LINE
  5
24F2
  8
0
 10
170.5424355221835
 20
135.30829868819509
 30
0.0
 11
165.66451760173879
 21
135.30829868819509
 31
0.0
  0
LINE
  5
24F3
  8
0
 10
172.56451760173869
 20
137.30829868819509
 30
0.0
 11
167.0645176017388
 21
137.30829868819509
 31
0.0
  0
ARC
  5
24F4
  8
0
 10
165.66451760173879
 20
134.30829868819509
 30
0.0
 40
1.0
 50
90.0
 51
180.00000000000071
1001
GENIUS_GENODEF_13
1002
{
1000
HIER
1070
     0
1002
}
1002
{
1000
MANEDIT
1070
     0
1002
}
1002
{
1000
NOSEL
1070
     0
1002
}
1002
{
1000
BEHIND
1070
     0
1002
}
1002
{
1000
REACTOR
1002
}
1001
GENIUS_GENOBJ-N-FIL_13
1002
{
1000
OWNER
1000
GEN
1002
}
  0
ARC
  5
24F6
  8
0
 10
167.0645176017388
 20
137.80829868819509
 30
0.0
 40
0.5
 50
180.0
 51
270.0
1001
GENIUS_GENODEF_13
1002
{
1000
HIER
1070
     0
1002
}
1002
{
1000
MANEDIT
1070
     0
1002
}
1002
{
1000
NOSEL
1070
     0
1002
}
1002
{
1000
BEHIND
1070
     0
1002
}
1002
{
1000
REACTOR
1002
}
1001
GENIUS_GENOBJ-N-FIL_13
1002
{
1000
OWNER
1000
GEN
1002
}
  0
LINE
  5
24F7
  8
0
 10
170.8928163901677
 20
131.62314565024661
 30
0.0
 11
173.4496706396545
 21
134.1799998997335
 31
0.0
  0
LINE
  5
24F8
  8
0
 10
169.33215621838781
 20
132.89091260321311
 30
0.0
 11
170.89598891277669
 21
134.4547452976019
 31
0.0
  0
ARC
  5
24F9
  8
0
 10
170.5424355221835
 20
134.80829868819509
 30
0.0
 40
0.5
 50
314.99999999999949
 51
90.0
1001
GENIUS_GENODEF_13
1002
{
1000
HIER
1070
     0
1002
}
1002
{
1000
MANEDIT
1070
     0
1002
}
1002
{
1000
NOSEL
1070
     0
1002
}
1002
{
1000
BEHIND
1070
     0
1002
}
1002
{
1000
REACTOR
1002
}
1001
GENIUS_GENOBJ-N-FIL_13
1002
{
1000
OWNER
1000
GEN
1002
}
  0
ARC
  5
24FA
  8
0
 10
175.5709909832141
 20
132.0586795561737
 30
0.0
 40
3.0
 50
89.999999999999687
 51
134.99999999999989
  0
ARC
  5
24FB
  8
0
 10
172.56451760173869
 20
138.30829868819509
 30
0.0
 40
1.0
 50
269.99999999999989
 51
0.0
1001
GENIUS_GENODEF_13
1002
{
1000
HIER
1070
     0
1002
}
1002
{
1000
MANEDIT
1070
     0
1002
}
1002
{
1000
NOSEL
1070
     0
1002
}
1002
{
1000
BEHIND
1070
     0
1002
}
1002
{
1000
REACTOR
1002
}
1001
GENIUS_GENOBJ-N-FIL_13
1002
{
1000
OWNER
1000
GEN
1002
}
  0
LINE
  5
24FC
  8
0
 10
173.56451760173869
 20
140.3086795561795
 30
0.0
 11
173.56451760173869
 21
138.30829868819509
 31
0.0
  0
ARC
  5
24FE
  8
0
 10
192.07530956746561
 20
136.20867955620679
 30
0.0
 40
1.0
 50
0.6437457141753457
 51
90.0
  0
LINE
  5
2500
  8
0
 10
193.0752464500988
 20
136.21991480207899
 30
0.0
 11
193.16375586574341
 21
128.342576809707
 31
0.0
  0
ARC
  5
2502
  8
0
 10
190.1639452178438
 20
128.30887107209011
 30
0.0
 40
3.0
 50
269.35625428582472
 51
0.6437457141752656
  0
ARC
  5
2503
  8
0
 10
191.36413673375461
 20
130.35867955615211
 30
0.0
 40
0.3
 50
359.99999999999801
 51
90.0
  0
ARC
  5
2504
  8
0
 10
183.31413673375471
 20
129.5018253066869
 30
0.0
 40
3.0
 50
0.0000000000008793
 51
45.0
  0
ARC
  5
2505
  8
0
 10
188.11413673375921
 20
130.35867955615211
 30
0.0
 40
0.3
 50
90.0
 51
179.99999999987139
  0
LINE
  5
2506
  8
0
 10
182.2529014878551
 20
125.3975698398353
 30
0.0
 11
190.130239480227
 21
125.3090604241906
 31
0.0
  0
LINE
  5
2507
  8
0
 10
184.06413673372731
 20
126.8086795561737
 30
0.0
 11
185.31413673375471
 21
126.8086795561737
 31
0.0
  0
ARC
  5
250A
  8
0
 10
182.26413673372741
 20
126.39750672246851
 30
0.0
 40
1.0
 50
179.99999999999989
 51
269.35625428582449
  0
ARC
  5
250B
  8
0
 10
184.06413673372731
 20
127.1086795561737
 30
0.0
 40
0.3
 50
179.99999999999989
 51
269.99999999999989
  0
LINE
  5
250C
  8
0
 10
181.26413673372741
 20
127.5086795561737
 30
0.0
 11
181.26413673372741
 21
126.39750672246851
 31
0.0
  0
LINE
  5
250D
  8
0
 10
183.76413673372741
 20
128.0086795561738
 30
0.0
 11
183.76413673372741
 21
127.1086795561737
 31
0.0
  0
ARC
  5
250E
  8
0
 10
183.46413673372729
 20
128.0086795561738
 30
0.0
 40
0.3
 50
359.99999999999989
 51
89.999999999999915
  0
LINE
  5
250F
  8
0
 10
183.46413673372729
 20
128.3086795561737
 30
0.0
 11
182.06413673372731
 21
128.3086795561737
 31
0.0
  0
ARC
  5
2510
  8
0
 10
182.06413673372731
 20
127.5086795561737
 30
0.0
 40
0.8
 50
90.0
 51
180.0
  0
LINE
  5
2511
  8
0
 10
190.16413673375459
 20
126.8086795561521
 30
0.0
 11
188.11413673375199
 21
126.8086795561521
 31
0.0
  0
LINE
  5
2512
  8
0
 10
186.31413673375471
 20
127.8086795561737
 30
0.0
 11
186.31413673375471
 21
129.5018253066869
 31
0.0
  0
ARC
  5
2513
  8
0
 10
185.31413673375471
 20
127.8086795561737
 30
0.0
 40
1.0
 50
270.0
 51
0.0000000000006395
  0
LINE
  5
2514
  8
0
 10
187.81413673375201
 20
127.10867955615269
 30
0.0
 11
187.81413673375931
 21
130.35867955615271
 31
0.0
  0
ARC
  5
2515
  8
0
 10
188.11413673375199
 20
127.1086795561521
 30
0.0
 40
0.3
 50
179.99999999987139
 51
270.0
  0
LINE
  5
2516
  8
0
 10
191.6641367337545
 20
128.3086795561521
 30
0.0
 11
191.6641367337547
 21
130.35867955615211
 31
0.0
  0
ARC
  5
2517
  8
0
 10
190.1641367337545
 20
128.3086795561521
 30
0.0
 40
1.5
 50
270.00000000000108
 51
0.0
  0
LINE
  5
2518
  8
0
 10
184.2928163902007
 20
135.59421346210661
 30
0.0
 11
186.84967063971479
 21
133.03735921259249
 31
0.0
  0
LINE
  5
2519
  8
0
 10
182.87860282782751
 20
134.1799998997335
 30
0.0
 11
185.4354570773144
 21
131.62314565024641
 31
0.0
  0
ARC
  5
251A
  8
0
 10
186.41413673376019
 20
137.7155338056661
 30
0.0
 40
3.0
 50
180.00000000000031
 51
225.0
  0
ARC
  5
251B
  8
0
 10
180.7572824842679
 20
132.0586795561737
 30
0.0
 40
3.0
 50
44.999999999999837
 51
89.999999999999602
  0
LINE
  5
251C
  8
0
 10
190.16413673376019
 20
135.00867955620669
 30
0.0
 11
190.16413673376019
 21
136.40867955620661
 31
0.0
  0
LINE
  5
251D
  8
0
 10
190.66413673376039
 20
132.15867955615221
 30
0.0
 11
188.9709909832745
 21
132.15867955615201
 31
0.0
  0
LINE
  5
251E
  8
0
 10
191.36413673375461
 20
130.65867955615201
 30
0.0
 11
188.11413673375921
 21
130.65867955615201
 31
0.0
  0
ARC
  5
251F
  8
0
 10
188.9709909832745
 20
135.15867955615201
 30
0.0
 40
3.0
 50
225.0
 51
270.0
  0
LINE
  5
2520
  8
0
 10
191.66413673376019
 20
134.40867955620661
 30
0.0
 11
191.6641367337603
 21
133.15867955615221
 31
0.0
  0
ARC
  5
2521
  8
0
 10
191.36413673376029
 20
134.40867955620661
 30
0.0
 40
0.3
 50
0.0
 51
90.0
  0
ARC
  5
2522
  8
0
 10
190.46413673376031
 20
135.00867955620669
 30
0.0
 40
0.3
 50
180.0
 51
270.0
  0
LINE
  5
2523
  8
0
 10
190.46413673376031
 20
134.70867955620679
 30
0.0
 11
191.36413673376029
 21
134.70867955620679
 31
0.0
  0
ARC
  5
2524
  8
0
 10
190.66413673376039
 20
133.15867955615221
 30
0.0
 40
1.0
 50
270.0
 51
0.0000000000019984
  0
ARC
  5
2526
  8
0
 10
190.9641367337602
 20
136.40867955620661
 30
0.0
 40
0.8
 50
90.0
 51
180.0
  0
LINE
  5
2527
  8
0
 10
190.9641367337602
 20
137.20867955620679
 30
0.0
 11
192.07530956746561
 21
137.20867955620679
 31
0.0
  0
LINE
  5
2529
  8
0
 10
163.16451760173879
 20
85.382323553208977
 30
0.0
 11
193.16375586574341
 21
85.382323553208977
 31
0.0
  0
LINE
  5
252B
  8
0
 10
190.13023948023181
 20
155.30829868819509
 30
0.0
 11
175.2192181401216
 21
155.30829868819509
 31
0.0
  0
LINE
  5
252C
  8
0
 10
185.8270465160451
 20
153.8086795561795
 30
0.0
 11
175.79678830354729
 21
153.80867955617941
 31
0.0
  0
ARC
  5
252F
  8
0
 10
175.79678830354729
 20
153.30867955617941
 30
0.0
 40
0.5
 50
90.0
 51
150.00000000035911
1001
GENIUS_GENODEF_13
1002
{
1000
HIER
1070
     0
1002
}
1002
{
1000
MANEDIT
1070
     0
1002
}
1002
{
1000
NOSEL
1070
     0
1002
}
1002
{
1000
BEHIND
1070
     0
1002
}
1002
{
1000
REACTOR
1002
}
1001
GENIUS_GENOBJ-N-FIL_13
1002
{
1000
OWNER
1000
GEN
1002
}
  0
LINE
  5
2530
  8
0
 10
173.63150489985671
 20
153.55829868819259
 30
0.0
 11
174.35319273633479
 21
154.80829868819089
 31
0.0
  0
LINE
  5
2531
  8
0
 10
166.17679267071239
 20
155.1405642136701
 30
0.0
 11
166.55521042304451
 21
153.2020668331848
 31
0.0
  0
ARC
  5
2532
  8
0
 10
166.16451760173859
 20
152.30829868819509
 30
0.0
 40
3.0
 50
93.768270993720321
 51
180.0000000000006
1001
GENIUS_GENODEF_13
1002
{
1000
HIER
1070
     0
1002
}
1002
{
1000
MANEDIT
1070
     0
1002
}
1002
{
1000
NOSEL
1070
     0
1002
}
1002
{
1000
BEHIND
1070
     0
1002
}
1002
{
1000
REACTOR
1002
}
1001
GENIUS_GENOBJ-N-FIL_13
1002
{
1000
OWNER
1000
GEN
1002
}
  0
ARC
  5
2533
  8
0
 10
181.4137558657431
 20
152.1082986881953
 30
0.0
 40
16.264308905096058
 50
181.4303694985729
 51
198.8935325562413
  0
ARC
  5
2534
  8
0
 10
156.5645176017388
 20
143.6036364396935
 30
0.0
 40
10.0
 50
0.0000000000003197
 51
18.89353255624129
1001
GENIUS_GENODEF_13
1002
{
1000
HIER
1070
     0
1002
}
1002
{
1000
MANEDIT
1070
     0
1002
}
1002
{
1000
NOSEL
1070
     0
1002
}
1002
{
1000
BEHIND
1070
     0
1002
}
1002
{
1000
REACTOR
1002
}
1001
GENIUS_GENOBJ-N-FIL_13
1002
{
1000
OWNER
1000
GEN
1002
}
  0
LINE
  5
2535
  8
0
 10
166.31447342568919
 20
152.67325643076569
 30
0.0
 11
165.40435913305419
 21
152.14780169891961
 31
0.0
  0
ARC
  5
2536
  8
0
 10
166.0644734256885
 20
153.10626913265909
 30
0.0
 40
0.5
 50
300.00000000000051
 51
11.045904637264069
1001
GENIUS_GENODEF_13
1002
{
1000
HIER
1070
     0
1002
}
1002
{
1000
MANEDIT
1070
     0
1002
}
1002
{
1000
NOSEL
1070
     0
1002
}
1002
{
1000
BEHIND
1070
     0
1002
}
1002
{
1000
REACTOR
1002
}
1001
GENIUS_GENOBJ-N-FIL_13
1002
{
1000
OWNER
1000
GEN
1002
}
  0
ARC
  5
2537
  8
0
 10
165.65435913305419
 20
151.71478899702731
 30
0.0
 40
0.5
 50
119.9999999999977
 51
181.430369498571
1001
GENIUS_GENODEF_13
1002
{
1000
HIER
1070
     0
1002
}
1002
{
1000
MANEDIT
1070
     0
1002
}
1002
{
1000
NOSEL
1070
     0
1002
}
1002
{
1000
BEHIND
1070
     0
1002
}
1002
{
1000
REACTOR
1002
}
1001
GENIUS_GENOBJ-N-FIL_13
1002
{
1000
OWNER
1000
GEN
1002
}
  0
LINE
  5
2538
  8
0
 10
175.3637756016536
 20
153.55867955617671
 30
0.0
 11
175.0748805728328
 21
153.05829868819771
 31
0.0
  0
LINE
  5
2539
  8
0
 10
174.64186787093871
 20
152.80829868819509
 30
0.0
 11
174.06451760173849
 21
152.80829868819561
 31
0.0
  0
ARC
  5
253A
  8
0
 10
174.06451760173869
 20
153.30829868819549
 30
0.0
 40
0.5
 50
150.00000000027379
 51
269.99999999996737
1001
GENIUS_GENODEF_13
1002
{
1000
HIER
1070
     0
1002
}
1002
{
1000
MANEDIT
1070
     0
1002
}
1002
{
1000
NOSEL
1070
     0
1002
}
1002
{
1000
BEHIND
1070
     0
1002
}
1002
{
1000
REACTOR
1002
}
1001
GENIUS_GENOBJ-N-FIL_13
1002
{
1000
OWNER
1000
GEN
1002
}
  0
ARC
  5
253B
  8
0
 10
174.641867870939
 20
153.30829868819509
 30
0.0
 40
0.5
 50
269.99999999996089
 51
330.00000000035612
1001
GENIUS_GENODEF_13
1002
{
1000
HIER
1070
     0
1002
}
1002
{
1000
MANEDIT
1070
     0
1002
}
1002
{
1000
NOSEL
1070
     0
1002
}
1002
{
1000
BEHIND
1070
     0
1002
}
1002
{
1000
REACTOR
1002
}
1001
GENIUS_GENOBJ-N-FIL_13
1002
{
1000
OWNER
1000
GEN
1002
}
  0
ARC
  5
253D
  8
0
 10
165.98049787177001
 20
155.10224513346
 30
0.0
 40
0.2
 50
11.0459046372257
 51
93.768270993720407
1001
GENIUS_GENODEF_13
1002
{
1000
HIER
1070
     0
1002
}
1002
{
1000
MANEDIT
1070
     0
1002
}
1002
{
1000
NOSEL
1070
     0
1002
}
1002
{
1000
BEHIND
1070
     0
1002
}
1002
{
1000
REACTOR
1002
}
1001
GENIUS_GENOBJ-N-FIL_13
1002
{
1000
OWNER
1000
GEN
1002
}
  0
ARC
  5
253F
  8
0
 10
175.2192181401216
 20
154.30829868819509
 30
0.0
 40
1.0
 50
90.0
 51
150.0000000002768
1001
GENIUS_GENODEF_13
1002
{
1000
HIER
1070
     0
1002
}
1002
{
1000
MANEDIT
1070
     0
1002
}
1002
{
1000
NOSEL
1070
     0
1002
}
1002
{
1000
BEHIND
1070
     0
1002
}
1002
{
1000
REACTOR
1002
}
1001
GENIUS_GENOBJ-N-FIL_13
1002
{
1000
OWNER
1000
GEN
1002
}
  0
ARC
  5
2542
  8
0
 10
192.07530956746561
 20
144.40867955620661
 30
0.0
 40
1.0
 50
270.0
 51
359.35625428582449
  0
LINE
  5
2543
  8
0
 10
193.1637558657431
 20
152.27478230267869
 30
0.0
 11
193.07524645009869
 21
144.39744431033429
 31
0.0
  0
ARC
  5
2544
  8
0
 10
190.16394521784349
 20
152.3084880402956
 30
0.0
 40
3.0
 50
359.35625428582449
 51
90.643745714175495
  0
ARC
  5
2545
  8
0
 10
188.5004652154409
 20
153.3086795561795
 30
0.0
 40
0.5
 50
89.999999999999758
 51
155.00000000000131
1001
GENIUS_GENODEF_13
1002
{
1000
HIER
1070
     0
1002
}
1002
{
1000
MANEDIT
1070
     0
1002
}
1002
{
1000
NOSEL
1070
     0
1002
}
1002
{
1000
BEHIND
1070
     0
1002
}
1002
{
1000
REACTOR
1002
}
1001
GENIUS_GENOBJ-N-FIL_13
1002
{
1000
OWNER
1000
GEN
1002
}
  0
ARC
  5
2546
  8
0
 10
185.8270465160451
 20
153.3086795561795
 30
0.0
 40
0.5
 50
25.00000000000183
 51
90.0
1001
GENIUS_GENODEF_13
1002
{
1000
HIER
1070
     0
1002
}
1002
{
1000
MANEDIT
1070
     0
1002
}
1002
{
1000
NOSEL
1070
     0
1002
}
1002
{
1000
BEHIND
1070
     0
1002
}
1002
{
1000
REACTOR
1002
}
1001
GENIUS_GENOBJ-N-FIL_13
1002
{
1000
OWNER
1000
GEN
1002
}
  0
ARC
  5
2547
  8
0
 10
189.6637558657431
 20
152.3086795561793
 30
0.0
 40
1.5
 50
0.0
 51
89.999999999995126
1001
GENIUS_GENODEF_13
1002
{
1000
HIER
1070
     0
1002
}
1002
{
1000
MANEDIT
1070
     0
1002
}
1002
{
1000
NOSEL
1070
     0
1002
}
1002
{
1000
BEHIND
1070
     0
1002
}
1002
{
1000
REACTOR
1002
}
1001
GENIUS_GENOBJ-N-FIL_13
1002
{
1000
OWNER
1000
GEN
1002
}
  0
LINE
  5
2548
  8
0
 10
186.84967063966019
 20
147.57999989973939
 30
0.0
 11
184.29281639020061
 21
145.0231456502795
 31
0.0
  0
LINE
  5
2549
  8
0
 10
185.08190368669381
 20
149.3477668527056
 30
0.0
 11
183.01730925633629
 21
147.28317242234809
 31
0.0
  0
LINE
  5
254A
  8
0
 10
180.66375586574301
 20
145.8086795561795
 30
0.0
 11
180.66375586574301
 21
151.3582986881953
 31
0.0
  0
LINE
  5
254B
  8
0
 10
182.16375586574301
 20
147.63672581294131
 30
0.0
 11
182.1637558657431
 21
151.3582986881953
 31
0.0
  0
LINE
  5
254C
  8
0
 10
178.564517601739
 20
145.3086795561795
 30
0.0
 11
180.16375586574301
 21
145.30867955617941
 31
0.0
  0
ARC
  5
254D
  8
0
 10
180.16375586574301
 20
145.8086795561795
 30
0.0
 40
0.5
 50
270.0
 51
0.0000000000007194
1001
GENIUS_GENODEF_13
1002
{
1000
HIER
1070
     0
1002
}
1002
{
1000
MANEDIT
1070
     0
1002
}
1002
{
1000
NOSEL
1070
     0
1002
}
1002
{
1000
BEHIND
1070
     0
1002
}
1002
{
1000
REACTOR
1002
}
1001
GENIUS_GENOBJ-N-FIL_13
1002
{
1000
OWNER
1000
GEN
1002
}
  0
ARC
  5
254E
  8
0
 10
186.41413673376019
 20
142.9018253067199
 30
0.0
 40
3.0
 50
134.99999999999989
 51
180.0000000000002
  0
ARC
  5
254F
  8
0
 10
182.66375586574301
 20
147.63672581294131
 30
0.0
 40
0.5
 50
180.0
 51
315.00000000000063
1001
GENIUS_GENODEF_13
1002
{
1000
HIER
1070
     0
1002
}
1002
{
1000
MANEDIT
1070
     0
1002
}
1002
{
1000
NOSEL
1070
     0
1002
}
1002
{
1000
BEHIND
1070
     0
1002
}
1002
{
1000
REACTOR
1002
}
1001
GENIUS_GENOBJ-N-FIL_13
1002
{
1000
OWNER
1000
GEN
1002
}
  0
ARC
  5
2550
  8
0
 10
181.4137558657431
 20
151.3582986881953
 30
0.0
 40
0.75
 50
0.0
 51
180.00000000000031
  0
ARC
  5
2551
  8
0
 10
188.97099098321991
 20
145.4586795561795
 30
0.0
 40
3.0
 50
90.0
 51
134.99999999999989
  0
ARC
  5
2552
  8
0
 10
190.66413673376019
 20
147.45867955617959
 30
0.0
 40
1.0
 50
0.0
 51
90.0
  0
LINE
  5
2553
  8
0
 10
191.66413673376019
 20
146.2086795562069
 30
0.0
 11
191.66413673376019
 21
147.45867955617959
 31
0.0
  0
ARC
  5
2554
  8
0
 10
191.36413673376029
 20
146.2086795562069
 30
0.0
 40
0.3
 50
270.0
 51
0.0
  0
LINE
  5
2555
  8
0
 10
190.16413673376019
 20
144.2086795562065
 30
0.0
 11
190.16413673376019
 21
145.6086795562066
 31
0.0
  0
ARC
  5
2556
  8
0
 10
190.46413673376031
 20
145.6086795562066
 30
0.0
 40
0.3
 50
90.0
 51
180.00000000000111
  0
ARC
  5
2557
  8
0
 10
190.96413673376031
 20
144.2086795562065
 30
0.0
 40
0.8
 50
180.0000000000027
 51
270.0
  0
LINE
  5
2558
  8
0
 10
283.16336654700672
 20
143.40867955620649
 30
0.0
 11
233.1633665470066
 21
143.40867955620649
 31
0.0
  0
LINE
  5
2559
  8
0
 10
190.46413673376031
 20
145.90867955620669
 30
0.0
 11
191.36413673376029
 21
145.90867955620669
 31
0.0
  0
LINE
  5
255A
  8
0
 10
190.16375586574071
 20
150.9586795561795
 30
0.0
 11
188.9709909832323
 21
150.95867955618229
 31
0.0
  0
LINE
  5
255B
  8
0
 10
190.66413673376019
 20
148.45867955617959
 30
0.0
 11
188.97099098321991
 21
148.45867955617959
 31
0.0
  0
LINE
  5
255C
  8
0
 10
186.71060197222479
 20
152.59698955732489
 30
0.0
 11
186.28020040956341
 21
153.5199886870499
 31
0.0
  0
ARC
  5
255D
  8
0
 10
187.1637558657431
 20
152.80829868819509
 30
0.0
 40
0.500000000000002
 50
204.99999999999679
 51
335.00000000000352
  0
LINE
  5
255E
  8
0
 10
187.6169097592614
 20
152.59698955732489
 30
0.0
 11
188.04731132192251
 21
153.5199886870499
 31
0.0
  0
ARC
  5
255F
  8
0
 10
188.97099098321991
 20
145.4586795561795
 30
0.0
 40
5.5
 50
90.0
 51
134.99999999999989
  0
LINE
  5
2560
  8
0
 10
191.1637558657431
 20
151.9586795561795
 30
0.0
 11
191.1637558657431
 21
152.3086795561793
 31
0.0
  0
ARC
  5
2561
  8
0
 10
190.1637558657431
 20
151.9586795561795
 30
0.0
 40
1.0
 50
269.99999999986852
 51
0.0
1001
GENIUS_GENODEF_13
1002
{
1000
HIER
1070
     0
1002
}
1002
{
1000
MANEDIT
1070
     0
1002
}
1002
{
1000
NOSEL
1070
     0
1002
}
1002
{
1000
BEHIND
1070
     0
1002
}
1002
{
1000
REACTOR
1002
}
1001
GENIUS_GENOBJ-N-FIL_13
1002
{
1000
OWNER
1000
GEN
1002
}
  0
LINE
  5
2564
  8
0
 10
189.66375586574321
 20
153.8086795561793
 30
0.0
 11
188.5004652154409
 21
153.8086795561795
 31
0.0
  0
LINE
  5
2579
  8
0
 10
283.1633665470066
 20
125.1851904356194
 30
0.0
 11
283.16336654700672
 21
155.30829868819509
 31
0.0
  0
LINE
  5
2583
  8
0
 10
163.16413673375459
 20
245.30829868819509
 30
0.0
 11
193.16413673375459
 21
245.30829868819509
 31
0.0
  0
LINE
  5
2586
  8
0
 10
166.55521042304451
 20
195.30829868819509
 30
0.0
 11
166.55521042304451
 21
245.30829868819509
 31
0.0
  0
LINE
  5
2587
  8
0
 10
173.56451760173869
 20
195.30829868819509
 30
0.0
 11
173.56451760173869
 21
245.30829868819509
 31
0.0
  0
LINE
  5
2591
  8
0
 10
73.164517601738794
 20
125.3086795561793
 30
0.0
 11
73.164517601738794
 21
155.3086795561793
 31
0.0
  0
LINE
  5
259B
  8
0
 10
233.1633665470066
 20
155.30829868819509
 30
0.0
 11
283.16336654700672
 21
155.30829868819509
 31
0.0
  0
LINE
  5
259C
  8
0
 10
233.1633665470066
 20
125.30906042419051
 30
0.0
 11
283.1633665470066
 21
125.30906042419051
 31
0.0
  0
LINE
  5
259E
  8
0
 10
123.16451760173879
 20
155.30829868819509
 30
0.0
 11
73.164517601738794
 21
155.30829868819509
 31
0.0
  0
LINE
  5
259F
  8
0
 10
123.16451760173879
 20
125.3090604241909
 30
0.0
 11
73.164517601738794
 21
125.3090604241909
 31
0.0
  0
LINE
  5
25A2
  8
0
 10
193.16375586574301
 20
195.30829868819509
 30
0.0
 11
193.16375586574301
 21
245.30829868819509
 31
0.0
  0
LINE
  5
25A3
  8
0
 10
163.16451760173859
 20
195.30829868819509
 30
0.0
 11
163.16451760173859
 21
245.30829868819509
 31
0.0
  0
LINE
  5
25A5
  8
0
 10
163.16451760173879
 20
85.382323553208977
 30
0.0
 11
163.16451760173871
 21
35.382323553208991
 31
0.0
  0
LINE
  5
25A6
  8
0
 10
193.16375586574341
 20
85.382323553208977
 30
0.0
 11
193.16375586574341
 21
35.382323553208991
 31
0.0
  0
LINE
  5
25A7
  8
0
 10
181.26413673372741
 20
85.382323553208977
 30
0.0
 11
181.26413673372741
 21
35.382323553208991
 31
0.0
  0
LINE
  5
25A8
  8
0
 10
175.06413673372739
 20
85.382323553208977
 30
0.0
 11
175.06413673372739
 21
35.382323553208991
 31
0.0
  0
LINE
  5
25A9
  8
0
 10
163.16451760173879
 20
35.382323553208991
 30
0.0
 11
193.16375586574341
 21
35.382323553208991
 31
0.0
  0
INSERT
  5
2703
  8
0
  2
STDGX5
 10
0.0
 20
0.0
 30
0.0
  0
INSERT
  5
2704
  8
0
  2
STDGX5
 10
0.0
 20
0.0
 30
0.0
  0
INSERT
  5
2705
  8
0
  2
STDGX5
 10
275.0
 20
0.0
 30
0.0
  0
INSERT
  5
2706
  8
0
  2
STDGX5
 10
275.0
 20
0.0
 30
0.0
  0
LINE
  5
2748
  8
0
 10
192.07530956746561
 20
143.40867955620649
 30
0.0
 11
190.96413673376031
 21
143.40867955620661
 31
0.0
  0
LINE
  5
2749
  8
0
 10
233.1633665470066
 20
137.2086795562067
 30
0.0
 11
283.16336654700672
 21
137.20867955620679
 31
0.0
  0
TEXT
  5
282C
  8
0
 62
     3
 10
0.0
 20
0.0
 30
0.0
 40
10.0
  1
L6-CPE3030N
  7
STANDARD1
  0
ENDSEC
  0
EOF
