  0
SECTION
  2
HEADER
  9
$ACADVER
  1
AC1009
  9
$INSBASE
 10
7.37824081052986
 20
15.90864369846679
 30
0.0
  9
$EXTMIN
 10
0.0
 20
-2.960436562073669
 30
0.0
  9
$EXTMAX
 10
223.29431936400789
 20
181.6469109438363
 30
0.0
  9
$LIMMIN
 10
0.0
 20
0.0
  9
$LIMMAX
 10
385.0
 20
270.0
  9
$ORTHOMODE
 70
     1
  9
$REGENMODE
 70
     1
  9
$FILLMODE
 70
     1
  9
$QTEXTMODE
 70
     0
  9
$MIRRTEXT
 70
     0
  9
$DRAGMODE
 70
     2
  9
$LTSCALE
 40
10.0
  9
$OSMODE
 70
  3071
  9
$ATTMODE
 70
     1
  9
$TEXTSIZE
 40
4.0
  9
$TRACEWID
 40
0.05
  9
$TEXTSTYLE
  7
STANDARD
  9
$CLAYER
  8
0
  9
$CELTYPE
  6
BYLAYER
  9
$CECOLOR
 62
   256
  9
$DIMSCALE
 40
1.0
  9
$DIMASZ
 40
3.0
  9
$DIMEXO
 40
2.0
  9
$DIMDLI
 40
10.0
  9
$DIMRND
 40
0.0
  9
$DIMDLE
 40
0.0
  9
$DIMEXE
 40
2.0
  9
$DIMTP
 40
0.0
  9
$DIMTM
 40
0.0
  9
$DIMTXT
 40
3.0
  9
$DIMCEN
 40
0.09
  9
$DIMTSZ
 40
0.0
  9
$DIMTOL
 70
     0
  9
$DIMLIM
 70
     0
  9
$DIMTIH
 70
     0
  9
$DIMTOH
 70
     0
  9
$DIMSE1
 70
     0
  9
$DIMSE2
 70
     0
  9
$DIMTAD
 70
     1
  9
$DIMZIN
 70
     0
  9
$DIMBLK
  1

  9
$DIMASO
 70
     0
  9
$DIMSHO
 70
     0
  9
$DIMPOST
  1

  9
$DIMAPOST
  1

  9
$DIMALT
 70
     0
  9
$DIMALTD
 70
     2
  9
$DIMALTF
 40
25.399999999999999
  9
$DIMLFAC
 40
1.0
  9
$DIMTOFL
 70
     1
  9
$DIMTVP
 40
1.6000000000000001
  9
$DIMTIX
 70
     1
  9
$DIMSOXD
 70
     0
  9
$DIMSAH
 70
     0
  9
$DIMBLK1
  1

  9
$DIMBLK2
  1

  9
$DIMSTYLE
  2
STANDARD
  9
$DIMCLRD
 70
     0
  9
$DIMCLRE
 70
     0
  9
$DIMCLRT
 70
     0
  9
$DIMTFAC
 40
1.0
  9
$DIMGAP
 40
1.0
  9
$LUNITS
 70
     2
  9
$LUPREC
 70
     2
  9
$SKETCHINC
 40
0.1
  9
$FILLETRAD
 40
2.0
  9
$AUNITS
 70
     0
  9
$AUPREC
 70
     2
  9
$MENU
  1
E:\r13\win\SUPPORT\ACAD
  9
$ELEVATION
 40
0.0
  9
$PELEVATION
 40
0.0
  9
$THICKNESS
 40
0.0
  9
$LIMCHECK
 70
     0
  9
$BLIPMODE
 70
     0
  9
$CHAMFERA
 40
1.0
  9
$CHAMFERB
 40
1.0
  9
$SKPOLY
 70
     0
  9
$TDCREATE
 40
2450252.6853964119
  9
$TDUPDATE
 40
2456597.56173441
  9
$TDINDWG
 40
0.1864930556
  9
$TDUSRTIMER
 40
0.1864930556
  9
$USRTIMER
 70
     1
  9
$ANGBASE
 50
0.0
  9
$ANGDIR
 70
     0
  9
$PDMODE
 70
     0
  9
$PDSIZE
 40
0.0
  9
$PLINEWID
 40
0.0
  9
$COORDS
 70
     1
  9
$SPLFRAME
 70
     0
  9
$SPLINETYPE
 70
     6
  9
$SPLINESEGS
 70
     8
  9
$ATTDIA
 70
     0
  9
$ATTREQ
 70
     1
  9
$HANDLING
 70
     1
  9
$HANDSEED
  5
39A7
  9
$SURFTAB1
 70
     6
  9
$SURFTAB2
 70
     6
  9
$SURFTYPE
 70
     6
  9
$SURFU
 70
     6
  9
$SURFV
 70
     6
  9
$UCSNAME
  2

  9
$UCSORG
 10
0.0
 20
0.0
 30
0.0
  9
$UCSXDIR
 10
1.0
 20
0.0
 30
0.0
  9
$UCSYDIR
 10
0.0
 20
1.0
 30
0.0
  9
$PUCSNAME
  2

  9
$PUCSORG
 10
0.0
 20
0.0
 30
0.0
  9
$PUCSXDIR
 10
1.0
 20
0.0
 30
0.0
  9
$PUCSYDIR
 10
0.0
 20
1.0
 30
0.0
  9
$USERI1
 70
     3
  9
$USERI2
 70
     1
  9
$USERI3
 70
     0
  9
$USERI4
 70
     1
  9
$USERI5
 70
     0
  9
$USERR1
 40
1.0
  9
$USERR2
 40
3.0
  9
$USERR3
 40
3.0
  9
$USERR4
 40
3.0
  9
$USERR5
 40
10.0
  9
$WORLDVIEW
 70
     1
  9
$SHADEDGE
 70
     3
  9
$SHADEDIF
 70
    70
  9
$TILEMODE
 70
     1
  9
$MAXACTVP
 70
    16
  9
$PLIMCHECK
 70
     0
  9
$PEXTMIN
 10
1.0000000000000000E+020
 20
1.0000000000000000E+020
 30
1.0000000000000000E+020
  9
$PEXTMAX
 10
-1.0000000000000000E+020
 20
-1.0000000000000000E+020
 30
-1.0000000000000000E+020
  9
$PLIMMIN
 10
0.0
 20
0.0
  9
$PLIMMAX
 10
12.0
 20
9.0
  9
$UNITMODE
 70
     0
  9
$VISRETAIN
 70
     0
  9
$PLINEGEN
 70
     0
  9
$PSLTSCALE
 70
     0
  0
ENDSEC
  0
SECTION
  2
TABLES
  0
TABLE
  2
VPORT
 70
     1
  0
VPORT
  2
*ACTIVE
 70
     0
 10
0.0
 20
0.0
 11
1.0
 21
1.0
 12
192.49412581440311
 22
162.8616388594717
 13
0.0
 23
0.0
 14
5.0
 24
5.0
 15
5.0
 25
5.0
 16
0.0
 26
0.0
 36
1.0
 17
0.0
 27
0.0
 37
0.0
 40
334.81001162774987
 41
1.9089595375722539
 42
50.0
 43
0.0
 44
0.0
 50
0.0
 51
0.0
 71
     0
 72
  1000
 73
     1
 74
     0
 75
     0
 76
     0
 77
     0
 78
     1
  0
ENDTAB
  0
TABLE
  2
LTYPE
 70
     4
  0
LTYPE
  2
CONTINUOUS
 70
     0
  3
Solid Line
 72
    65
 73
     0
 40
0.0
  0
LTYPE
  2
CENTER
 70
     0
  3
____ _ ____ _ ____ _ ____ _ ____ _ ____ _ ____
 72
    65
 73
     4
 40
2.0
 49
1.25
 49
-0.25
 49
0.25
 49
-0.25
  0
LTYPE
  2
HIDDEN
 70
     0
  3
_ _ _ _ _ _ _ _ _ _ _ _ _ _ _ _ _ _ _ _ _ _ _
 72
    65
 73
     2
 40
0.375
 49
0.25
 49
-0.125
  0
LTYPE
  2
PHANTOM2
 70
     0
  3
___ _ _ ___ _ _ ___ _ _ ___ _ _
 72
    65
 73
     6
 40
1.25
 49
0.625
 49
-0.125
 49
0.125
 49
-0.125
 49
0.125
 49
-0.125
  0
ENDTAB
  0
TABLE
  2
LAYER
 70
     4
  0
LAYER
  2
0
 70
     0
 62
     7
  6
CONTINUOUS
  0
LAYER
  2
1
 70
     0
 62
     1
  6
CENTER
  0
LAYER
  2
3
 70
     0
 62
     3
  6
CONTINUOUS
  0
LAYER
  2
2
 70
     0
 62
     2
  6
HIDDEN
  0
ENDTAB
  0
TABLE
  2
STYLE
 70
     2
  0
STYLE
  2
STANDARD
 70
     0
 40
0.0
 41
1.0
 50
0.0
 71
     0
 42
4.0
  3
simplex
  4
bigfont
  0
STYLE
  2
STANDARD1
 70
     0
 40
0.0
 41
1.0
 50
0.0
 71
     0
 42
3.0
  3
txt
  4

  0
ENDTAB
  0
TABLE
  2
VIEW
 70
     0
  0
ENDTAB
  0
TABLE
  2
UCS
 70
     0
  0
ENDTAB
  0
TABLE
  2
APPID
 70
     9
  0
APPID
  2
ACAD
 70
     0
  0
APPID
  2
GENIUS_GENODEF_13
 70
     0
  0
APPID
  2
GENIUS_GENOENT_13
 70
     0
  0
APPID
  2
GENIUS_GENOBJ_13
 70
     0
  0
APPID
  2
GENIUS_GENOLIS_13
 70
     0
  0
APPID
  2
GENIUS_GENOREF_13
 70
     0
  0
APPID
  2
GENIUS_GENOBJ-N-FIL_13
 70
     0
  0
APPID
  2
ACAD_MLEADERVER
 70
     0
  0
APPID
  2
ACAD_NAV_VCDISPLAY
 70
     0
  0
ENDTAB
  0
TABLE
  2
DIMSTYLE
 70
     1
  0
DIMSTYLE
  2
STANDARD
 70
     0
  3

  4

  5

  6

  7

 40
1.0
 41
0.18
 42
0.0625
 43
0.38
 44
0.18
 45
0.0
 46
0.0
 47
0.0
 48
0.0
140
0.18
141
0.09
142
0.0
143
25.399999999999999
144
1.0
145
0.0
146
1.0
147
0.09
 71
     0
 72
     0
 73
     1
 74
     1
 75
     0
 76
     0
 77
     0
 78
     0
170
     0
171
     2
172
     0
173
     0
174
     0
175
     0
176
     0
177
     0
178
     0
  0
ENDTAB
  0
ENDSEC
  0
SECTION
  2
BLOCKS
  0
BLOCK
  8
0
  2
$MODEL_SPACE
 70
     0
 10
0.0
 20
0.0
 30
0.0
  3
$MODEL_SPACE
  1

  0
ENDBLK
  5
3864
  8
0
  0
BLOCK
 67
     1
  8
0
  2
$PAPER_SPACE
 70
     0
 10
0.0
 20
0.0
 30
0.0
  3
$PAPER_SPACE
  1

  0
ENDBLK
  5
3862
 67
     1
  8
0
  0
ENDSEC
  0
SECTION
  2
ENTITIES
  0
LINE
  5
378F
  8
1
 10
153.29431936400781
 20
161.64691094383679
 30
0.0
 11
223.29431936400789
 21
161.6469109438363
 31
0.0
  0
CIRCLE
  5
3790
  8
0
 10
188.29431936400781
 20
161.64691094383659
 30
0.0
 40
5.052999999999999
  0
CIRCLE
  5
3791
  8
3
 10
188.29431936400781
 20
161.64691094383659
 30
0.0
 40
6.0
  0
LINE
  5
3792
  8
2
 10
183.34431936400779
 20
104.42052864773279
 30
0.0
 11
193.24431936400771
 21
104.42052864773279
 31
0.0
  0
CIRCLE
  5
3793
  8
0
 10
188.29431936400781
 20
161.64691094383659
 30
0.0
 40
7.0
  0
LINE
  5
3794
  8
0
 10
161.29431936400761
 20
146.64691094383809
 30
0.0
 11
215.29431936400761
 21
146.64691094383559
 31
0.0
  0
LINE
  5
3795
  8
0
 10
161.29431936400769
 20
176.64691094383539
 30
0.0
 11
215.29431936400781
 21
176.6469109438373
 31
0.0
  0
LINE
  5
3796
  8
0
 10
218.29431936400781
 20
93.604096699571485
 30
0.0
 11
158.29431936400769
 21
93.604096699571485
 31
0.0
  0
LINE
  5
3797
  8
0
 10
216.29431936400781
 20
105.6040966995714
 30
0.0
 11
160.29431936400769
 21
105.6040966995715
 31
0.0
  0
LINE
  5
3798
  8
1
 10
188.29431936400789
 20
110.6040966995714
 30
0.0
 11
188.29431936400789
 21
88.604096699571485
 31
0.0
  0
LINE
  5
3799
  8
1
 10
173.29431936400761
 20
108.1040966995715
 30
0.0
 11
173.29431936400761
 21
91.104096699571485
 31
0.0
  0
LINE
  5
379A
  8
0
 10
158.29431936400769
 20
93.604096699571485
 30
0.0
 11
158.29431936400769
 21
103.6040966995715
 31
0.0
  0
LINE
  5
379B
  8
0
 10
158.51549452175331
 20
93.604096699571485
 30
0.0
 11
158.29811375932999
 21
93.821477461994675
 31
0.0
  0
ARC
  5
379C
  8
0
 10
160.29431936400769
 20
103.6040966995715
 30
0.0
 40
2.0
 50
90.0
 51
180.0
  0
LINE
  5
379D
  8
2
 10
178.59777991138449
 20
98.604096699571485
 30
0.0
 11
167.794319364008
 21
98.604096699571485
 31
0.0
  0
LINE
  5
379E
  8
2
 10
167.79431936400789
 20
105.6040966995714
 30
0.0
 11
167.79431936400789
 21
98.604096699571457
 31
0.0
  0
ARC
  5
379F
  8
2
 10
168.2012543329169
 20
93.804096699571403
 30
0.0
 40
0.2
 50
193.7592300542756
 51
270.0
  0
LINE
  5
37A0
  8
2
 10
176.54431936400729
 20
98.604096699571457
 30
0.0
 11
176.54431936400729
 21
93.604096699571485
 31
0.0
  0
LINE
  5
37A1
  8
2
 10
170.044319364008
 20
98.604096699571457
 30
0.0
 11
170.044319364008
 21
93.604096699571485
 31
0.0
  0
LINE
  5
37A2
  8
2
 10
178.79431936400729
 20
105.6040966995714
 30
0.0
 11
178.79431936400729
 21
98.604096699571457
 31
0.0
  0
LINE
  5
37A3
  8
2
 10
183.34431936400779
 20
104.42052864773279
 30
0.0
 11
183.34431936400779
 21
93.604096699571485
 31
0.0
  0
LINE
  5
37A4
  8
2
 10
182.29431936400769
 20
105.02674643038191
 30
0.0
 11
182.29431936400761
 21
93.604096699571528
 31
0.0
  0
LINE
  5
37A5
  8
2
 10
181.29431936400781
 20
105.6040966995715
 30
0.0
 11
183.34431936400779
 21
104.42052864773279
 31
0.0
  0
LINE
  5
37A6
  8
0
 10
101.1983130445806
 20
146.64691094383659
 30
0.0
 11
111.1983130445806
 21
146.64691094383659
 31
0.0
  0
LINE
  5
37A7
  8
0
 10
101.1983130445805
 20
176.64691094383639
 30
0.0
 11
111.1983130445807
 21
176.64691094383639
 31
0.0
  0
LINE
  5
37A8
  8
1
 10
118.1983130445806
 20
161.64691094383639
 30
0.0
 11
96.198313044580544
 21
161.6469109438363
 31
0.0
  0
LINE
  5
37A9
  8
0
 10
101.1983130445806
 20
146.64691094383659
 30
0.0
 11
101.1983130445805
 21
176.64691094383639
 31
0.0
  0
LINE
  5
37AA
  8
0
 10
101.1983130445806
 20
176.425735786091
 30
0.0
 11
101.41569380700381
 21
176.6431165485142
 31
0.0
  0
LINE
  5
37AB
  8
0
 10
113.1983130445806
 20
148.64691094383659
 30
0.0
 11
113.1983130445807
 21
174.64691094383639
 31
0.0
  0
ARC
  5
37AC
  8
0
 10
111.1983130445806
 20
148.64691094383659
 30
0.0
 40
2.0
 50
270.0
 51
359.99999999999989
  0
ARC
  5
37AD
  8
0
 10
111.1983130445807
 20
174.64691094383639
 30
0.0
 40
2.0
 50
359.99999999999989
 51
90.0
  0
LINE
  5
37AE
  8
1
 10
188.29431936400781
 20
141.6469109438369
 30
0.0
 11
188.2943193640063
 21
181.6469109438363
 31
0.0
  0
ARC
  5
37AF
  8
0
 10
161.29431936400789
 20
173.64691094383539
 30
0.0
 40
3.0
 50
90.000000000002046
 51
179.9999999999996
  0
LINE
  5
37B0
  8
0
 10
158.29431936400769
 20
149.64691094383821
 30
0.0
 11
158.29431936400789
 21
173.64691094383539
 31
0.0
  0
ARC
  5
37B1
  8
0
 10
161.29431936400769
 20
149.64691094383821
 30
0.0
 40
3.0
 50
179.99999999999969
 51
269.99999999999733
  0
LINE
  5
37B2
  8
1
 10
173.294319364008
 20
169.6469109438367
 30
0.0
 11
173.294319364008
 21
153.6469109438367
 31
0.0
  0
CIRCLE
  5
37B3
  8
0
 10
173.294319364008
 20
161.6469109438367
 30
0.0
 40
5.5
  0
CIRCLE
  5
37B4
  8
0
 10
173.294319364008
 20
161.6469109438367
 30
0.0
 40
3.25
  0
LINE
  5
37B5
  8
1
 10
203.29431936400769
 20
91.104096699571485
 30
0.0
 11
203.29431936400789
 21
108.1040966995715
 31
0.0
  0
LINE
  5
37B6
  8
2
 10
197.99085881663129
 20
98.604096699571485
 30
0.0
 11
208.79431936400781
 21
98.604096699571485
 31
0.0
  0
LINE
  5
37B7
  8
2
 10
197.79431936400849
 20
105.6040966995714
 30
0.0
 11
197.79431936400849
 21
98.604096699571457
 31
0.0
  0
LINE
  5
37B8
  8
2
 10
193.24431936400771
 20
104.42052864773279
 30
0.0
 11
193.24431936400771
 21
93.604096699571485
 31
0.0
  0
LINE
  5
37B9
  8
2
 10
194.29431936400781
 20
105.02674643038191
 30
0.0
 11
194.29431936400761
 21
93.604096699571485
 31
0.0
  0
LINE
  5
37BA
  8
2
 10
206.54431936400789
 20
98.604096699571457
 30
0.0
 11
206.54431936400789
 21
93.604096699571485
 31
0.0
  0
LINE
  5
37BB
  8
2
 10
200.0443193640086
 20
98.604096699571457
 30
0.0
 11
200.0443193640086
 21
93.604096699571485
 31
0.0
  0
LINE
  5
37BC
  8
2
 10
195.29431936400769
 20
105.6040966995714
 30
0.0
 11
193.24431936400771
 21
104.42052864773279
 31
0.0
  0
LINE
  5
37BD
  8
2
 10
208.79431936400789
 20
105.6040966995714
 30
0.0
 11
208.79431936400789
 21
98.604096699571457
 31
0.0
  0
LINE
  5
37BE
  8
0
 10
218.29431936400781
 20
93.604096699571485
 30
0.0
 11
218.29431936400781
 21
103.6040966995714
 31
0.0
  0
ARC
  5
37BF
  8
0
 10
216.29431936400781
 20
103.6040966995714
 30
0.0
 40
2.0
 50
0.0
 51
89.999999999999986
  0
ARC
  5
37C0
  8
0
 10
215.294319364008
 20
173.6469109438373
 30
0.0
 40
3.0
 50
359.9999999999996
 51
90.000000000002075
  0
LINE
  5
37C1
  8
1
 10
203.29431936400769
 20
169.6469109438365
 30
0.0
 11
203.29431936400769
 21
153.6469109438365
 31
0.0
  0
LINE
  5
37C2
  8
0
 10
218.29431936400781
 20
149.64691094383551
 30
0.0
 11
218.29431936400789
 21
173.6469109438373
 31
0.0
  0
ARC
  5
37C3
  8
0
 10
215.29431936400781
 20
149.64691094383559
 30
0.0
 40
3.0
 50
269.99999999999733
 51
359.99999999999972
  0
CIRCLE
  5
37C4
  8
0
 10
203.29431936400769
 20
161.6469109438365
 30
0.0
 40
5.5
  0
CIRCLE
  5
37C5
  8
0
 10
203.29431936400769
 20
161.6469109438365
 30
0.0
 40
3.25
  0
TEXT
  5
3919
  8
0
 62
     3
 10
0.0
 20
0.0
 30
0.0
 40
10.0
  1
L6-ECN6030-M12
  7
STANDARD1
  0
ENDSEC
  0
EOF
