  0
SECTION
  2
HEADER
  9
$ACADVER
  1
AC1009
  9
$INSBASE
 10
0.0
 20
0.0
 30
0.0
  9
$EXTMIN
 10
0.0
 20
-2.960436562073669
 30
0.0
  9
$EXTMAX
 10
153.4893449919152
 20
151.81580753112851
 30
0.0
  9
$LIMMIN
 10
0.0
 20
0.0
  9
$LIMMAX
 10
375.0
 20
270.0
  9
$ORTHOMODE
 70
     1
  9
$REGENMODE
 70
     1
  9
$FILLMODE
 70
     1
  9
$QTEXTMODE
 70
     0
  9
$MIRRTEXT
 70
     0
  9
$DRAGMODE
 70
     2
  9
$LTSCALE
 40
5.0
  9
$OSMODE
 70
  3071
  9
$ATTMODE
 70
     1
  9
$TEXTSIZE
 40
4.0
  9
$TRACEWID
 40
0.05
  9
$TEXTSTYLE
  7
STANDARD
  9
$CLAYER
  8
4
  9
$CELTYPE
  6
BYLAYER
  9
$CECOLOR
 62
   256
  9
$DIMSCALE
 40
1.0
  9
$DIMASZ
 40
3.0
  9
$DIMEXO
 40
2.0
  9
$DIMDLI
 40
0.38
  9
$DIMRND
 40
0.0
  9
$DIMDLE
 40
0.0
  9
$DIMEXE
 40
2.0
  9
$DIMTP
 40
0.0
  9
$DIMTM
 40
0.0
  9
$DIMTXT
 40
3.2000000000000002
  9
$DIMCEN
 40
0.0
  9
$DIMTSZ
 40
0.0
  9
$DIMTOL
 70
     0
  9
$DIMLIM
 70
     0
  9
$DIMTIH
 70
     0
  9
$DIMTOH
 70
     0
  9
$DIMSE1
 70
     0
  9
$DIMSE2
 70
     0
  9
$DIMTAD
 70
     1
  9
$DIMZIN
 70
     0
  9
$DIMBLK
  1

  9
$DIMASO
 70
     0
  9
$DIMSHO
 70
     0
  9
$DIMPOST
  1

  9
$DIMAPOST
  1

  9
$DIMALT
 70
     0
  9
$DIMALTD
 70
     2
  9
$DIMALTF
 40
25.399999999999999
  9
$DIMLFAC
 40
1.0
  9
$DIMTOFL
 70
     0
  9
$DIMTVP
 40
1.6000000000000001
  9
$DIMTIX
 70
     1
  9
$DIMSOXD
 70
     0
  9
$DIMSAH
 70
     0
  9
$DIMBLK1
  1

  9
$DIMBLK2
  1

  9
$DIMSTYLE
  2
STANDARD
  9
$DIMCLRD
 70
     0
  9
$DIMCLRE
 70
     0
  9
$DIMCLRT
 70
     0
  9
$DIMTFAC
 40
1.0
  9
$DIMGAP
 40
0.09
  9
$LUNITS
 70
     2
  9
$LUPREC
 70
     1
  9
$SKETCHINC
 40
0.1
  9
$FILLETRAD
 40
2.0
  9
$AUNITS
 70
     0
  9
$AUPREC
 70
     0
  9
$MENU
  1
E:\r13\win\SUPPORT\ACAD
  9
$ELEVATION
 40
0.0
  9
$PELEVATION
 40
0.0
  9
$THICKNESS
 40
0.0
  9
$LIMCHECK
 70
     0
  9
$BLIPMODE
 70
     0
  9
$CHAMFERA
 40
0.0
  9
$CHAMFERB
 40
0.0
  9
$SKPOLY
 70
     0
  9
$TDCREATE
 40
2450760.3718543979
  9
$TDUPDATE
 40
2456597.561875266
  9
$TDINDWG
 40
0.0134534259
  9
$TDUSRTIMER
 40
0.0134534259
  9
$USRTIMER
 70
     1
  9
$ANGBASE
 50
0.0
  9
$ANGDIR
 70
     0
  9
$PDMODE
 70
     0
  9
$PDSIZE
 40
0.0
  9
$PLINEWID
 40
0.0
  9
$COORDS
 70
     1
  9
$SPLFRAME
 70
     0
  9
$SPLINETYPE
 70
     6
  9
$SPLINESEGS
 70
     8
  9
$ATTDIA
 70
     0
  9
$ATTREQ
 70
     1
  9
$HANDLING
 70
     1
  9
$HANDSEED
  5
1087
  9
$SURFTAB1
 70
     6
  9
$SURFTAB2
 70
     6
  9
$SURFTYPE
 70
     6
  9
$SURFU
 70
     6
  9
$SURFV
 70
     6
  9
$UCSNAME
  2

  9
$UCSORG
 10
0.0
 20
0.0
 30
0.0
  9
$UCSXDIR
 10
1.0
 20
0.0
 30
0.0
  9
$UCSYDIR
 10
0.0
 20
1.0
 30
0.0
  9
$PUCSNAME
  2

  9
$PUCSORG
 10
0.0
 20
0.0
 30
0.0
  9
$PUCSXDIR
 10
1.0
 20
0.0
 30
0.0
  9
$PUCSYDIR
 10
0.0
 20
1.0
 30
0.0
  9
$USERI1
 70
     0
  9
$USERI2
 70
     1
  9
$USERI3
 70
     0
  9
$USERI4
 70
     0
  9
$USERI5
 70
     0
  9
$USERR1
 40
0.0
  9
$USERR2
 40
0.0
  9
$USERR3
 40
0.0
  9
$USERR4
 40
0.0
  9
$USERR5
 40
0.0
  9
$WORLDVIEW
 70
     1
  9
$SHADEDGE
 70
     3
  9
$SHADEDIF
 70
    70
  9
$TILEMODE
 70
     1
  9
$MAXACTVP
 70
    16
  9
$PLIMCHECK
 70
     0
  9
$PEXTMIN
 10
1.0000000000000000E+020
 20
1.0000000000000000E+020
 30
1.0000000000000000E+020
  9
$PEXTMAX
 10
-1.0000000000000000E+020
 20
-1.0000000000000000E+020
 30
-1.0000000000000000E+020
  9
$PLIMMIN
 10
0.0
 20
0.0
  9
$PLIMMAX
 10
12.0
 20
9.0
  9
$UNITMODE
 70
     0
  9
$VISRETAIN
 70
     0
  9
$PLINEGEN
 70
     1
  9
$PSLTSCALE
 70
     0
  0
ENDSEC
  0
SECTION
  2
TABLES
  0
TABLE
  2
VPORT
 70
     1
  0
VPORT
  2
*ACTIVE
 70
     0
 10
0.0
 20
0.0
 11
1.0
 21
1.0
 12
187.49427839065231
 22
162.8616388594717
 13
0.0
 23
0.0
 14
10.0
 24
10.0
 15
10.0
 25
10.0
 16
0.0
 26
0.0
 36
1.0
 17
0.0
 27
0.0
 37
0.0
 40
334.81001162774987
 41
1.9089595375722539
 42
50.0
 43
0.0
 44
0.0
 50
0.0
 51
0.0
 71
     0
 72
   100
 73
     1
 74
     0
 75
     0
 76
     0
 77
     0
 78
     2
  0
ENDTAB
  0
TABLE
  2
LTYPE
 70
     3
  0
LTYPE
  2
CONTINUOUS
 70
     0
  3
Solid Line
 72
    65
 73
     0
 40
0.0
  0
LTYPE
  2
CENTER
 70
     0
  3
____ _ ____ _ ____ _ ____ _ ____ _ ____ _ ____
 72
    65
 73
     4
 40
2.0
 49
1.25
 49
-0.25
 49
0.25
 49
-0.25
  0
LTYPE
  2
PHANTOM2
 70
     0
  3
___ _ _ ___ _ _ ___ _ _ ___ _ _
 72
    65
 73
     6
 40
1.25
 49
0.625
 49
-0.125
 49
0.125
 49
-0.125
 49
0.125
 49
-0.125
  0
ENDTAB
  0
TABLE
  2
LAYER
 70
     2
  0
LAYER
  2
0
 70
     0
 62
     7
  6
CONTINUOUS
  0
LAYER
  2
4
 70
     0
 62
     4
  6
CONTINUOUS
  0
ENDTAB
  0
TABLE
  2
STYLE
 70
     2
  0
STYLE
  2
STANDARD
 70
     0
 40
0.0
 41
1.0
 50
0.0
 71
     0
 42
4.0
  3
SIMPLEX
  4
BIGFONT
  0
STYLE
  2
STANDARD1
 70
     0
 40
0.0
 41
1.0
 50
0.0
 71
     0
 42
3.0
  3
txt
  4

  0
ENDTAB
  0
TABLE
  2
VIEW
 70
     2
  0
VIEW
  2
ALL
 70
     0
 40
270.0
 10
220.78595300000001
 20
135.0
 41
441.5719059999999
 11
0.0
 21
0.0
 31
1.0
 12
0.0
 22
0.0
 32
0.0
 42
0.0
 43
0.0
 44
0.0
 50
0.0
 71
     0
  0
VIEW
  2
OLE1
 70
     0
 40
287.6181009325739
 10
312.33043625584321
 20
91.536677550010182
 41
540.16082370263871
 11
0.0
 21
0.0
 31
1.0
 12
0.0
 22
0.0
 32
0.0
 42
50.0
 43
0.0
 44
0.0
 50
0.0
 71
     0
  0
ENDTAB
  0
TABLE
  2
UCS
 70
     0
  0
ENDTAB
  0
TABLE
  2
APPID
 70
     3
  0
APPID
  2
ACAD
 70
     0
  0
APPID
  2
ACAD_MLEADERVER
 70
     0
  0
APPID
  2
ACAD_NAV_VCDISPLAY
 70
     0
  0
ENDTAB
  0
TABLE
  2
DIMSTYLE
 70
     1
  0
DIMSTYLE
  2
STANDARD
 70
     0
  3

  4

  5

  6

  7

 40
1.0
 41
0.18
 42
0.0625
 43
0.38
 44
0.18
 45
0.0
 46
0.0
 47
0.0
 48
0.0
140
0.18
141
0.09
142
0.0
143
25.399999999999999
144
1.0
145
0.0
146
1.0
147
0.09
 71
     0
 72
     0
 73
     1
 74
     1
 75
     0
 76
     0
 77
     0
 78
     0
170
     0
171
     2
172
     0
173
     0
174
     0
175
     0
176
     0
177
     0
178
     0
  0
ENDTAB
  0
ENDSEC
  0
SECTION
  2
BLOCKS
  0
BLOCK
  8
0
  2
$MODEL_SPACE
 70
     0
 10
0.0
 20
0.0
 30
0.0
  3
$MODEL_SPACE
  1

  0
ENDBLK
  5
75E
  8
0
  0
BLOCK
 67
     1
  8
0
  2
$PAPER_SPACE
 70
     0
 10
0.0
 20
0.0
 30
0.0
  3
$PAPER_SPACE
  1

  0
ENDBLK
  5
75C
 67
     1
  8
0
  0
ENDSEC
  0
SECTION
  2
ENTITIES
  0
LINE
  5
F0A
  8
0
  6
CONTINUOUS
 62
     7
 10
79.507780913854958
 20
107.8158075311285
 30
0.0
 11
66.493746844147381
 21
85.274839310962591
 31
0.0
  0
ARC
  5
F0B
  8
0
  6
CONTINUOUS
 62
     7
 10
50.525027421476132
 20
57.616205939083933
 30
0.0
 40
30.0
 50
3.5833216984719791
 51
56.416678301528201
  0
LINE
  5
F0D
  8
0
  6
CENTER
 62
     1
 10
106.8166786674646
 20
90.116205939083954
 30
0.0
 11
72.175662516087073
 21
70.116205939083954
 31
0.0
  0
ARC
  5
F0E
  8
0
  6
CENTER
 62
     1
 10
50.525027421476132
 20
57.616205939083947
 30
0.0
 40
45.0
 50
353.62062979155718
 51
66.379370208442893
  0
LINE
  5
F10
  8
0
  6
CONTINUOUS
 62
     7
 10
82.462466266818751
 20
57.616205939083933
 30
0.0
 11
108.49053440623391
 21
57.616205939083933
 31
0.0
  0
ARC
  5
F12
  8
0
  6
CONTINUOUS
 62
     7
 10
50.525027421476132
 20
57.616205939083933
 30
0.0
 40
60.0
 50
1.97610828571563
 51
58.02389171428446
  0
ARC
  5
F19
  8
0
  6
CONTINUOUS
 62
     7
 10
81.239831721423784
 20
106.8158075311285
 30
0.0
 40
2.0
 50
58.023891714284723
 51
150.00000000000011
  0
ARC
  5
F1A
  8
0
  6
CONTINUOUS
 62
     7
 10
68.225797651716221
 20
84.274839310962605
 30
0.0
 40
2.0
 50
150.00000000000011
 51
236.41667830152821
  0
ARC
  5
F1B
  8
0
  6
CONTINUOUS
 62
     7
 10
82.462466266818751
 20
59.616205939083919
 30
0.0
 40
2.0
 50
183.58332169847191
 51
270.0
  0
ARC
  5
F1C
  8
0
  6
CONTINUOUS
 62
     7
 10
108.49053440623391
 20
59.616205939083912
 30
0.0
 40
2.0
 50
270.0
 51
1.976108285715662
  0
LINE
  5
F1D
  8
0
  6
CONTINUOUS
 62
     7
 10
153.4893449919152
 20
108.8158075311285
 30
0.0
 11
152.48934499191529
 21
108.8158075311285
 31
0.0
  0
LINE
  5
F1E
  8
0
  6
CONTINUOUS
 62
     7
 10
153.4893449919152
 20
57.61620593908394
 30
0.0
 11
152.4893449919152
 21
57.616205939083912
 31
0.0
  0
LINE
  5
F21
  8
0
  6
CONTINUOUS
 62
     7
 10
150.4893449919152
 20
59.616205939083912
 30
0.0
 11
150.48934499191529
 21
106.8158075311285
 31
0.0
  0
LINE
  5
F22
  8
0
  6
CONTINUOUS
 62
     7
 10
26.225797651716618
 20
106.8158075311285
 30
0.0
 11
26.225797651716221
 21
59.616205939083912
 31
0.0
  0
LINE
  5
F23
  8
0
  6
CONTINUOUS
 62
     7
 10
68.225797651716221
 20
148.81580753112851
 30
0.0
 11
108.4893449919152
 21
148.81580753112851
 31
0.0
  0
LINE
  5
F24
  8
0
  6
CONTINUOUS
 62
     7
 10
108.4893449919152
 20
17.61620593908394
 30
0.0
 11
68.225797651716334
 21
17.61620593908394
 31
0.0
  0
LINE
  5
F25
  8
0
  6
CONTINUOUS
 62
     7
 10
110.4893449919152
 20
150.81580753112851
 30
0.0
 11
110.4893449919152
 21
151.81580753112851
 31
0.0
  0
LINE
  5
F26
  8
0
  6
CONTINUOUS
 62
     7
 10
66.225797651716221
 20
150.81580753112851
 30
0.0
 11
66.225797651716221
 21
151.81580753112851
 31
0.0
  0
LINE
  5
F27
  8
0
  6
CONTINUOUS
 62
     7
 10
66.225797651716334
 20
15.616205939083949
 30
0.0
 11
66.225797651716221
 21
14.61620593908394
 31
0.0
  0
LINE
  5
F28
  8
0
  6
CONTINUOUS
 62
     7
 10
110.4893449919152
 20
15.61620593908394
 30
0.0
 11
110.4893449919152
 21
14.61620593908394
 31
0.0
  0
LINE
  5
F29
  8
0
  6
CONTINUOUS
 62
     7
 10
66.225797651716221
 20
151.81580753112851
 30
0.0
 11
110.4893449919152
 21
151.81580753112851
 31
0.0
  0
LINE
  5
F2A
  8
0
  6
CONTINUOUS
 62
     7
 10
23.225797651716221
 20
108.8158075311285
 30
0.0
 11
23.225797651716221
 21
57.61620593908394
 31
0.0
  0
LINE
  5
F2B
  8
0
  6
CONTINUOUS
 62
     7
 10
153.4893449919152
 20
57.61620593908394
 30
0.0
 11
153.4893449919152
 21
108.8158075311285
 31
0.0
  0
LINE
  5
F2C
  8
0
  6
CONTINUOUS
 62
     7
 10
110.4893449919152
 20
14.61620593908394
 30
0.0
 11
66.225797651716221
 21
14.61620593908394
 31
0.0
  0
LINE
  5
F2D
  8
0
  6
CONTINUOUS
 62
     7
 10
24.225797651716618
 20
108.8158075311285
 30
0.0
 11
23.225797651716221
 21
108.8158075311285
 31
0.0
  0
LINE
  5
F2E
  8
0
  6
CONTINUOUS
 62
     7
 10
24.225797651716221
 20
57.616205939083933
 30
0.0
 11
23.225797651716221
 21
57.61620593908394
 31
0.0
  0
ARC
  5
F30
  8
0
  6
CONTINUOUS
 62
     7
 10
108.4893449919152
 20
15.61620593908394
 30
0.0
 40
2.0
 50
0.0
 51
90.0
  0
ARC
  5
F31
  8
0
  6
CONTINUOUS
 62
     7
 10
68.225797651716334
 20
15.616205939083949
 30
0.0
 40
2.0
 50
90.0
 51
180.0
  0
ARC
  5
F32
  8
0
  6
CONTINUOUS
 62
     7
 10
68.225797651716221
 20
150.81580753112851
 30
0.0
 40
2.0
 50
180.0
 51
270.0
  0
ARC
  5
F33
  8
0
  6
CONTINUOUS
 62
     7
 10
108.4893449919152
 20
150.81580753112851
 30
0.0
 40
2.0
 50
269.99999999999989
 51
0.0
  0
LINE
  5
F39
  8
0
  6
CONTINUOUS
 62
     7
 10
80.466376338984674
 20
15.61620593908394
 30
0.0
 11
80.466376338984787
 21
14.61620593908394
 31
0.0
  0
ARC
  5
F3A
  8
0
  6
CONTINUOUS
 62
     7
 10
82.466376338984674
 20
15.61620593908394
 30
0.0
 40
2.0
 50
89.999999999999986
 51
180.0
  0
LINE
  5
F3E
  8
0
  6
CONTINUOUS
 62
     7
 10
79.507780913854958
 20
151.81580753112851
 30
0.0
 11
79.507780913854958
 21
150.81580753112851
 31
0.0
  0
ARC
  5
F3F
  8
0
  6
CONTINUOUS
 62
     7
 10
81.507780913854944
 20
150.81580753112851
 30
0.0
 40
2.0
 50
180.0
 51
270.0
  0
LINE
  5
F41
  8
0
  6
CONTINUOUS
 62
     7
 10
24.225797651716391
 20
85.274839310962605
 30
0.0
 11
23.225797651716221
 21
85.274839310962591
 31
0.0
  0
ARC
  5
F42
  8
0
  6
CONTINUOUS
 62
     7
 10
24.225797651716391
 20
83.274839310962619
 30
0.0
 40
2.0
 50
0.0
 51
90.0
  0
ARC
  5
F43
  8
0
  6
CONTINUOUS
 62
     7
 10
24.225797651716618
 20
106.8158075311285
 30
0.0
 40
2.0
 50
359.9999999999996
 51
90.0
  0
ARC
  5
F44
  8
0
  6
CONTINUOUS
 62
     7
 10
24.225797651716221
 20
59.616205939083919
 30
0.0
 40
2.0
 50
270.0
 51
359.9999999999996
  0
ARC
  5
F45
  8
0
  6
CONTINUOUS
 62
     7
 10
152.48934499191529
 20
106.8158075311285
 30
0.0
 40
2.0
 50
90.0
 51
180.0
  0
ARC
  5
F46
  8
0
  6
CONTINUOUS
 62
     7
 10
152.4893449919152
 20
59.616205939083912
 30
0.0
 40
2.0
 50
179.9999999999998
 51
270.0
  0
TEXT
  5
FF5
  8
0
 62
     3
 10
0.0
 20
0.0
 30
0.0
 40
10.0
  1
L6-ECPR36D60
  7
STANDARD1
  0
ENDSEC
  0
EOF
