  0
SECTION
  2
HEADER
  9
$ACADVER
  1
AC1009
  9
$INSBASE
 10
7.37824081052986
 20
15.90864369846679
 30
0.0
  9
$EXTMIN
 10
0.0
 20
-2.960436562073669
 30
0.0
  9
$EXTMAX
 10
126.6904068448969
 20
89.82120013104182
 30
0.0
  9
$LIMMIN
 10
0.0
 20
0.0
  9
$LIMMAX
 10
192.5
 20
135.0
  9
$ORTHOMODE
 70
     1
  9
$REGENMODE
 70
     1
  9
$FILLMODE
 70
     1
  9
$QTEXTMODE
 70
     0
  9
$MIRRTEXT
 70
     0
  9
$DRAGMODE
 70
     2
  9
$LTSCALE
 40
5.0
  9
$OSMODE
 70
  3071
  9
$ATTMODE
 70
     1
  9
$TEXTSIZE
 40
4.0
  9
$TRACEWID
 40
0.05
  9
$TEXTSTYLE
  7
STANDARD
  9
$CLAYER
  8
0
  9
$CELTYPE
  6
BYLAYER
  9
$CECOLOR
 62
   256
  9
$DIMSCALE
 40
0.5
  9
$DIMASZ
 40
3.0
  9
$DIMEXO
 40
2.0
  9
$DIMDLI
 40
10.0
  9
$DIMRND
 40
0.0
  9
$DIMDLE
 40
0.0
  9
$DIMEXE
 40
2.0
  9
$DIMTP
 40
0.0
  9
$DIMTM
 40
0.0
  9
$DIMTXT
 40
3.0
  9
$DIMCEN
 40
0.09
  9
$DIMTSZ
 40
0.0
  9
$DIMTOL
 70
     0
  9
$DIMLIM
 70
     0
  9
$DIMTIH
 70
     0
  9
$DIMTOH
 70
     0
  9
$DIMSE1
 70
     0
  9
$DIMSE2
 70
     0
  9
$DIMTAD
 70
     1
  9
$DIMZIN
 70
     0
  9
$DIMBLK
  1

  9
$DIMASO
 70
     0
  9
$DIMSHO
 70
     0
  9
$DIMPOST
  1

  9
$DIMAPOST
  1

  9
$DIMALT
 70
     0
  9
$DIMALTD
 70
     2
  9
$DIMALTF
 40
25.399999999999999
  9
$DIMLFAC
 40
1.0
  9
$DIMTOFL
 70
     1
  9
$DIMTVP
 40
1.6000000000000001
  9
$DIMTIX
 70
     1
  9
$DIMSOXD
 70
     0
  9
$DIMSAH
 70
     0
  9
$DIMBLK1
  1

  9
$DIMBLK2
  1

  9
$DIMSTYLE
  2
STANDARD
  9
$DIMCLRD
 70
     0
  9
$DIMCLRE
 70
     0
  9
$DIMCLRT
 70
     0
  9
$DIMTFAC
 40
1.0
  9
$DIMGAP
 40
1.0
  9
$LUNITS
 70
     2
  9
$LUPREC
 70
     2
  9
$SKETCHINC
 40
0.1
  9
$FILLETRAD
 40
0.0
  9
$AUNITS
 70
     0
  9
$AUPREC
 70
     2
  9
$MENU
  1
E:\r13\win\SUPPORT\ACAD
  9
$ELEVATION
 40
0.0
  9
$PELEVATION
 40
0.0
  9
$THICKNESS
 40
0.0
  9
$LIMCHECK
 70
     0
  9
$BLIPMODE
 70
     0
  9
$CHAMFERA
 40
1.0
  9
$CHAMFERB
 40
1.0
  9
$SKPOLY
 70
     0
  9
$TDCREATE
 40
2450252.6853964119
  9
$TDUPDATE
 40
2456597.5619523958
  9
$TDINDWG
 40
0.194046956
  9
$TDUSRTIMER
 40
0.194046956
  9
$USRTIMER
 70
     1
  9
$ANGBASE
 50
0.0
  9
$ANGDIR
 70
     0
  9
$PDMODE
 70
     0
  9
$PDSIZE
 40
0.0
  9
$PLINEWID
 40
0.0
  9
$COORDS
 70
     1
  9
$SPLFRAME
 70
     0
  9
$SPLINETYPE
 70
     6
  9
$SPLINESEGS
 70
     8
  9
$ATTDIA
 70
     0
  9
$ATTREQ
 70
     1
  9
$HANDLING
 70
     1
  9
$HANDSEED
  5
406A
  9
$SURFTAB1
 70
     6
  9
$SURFTAB2
 70
     6
  9
$SURFTYPE
 70
     6
  9
$SURFU
 70
     6
  9
$SURFV
 70
     6
  9
$UCSNAME
  2

  9
$UCSORG
 10
0.0
 20
0.0
 30
0.0
  9
$UCSXDIR
 10
1.0
 20
0.0
 30
0.0
  9
$UCSYDIR
 10
0.0
 20
1.0
 30
0.0
  9
$PUCSNAME
  2

  9
$PUCSORG
 10
0.0
 20
0.0
 30
0.0
  9
$PUCSXDIR
 10
1.0
 20
0.0
 30
0.0
  9
$PUCSYDIR
 10
0.0
 20
1.0
 30
0.0
  9
$USERI1
 70
     3
  9
$USERI2
 70
     1
  9
$USERI3
 70
     0
  9
$USERI4
 70
     1
  9
$USERI5
 70
     0
  9
$USERR1
 40
0.5
  9
$USERR2
 40
3.0
  9
$USERR3
 40
3.0
  9
$USERR4
 40
3.0
  9
$USERR5
 40
10.0
  9
$WORLDVIEW
 70
     1
  9
$SHADEDGE
 70
     3
  9
$SHADEDIF
 70
    70
  9
$TILEMODE
 70
     1
  9
$MAXACTVP
 70
    16
  9
$PLIMCHECK
 70
     0
  9
$PEXTMIN
 10
1.0000000000000000E+020
 20
1.0000000000000000E+020
 30
1.0000000000000000E+020
  9
$PEXTMAX
 10
-1.0000000000000000E+020
 20
-1.0000000000000000E+020
 30
-1.0000000000000000E+020
  9
$PLIMMIN
 10
0.0
 20
0.0
  9
$PLIMMAX
 10
12.0
 20
9.0
  9
$UNITMODE
 70
     0
  9
$VISRETAIN
 70
     0
  9
$PLINEGEN
 70
     0
  9
$PSLTSCALE
 70
     0
  0
ENDSEC
  0
SECTION
  2
TABLES
  0
TABLE
  2
VPORT
 70
     1
  0
VPORT
  2
*ACTIVE
 70
     0
 10
0.0
 20
0.0
 11
1.0
 21
1.0
 12
96.247062907201567
 22
80.848703909439024
 13
0.0
 23
0.0
 14
2.5
 24
2.5
 15
5.0
 25
5.0
 16
0.0
 26
0.0
 36
1.0
 17
0.0
 27
0.0
 37
0.0
 40
169.22413112104309
 41
1.9089595375722539
 42
50.0
 43
0.0
 44
0.0
 50
0.0
 51
0.0
 71
     0
 72
  1000
 73
     1
 74
     0
 75
     0
 76
     0
 77
     0
 78
     1
  0
ENDTAB
  0
TABLE
  2
LTYPE
 70
     3
  0
LTYPE
  2
CONTINUOUS
 70
     0
  3
Solid Line
 72
    65
 73
     0
 40
0.0
  0
LTYPE
  2
CENTER
 70
     0
  3
____ _ ____ _ ____ _ ____ _ ____ _ ____ _ ____
 72
    65
 73
     4
 40
2.0
 49
1.25
 49
-0.25
 49
0.25
 49
-0.25
  0
LTYPE
  2
PHANTOM2
 70
     0
  3
___ _ _ ___ _ _ ___ _ _ ___ _ _
 72
    65
 73
     6
 40
1.25
 49
0.625
 49
-0.125
 49
0.125
 49
-0.125
 49
0.125
 49
-0.125
  0
ENDTAB
  0
TABLE
  2
LAYER
 70
     2
  0
LAYER
  2
0
 70
     0
 62
     7
  6
CONTINUOUS
  0
LAYER
  2
1
 70
     0
 62
     1
  6
CENTER
  0
ENDTAB
  0
TABLE
  2
STYLE
 70
     2
  0
STYLE
  2
STANDARD
 70
     0
 40
0.0
 41
1.0
 50
0.0
 71
     0
 42
4.0
  3
simplex
  4
bigfont
  0
STYLE
  2
STANDARD1
 70
     0
 40
0.0
 41
1.0
 50
0.0
 71
     0
 42
3.0
  3
txt
  4

  0
ENDTAB
  0
TABLE
  2
VIEW
 70
     0
  0
ENDTAB
  0
TABLE
  2
UCS
 70
     0
  0
ENDTAB
  0
TABLE
  2
APPID
 70
     9
  0
APPID
  2
ACAD
 70
     0
  0
APPID
  2
GENIUS_GENODEF_13
 70
     0
  0
APPID
  2
GENIUS_GENOENT_13
 70
     0
  0
APPID
  2
GENIUS_GENOBJ_13
 70
     0
  0
APPID
  2
GENIUS_GENOLIS_13
 70
     0
  0
APPID
  2
GENIUS_GENOREF_13
 70
     0
  0
APPID
  2
GENIUS_GENOBJ-N-FIL_13
 70
     0
  0
APPID
  2
ACAD_MLEADERVER
 70
     0
  0
APPID
  2
ACAD_NAV_VCDISPLAY
 70
     0
  0
ENDTAB
  0
TABLE
  2
DIMSTYLE
 70
     1
  0
DIMSTYLE
  2
STANDARD
 70
     0
  3

  4

  5

  6

  7

 40
1.0
 41
0.18
 42
0.0625
 43
0.38
 44
0.18
 45
0.0
 46
0.0
 47
0.0
 48
0.0
140
0.18
141
0.09
142
0.0
143
25.399999999999999
144
1.0
145
0.0
146
1.0
147
0.09
 71
     0
 72
     0
 73
     1
 74
     1
 75
     0
 76
     0
 77
     0
 78
     0
170
     0
171
     2
172
     0
173
     0
174
     0
175
     0
176
     0
177
     0
178
     0
  0
ENDTAB
  0
ENDSEC
  0
SECTION
  2
BLOCKS
  0
BLOCK
  8
0
  2
$MODEL_SPACE
 70
     0
 10
0.0
 20
0.0
 30
0.0
  3
$MODEL_SPACE
  1

  0
ENDBLK
  5
3F2B
  8
0
  0
BLOCK
 67
     1
  8
0
  2
$PAPER_SPACE
 70
     0
 10
0.0
 20
0.0
 30
0.0
  3
$PAPER_SPACE
  1

  0
ENDBLK
  5
3F29
 67
     1
  8
0
  0
ENDSEC
  0
SECTION
  2
ENTITIES
  0
POLYLINE
  5
3D37
  8
0
  6
CONTINUOUS
 66
     1
 10
0.0
 20
0.0
 30
0.0
 70
     8
  0
VERTEX
  5
3E1D
  8
0
  6
CONTINUOUS
 10
56.944226801558713
 20
61.65640651622698
 30
0.0
 70
    32
1001
ACAD
1000
R13OBJECT
1002
{
1005
3D37
1002
}
  0
VERTEX
  5
3E1E
  8
0
  6
CONTINUOUS
 10
56.867946714825763
 20
62.038911502081419
 30
0.0
 70
    32
1001
ACAD
1000
R13OBJECT
1002
{
1005
3D37
1002
}
  0
VERTEX
  5
3E1F
  8
0
  6
CONTINUOUS
 10
56.651128803438802
 20
62.363138015939462
 30
0.0
 70
    32
1001
ACAD
1000
R13OBJECT
1002
{
1005
3D37
1002
}
  0
VERTEX
  5
3E20
  8
0
  6
CONTINUOUS
 10
56.326760470203318
 20
62.579757150680727
 30
0.0
 70
    32
1001
ACAD
1000
R13OBJECT
1002
{
1005
3D37
1002
}
  0
VERTEX
  5
3E21
  8
0
  6
CONTINUOUS
 10
55.944192199114497
 20
62.655811746043987
 30
0.0
 70
    32
1001
ACAD
1000
R13OBJECT
1002
{
1005
3D37
1002
}
  0
SEQEND
  5
3E22
  8
0
  6
CONTINUOUS
  0
POLYLINE
  5
3D38
  8
0
  6
CONTINUOUS
 66
     1
 10
0.0
 20
0.0
 30
0.0
 70
     8
  0
VERTEX
  5
3E23
  8
0
  6
CONTINUOUS
 10
51.744261096016167
 20
62.655811746043923
 30
0.0
 70
    32
1001
ACAD
1000
R13OBJECT
1002
{
1005
3D38
1002
}
  0
VERTEX
  5
3E24
  8
0
  6
CONTINUOUS
 10
51.361692824312769
 20
62.579757151254967
 30
0.0
 70
    32
1001
ACAD
1000
R13OBJECT
1002
{
1005
3D38
1002
}
  0
VERTEX
  5
3E25
  8
0
  6
CONTINUOUS
 10
51.037324490398127
 20
62.363138016646907
 30
0.0
 70
    32
1001
ACAD
1000
R13OBJECT
1002
{
1005
3D38
1002
}
  0
VERTEX
  5
3E26
  8
0
  6
CONTINUOUS
 10
50.820506578494992
 20
62.038911502543641
 30
0.0
 70
    32
1001
ACAD
1000
R13OBJECT
1002
{
1005
3D38
1002
}
  0
VERTEX
  5
3E27
  8
0
  6
CONTINUOUS
 10
50.744226491570338
 20
61.65640651622698
 30
0.0
 70
    32
1001
ACAD
1000
R13OBJECT
1002
{
1005
3D38
1002
}
  0
SEQEND
  5
3E28
  8
0
  6
CONTINUOUS
  0
POLYLINE
  5
3D39
  8
0
  6
CONTINUOUS
 66
     1
 10
0.0
 20
0.0
 30
0.0
 70
     8
  0
VERTEX
  5
3E29
  8
0
  6
CONTINUOUS
 10
51.109378289916592
 20
59.540711644170521
 30
0.0
 70
    32
1001
ACAD
1000
R13OBJECT
1002
{
1005
3D39
1002
}
  0
VERTEX
  5
3E2A
  8
0
  6
CONTINUOUS
 10
51.427823538986509
 20
59.884094665571361
 30
0.0
 70
    32
1001
ACAD
1000
R13OBJECT
1002
{
1005
3D39
1002
}
  0
VERTEX
  5
3E2B
  8
0
  6
CONTINUOUS
 10
51.543508289003199
 20
60.337887022968573
 30
0.0
 70
    32
1001
ACAD
1000
R13OBJECT
1002
{
1005
3D39
1002
}
  0
SEQEND
  5
3E2C
  8
0
  6
CONTINUOUS
  0
POLYLINE
  5
3D3A
  8
0
  6
CONTINUOUS
 66
     1
 10
0.0
 20
0.0
 30
0.0
 70
     8
  0
VERTEX
  5
3E2D
  8
0
  6
CONTINUOUS
 10
51.017070039881162
 20
57.698237315573131
 30
0.0
 70
    32
1001
ACAD
1000
R13OBJECT
1002
{
1005
3D3A
1002
}
  0
VERTEX
  5
3E2E
  8
0
  6
CONTINUOUS
 10
51.048347828813988
 20
57.590742740055717
 30
0.0
 70
    32
1001
ACAD
1000
R13OBJECT
1002
{
1005
3D3A
1002
}
  0
VERTEX
  5
3E2F
  8
0
  6
CONTINUOUS
 10
51.132496991397922
 20
57.516898897010243
 30
0.0
 70
    32
1001
ACAD
1000
R13OBJECT
1002
{
1005
3D3A
1002
}
  0
VERTEX
  5
3E30
  8
0
  6
CONTINUOUS
 10
51.243148252904902
 20
57.499845750334757
 30
0.0
 70
    32
1001
ACAD
1000
R13OBJECT
1002
{
1005
3D3A
1002
}
  0
VERTEX
  5
3E31
  8
0
  6
CONTINUOUS
 10
51.345627548565972
 20
57.5449271334776
 30
0.0
 70
    32
1001
ACAD
1000
R13OBJECT
1002
{
1005
3D3A
1002
}
  0
SEQEND
  5
3E32
  8
0
  6
CONTINUOUS
  0
POLYLINE
  5
3D3B
  8
0
  6
CONTINUOUS
 66
     1
 10
0.0
 20
0.0
 30
0.0
 70
     8
  0
VERTEX
  5
3E33
  8
0
  6
CONTINUOUS
 10
51.332095451239603
 20
56.489299308734239
 30
0.0
 70
    32
1001
ACAD
1000
R13OBJECT
1002
{
1005
3D3B
1002
}
  0
VERTEX
  5
3E34
  8
0
  6
CONTINUOUS
 10
51.261419597958273
 20
56.353591879499021
 30
0.0
 70
    32
1001
ACAD
1000
R13OBJECT
1002
{
1005
3D3B
1002
}
  0
VERTEX
  5
3E35
  8
0
  6
CONTINUOUS
 10
51.307362135045068
 20
56.20764470701679
 30
0.0
 70
    32
1001
ACAD
1000
R13OBJECT
1002
{
1005
3D3B
1002
}
  0
SEQEND
  5
3E36
  8
0
  6
CONTINUOUS
  0
POLYLINE
  5
3D3C
  8
0
  6
CONTINUOUS
 66
     1
 10
0.0
 20
0.0
 30
0.0
 70
     8
  0
VERTEX
  5
3E37
  8
0
  6
CONTINUOUS
 10
50.739989830483509
 20
53.88008438762958
 30
0.0
 70
    32
1001
ACAD
1000
R13OBJECT
1002
{
1005
3D3C
1002
}
  0
VERTEX
  5
3E38
  8
0
  6
CONTINUOUS
 10
50.793586611386289
 20
53.680096247162503
 30
0.0
 70
    32
1001
ACAD
1000
R13OBJECT
1002
{
1005
3D3C
1002
}
  0
VERTEX
  5
3E39
  8
0
  6
CONTINUOUS
 10
50.940001860396158
 20
53.533698486254387
 30
0.0
 70
    32
1001
ACAD
1000
R13OBJECT
1002
{
1005
3D3C
1002
}
  0
VERTEX
  5
3E3A
  8
0
  6
CONTINUOUS
 10
51.140003729781341
 20
53.480118266714328
 30
0.0
 70
    32
1001
ACAD
1000
R13OBJECT
1002
{
1005
3D3C
1002
}
  0
VERTEX
  5
3E3B
  8
0
  6
CONTINUOUS
 10
51.340001880155349
 20
53.533712365098339
 30
0.0
 70
    32
1001
ACAD
1000
R13OBJECT
1002
{
1005
3D3C
1002
}
  0
VERTEX
  5
3E3C
  8
0
  6
CONTINUOUS
 10
51.486406968637752
 20
53.68012028602535
 30
0.0
 70
    32
1001
ACAD
1000
R13OBJECT
1002
{
1005
3D3C
1002
}
  0
VERTEX
  5
3E3D
  8
0
  6
CONTINUOUS
 10
51.539989870001889
 20
53.880112145317469
 30
0.0
 70
    32
1001
ACAD
1000
R13OBJECT
1002
{
1005
3D3C
1002
}
  0
SEQEND
  5
3E3E
  8
0
  6
CONTINUOUS
  0
LINE
  5
3D3D
  8
0
 10
51.017982428479307
 20
59.37288511614139
 30
0.0
 11
51.01707003988119
 21
57.698237315573088
 31
0.0
  0
POLYLINE
  5
3D3E
  8
0
  6
CONTINUOUS
 66
     1
 10
0.0
 20
0.0
 30
0.0
 70
     8
  0
VERTEX
  5
3E3F
  8
0
  6
CONTINUOUS
 10
50.600164148203902
 20
60.162501065587691
 30
0.0
 70
    32
1001
ACAD
1000
R13OBJECT
1002
{
1005
3D3E
1002
}
  0
VERTEX
  5
3E40
  8
0
  6
CONTINUOUS
 10
50.341358228209323
 20
59.982419135705328
 30
0.0
 70
    32
1001
ACAD
1000
R13OBJECT
1002
{
1005
3D3E
1002
}
  0
VERTEX
  5
3E41
  8
0
  6
CONTINUOUS
 10
50.241781983836667
 20
59.683272240050059
 30
0.0
 70
    32
1001
ACAD
1000
R13OBJECT
1002
{
1005
3D3E
1002
}
  0
SEQEND
  5
3E42
  8
0
  6
CONTINUOUS
  0
POLYLINE
  5
3D3F
  8
0
  6
CONTINUOUS
 66
     1
 10
0.0
 20
0.0
 30
0.0
 70
     8
  0
VERTEX
  5
3E43
  8
0
  6
CONTINUOUS
 10
50.600164148205089
 20
60.162501065583861
 30
0.0
 70
    32
1001
ACAD
1000
R13OBJECT
1002
{
1005
3D3F
1002
}
  0
VERTEX
  5
3E44
  8
0
  6
CONTINUOUS
 10
50.7036865162029
 20
60.234533837536823
 30
0.0
 70
    32
1001
ACAD
1000
R13OBJECT
1002
{
1005
3D3F
1002
}
  0
VERTEX
  5
3E45
  8
0
  6
CONTINUOUS
 10
50.743517013951937
 20
60.354192595798928
 30
0.0
 70
    32
1001
ACAD
1000
R13OBJECT
1002
{
1005
3D3F
1002
}
  0
SEQEND
  5
3E46
  8
0
  6
CONTINUOUS
  0
POLYLINE
  5
3D40
  8
0
  6
CONTINUOUS
 66
     1
 10
0.0
 20
0.0
 30
0.0
 70
     8
  0
VERTEX
  5
3E47
  8
0
  6
CONTINUOUS
 10
51.10937828991527
 20
59.540711644172433
 30
0.0
 70
    32
1001
ACAD
1000
R13OBJECT
1002
{
1005
3D40
1002
}
  0
VERTEX
  5
3E48
  8
0
  6
CONTINUOUS
 10
51.042337131920711
 20
59.468420424700227
 30
0.0
 70
    32
1001
ACAD
1000
R13OBJECT
1002
{
1005
3D40
1002
}
  0
VERTEX
  5
3E49
  8
0
  6
CONTINUOUS
 10
51.017982428479279
 20
59.372885116141362
 30
0.0
 70
    32
1001
ACAD
1000
R13OBJECT
1002
{
1005
3D40
1002
}
  0
SEQEND
  5
3E4A
  8
0
  6
CONTINUOUS
  0
LINE
  5
3D41
  8
0
 10
50.744226491570352
 20
61.65640651622698
 30
0.0
 11
50.743517013951902
 21
60.35419259579902
 31
0.0
  0
POLYLINE
  5
3D42
  8
0
  6
CONTINUOUS
 66
     1
 10
0.0
 20
0.0
 30
0.0
 70
     8
  0
VERTEX
  5
3E4B
  8
0
  6
CONTINUOUS
 10
50.239904227319201
 20
56.236735502756368
 30
0.0
 70
    32
1001
ACAD
1000
R13OBJECT
1002
{
1005
3D42
1002
}
  0
VERTEX
  5
3E4C
  8
0
  6
CONTINUOUS
 10
50.339154447761331
 20
55.937480292480217
 30
0.0
 70
    32
1001
ACAD
1000
R13OBJECT
1002
{
1005
3D42
1002
}
  0
VERTEX
  5
3E4D
  8
0
  6
CONTINUOUS
 10
50.597763988209643
 20
55.75711649036667
 30
0.0
 70
    32
1001
ACAD
1000
R13OBJECT
1002
{
1005
3D42
1002
}
  0
SEQEND
  5
3E4E
  8
0
  6
CONTINUOUS
  0
LINE
  5
3D43
  8
0
 10
50.739930664618747
 20
55.585123953176769
 30
0.0
 11
50.739989830483438
 21
53.880084387629552
 31
0.0
  0
POLYLINE
  5
3D44
  8
0
  6
CONTINUOUS
 66
     1
 10
0.0
 20
0.0
 30
0.0
 70
     8
  0
VERTEX
  5
3E4F
  8
0
  6
CONTINUOUS
 10
50.739930664618768
 20
55.585123952999488
 30
0.0
 70
    32
1001
ACAD
1000
R13OBJECT
1002
{
1005
3D44
1002
}
  0
VERTEX
  5
3E50
  8
0
  6
CONTINUOUS
 10
50.695065598580747
 20
55.692789717187473
 30
0.0
 70
    32
1001
ACAD
1000
R13OBJECT
1002
{
1005
3D44
1002
}
  0
VERTEX
  5
3E51
  8
0
  6
CONTINUOUS
 10
50.59776398820955
 20
55.757116490366549
 30
0.0
 70
    32
1001
ACAD
1000
R13OBJECT
1002
{
1005
3D44
1002
}
  0
SEQEND
  5
3E52
  8
0
  6
CONTINUOUS
  0
LINE
  5
3D45
  8
0
 10
50.241781983836717
 20
59.68327224005008
 30
0.0
 11
50.239904227319208
 21
56.236735502756339
 31
0.0
  0
POLYLINE
  5
3D46
  8
0
  6
CONTINUOUS
 66
     1
 10
0.0
 20
0.0
 30
0.0
 70
     8
  0
VERTEX
  5
3E53
  8
0
  6
CONTINUOUS
 10
56.144226880280172
 20
61.655970700562108
 30
0.0
 70
    32
1001
ACAD
1000
R13OBJECT
1002
{
1005
3D46
1002
}
  0
VERTEX
  5
3E54
  8
0
  6
CONTINUOUS
 10
56.08560727611858
 20
61.797317005039353
 30
0.0
 70
    32
1001
ACAD
1000
R13OBJECT
1002
{
1005
3D46
1002
}
  0
VERTEX
  5
3E55
  8
0
  6
CONTINUOUS
 10
55.944219946960771
 20
61.855851746525083
 30
0.0
 70
    32
1001
ACAD
1000
R13OBJECT
1002
{
1005
3D46
1002
}
  0
SEQEND
  5
3E56
  8
0
  6
CONTINUOUS
  0
LINE
  5
3D47
  8
0
 10
56.670470864649729
 20
59.37288511614139
 30
0.0
 11
56.67138325324791
 21
57.698237315573088
 31
0.0
  0
POLYLINE
  5
3D48
  8
0
  6
CONTINUOUS
 66
     1
 10
0.0
 20
0.0
 30
0.0
 70
     8
  0
VERTEX
  5
3E57
  8
0
  6
CONTINUOUS
 10
57.446671309292363
 20
59.683272240050059
 30
0.0
 70
    32
1001
ACAD
1000
R13OBJECT
1002
{
1005
3D48
1002
}
  0
VERTEX
  5
3E58
  8
0
  6
CONTINUOUS
 10
57.379319189743121
 20
59.933618273184038
 30
0.0
 70
    32
1001
ACAD
1000
R13OBJECT
1002
{
1005
3D48
1002
}
  0
VERTEX
  5
3E59
  8
0
  6
CONTINUOUS
 10
57.195644142719502
 20
60.116582325070709
 30
0.0
 70
    32
1001
ACAD
1000
R13OBJECT
1002
{
1005
3D48
1002
}
  0
VERTEX
  5
3E5A
  8
0
  6
CONTINUOUS
 10
56.945029564209086
 20
60.18297215989891
 30
0.0
 70
    32
1001
ACAD
1000
R13OBJECT
1002
{
1005
3D48
1002
}
  0
SEQEND
  5
3E5B
  8
0
  6
CONTINUOUS
  0
POLYLINE
  5
3D49
  8
0
  6
CONTINUOUS
 66
     1
 10
0.0
 20
0.0
 30
0.0
 70
     8
  0
VERTEX
  5
3E5C
  8
0
  6
CONTINUOUS
 10
56.94493627917717
 20
60.354192595798928
 30
0.0
 70
    32
1001
ACAD
1000
R13OBJECT
1002
{
1005
3D49
1002
}
  0
VERTEX
  5
3E5D
  8
0
  6
CONTINUOUS
 10
56.984766776926207
 20
60.23453383753683
 30
0.0
 70
    32
1001
ACAD
1000
R13OBJECT
1002
{
1005
3D49
1002
}
  0
VERTEX
  5
3E5E
  8
0
  6
CONTINUOUS
 10
57.088289144923998
 20
60.162501065583882
 30
0.0
 70
    32
1001
ACAD
1000
R13OBJECT
1002
{
1005
3D49
1002
}
  0
SEQEND
  5
3E5F
  8
0
  6
CONTINUOUS
  0
LINE
  5
3D4A
  8
0
 10
56.3428257445631
 20
57.544927133477579
 30
0.0
 11
55.451773818669629
 21
58.2925710544053
 31
0.0
  0
POLYLINE
  5
3D4B
  8
0
  6
CONTINUOUS
 66
     1
 10
0.0
 20
0.0
 30
0.0
 70
     8
  0
VERTEX
  5
3E60
  8
0
  6
CONTINUOUS
 10
56.14494500412583
 20
60.337887022968573
 30
0.0
 70
    32
1001
ACAD
1000
R13OBJECT
1002
{
1005
3D4B
1002
}
  0
VERTEX
  5
3E61
  8
0
  6
CONTINUOUS
 10
56.260629754142528
 20
59.884094665571347
 30
0.0
 70
    32
1001
ACAD
1000
R13OBJECT
1002
{
1005
3D4B
1002
}
  0
VERTEX
  5
3E62
  8
0
  6
CONTINUOUS
 10
56.579075003212473
 20
59.540711644170507
 30
0.0
 70
    32
1001
ACAD
1000
R13OBJECT
1002
{
1005
3D4B
1002
}
  0
SEQEND
  5
3E63
  8
0
  6
CONTINUOUS
  0
POLYLINE
  5
3D4C
  8
0
  6
CONTINUOUS
 66
     1
 10
0.0
 20
0.0
 30
0.0
 70
     8
  0
VERTEX
  5
3E64
  8
0
  6
CONTINUOUS
 10
55.45177381866965
 20
58.292571054405279
 30
0.0
 70
    32
1001
ACAD
1000
R13OBJECT
1002
{
1005
3D4C
1002
}
  0
VERTEX
  5
3E65
  8
0
  6
CONTINUOUS
 10
55.217204090931347
 20
58.401947240269159
 30
0.0
 70
    32
1001
ACAD
1000
R13OBJECT
1002
{
1005
3D4C
1002
}
  0
VERTEX
  5
3E66
  8
0
  6
CONTINUOUS
 10
54.959369917543327
 20
58.37939080203433
 30
0.0
 70
    32
1001
ACAD
1000
R13OBJECT
1002
{
1005
3D4C
1002
}
  0
VERTEX
  5
3E67
  8
0
  6
CONTINUOUS
 10
54.747357757046053
 20
58.230945719109918
 30
0.0
 70
    32
1001
ACAD
1000
R13OBJECT
1002
{
1005
3D4C
1002
}
  0
SEQEND
  5
3E68
  8
0
  6
CONTINUOUS
  0
LINE
  5
3D4D
  8
0
 10
54.683078992863472
 20
58.154345105020212
 30
0.0
 11
54.747357757046053
 21
58.23094571910989
 31
0.0
  0
POLYLINE
  5
3D4E
  8
0
  6
CONTINUOUS
 66
     1
 10
0.0
 20
0.0
 30
0.0
 70
     8
  0
VERTEX
  5
3E69
  8
0
  6
CONTINUOUS
 10
54.683078992863507
 20
58.154345105020283
 30
0.0
 70
    32
1001
ACAD
1000
R13OBJECT
1002
{
1005
3D4E
1002
}
  0
VERTEX
  5
3E6A
  8
0
  6
CONTINUOUS
 10
54.639326328697202
 20
58.060521910010657
 30
0.0
 70
    32
1001
ACAD
1000
R13OBJECT
1002
{
1005
3D4E
1002
}
  0
VERTEX
  5
3E6B
  8
0
  6
CONTINUOUS
 10
54.648349355593609
 20
57.95739340249532
 30
0.0
 70
    32
1001
ACAD
1000
R13OBJECT
1002
{
1005
3D4E
1002
}
  0
VERTEX
  5
3E6C
  8
0
  6
CONTINUOUS
 10
54.707730360782548
 20
57.87259278277962
 30
0.0
 70
    32
1001
ACAD
1000
R13OBJECT
1002
{
1005
3D4E
1002
}
  0
SEQEND
  5
3E6D
  8
0
  6
CONTINUOUS
  0
POLYLINE
  5
3D4F
  8
0
  6
CONTINUOUS
 66
     1
 10
0.0
 20
0.0
 30
0.0
 70
     8
  0
VERTEX
  5
3E6E
  8
0
  6
CONTINUOUS
 10
56.342825744563036
 20
57.544927133477621
 30
0.0
 70
    32
1001
ACAD
1000
R13OBJECT
1002
{
1005
3D4F
1002
}
  0
VERTEX
  5
3E6F
  8
0
  6
CONTINUOUS
 10
56.445305040224099
 20
57.499845750334771
 30
0.0
 70
    32
1001
ACAD
1000
R13OBJECT
1002
{
1005
3D4F
1002
}
  0
VERTEX
  5
3E70
  8
0
  6
CONTINUOUS
 10
56.555956301731101
 20
57.516898897010243
 30
0.0
 70
    32
1001
ACAD
1000
R13OBJECT
1002
{
1005
3D4F
1002
}
  0
VERTEX
  5
3E71
  8
0
  6
CONTINUOUS
 10
56.640105464315049
 20
57.590742740055731
 30
0.0
 70
    32
1001
ACAD
1000
R13OBJECT
1002
{
1005
3D4F
1002
}
  0
VERTEX
  5
3E72
  8
0
  6
CONTINUOUS
 10
56.671383253247882
 20
57.698237315573152
 30
0.0
 70
    32
1001
ACAD
1000
R13OBJECT
1002
{
1005
3D4F
1002
}
  0
SEQEND
  5
3E73
  8
0
  6
CONTINUOUS
  0
POLYLINE
  5
3D50
  8
0
  6
CONTINUOUS
 66
     1
 10
0.0
 20
0.0
 30
0.0
 70
     8
  0
VERTEX
  5
3E74
  8
0
  6
CONTINUOUS
 10
56.670470864649822
 20
59.372885116141362
 30
0.0
 70
    32
1001
ACAD
1000
R13OBJECT
1002
{
1005
3D50
1002
}
  0
VERTEX
  5
3E75
  8
0
  6
CONTINUOUS
 10
56.646116161208383
 20
59.468420424700213
 30
0.0
 70
    32
1001
ACAD
1000
R13OBJECT
1002
{
1005
3D50
1002
}
  0
VERTEX
  5
3E76
  8
0
  6
CONTINUOUS
 10
56.579075003213838
 20
59.54071164417239
 30
0.0
 70
    32
1001
ACAD
1000
R13OBJECT
1002
{
1005
3D50
1002
}
  0
SEQEND
  5
3E77
  8
0
  6
CONTINUOUS
  0
LINE
  5
3D51
  8
0
 10
56.144226880280108
 20
61.655970700562143
 30
0.0
 11
56.144945004125901
 21
60.337887022968602
 31
0.0
  0
LINE
  5
3D52
  8
0
 10
56.944226801558749
 20
61.65640651622698
 30
0.0
 11
56.944936279177199
 21
60.354192595798928
 31
0.0
  0
POLYLINE
  5
3D53
  8
0
  6
CONTINUOUS
 66
     1
 10
0.0
 20
0.0
 30
0.0
 70
     8
  0
VERTEX
  5
3E78
  8
0
  6
CONTINUOUS
 10
51.744219453399211
 20
61.855851746525531
 30
0.0
 70
    32
1001
ACAD
1000
R13OBJECT
1002
{
1005
3D53
1002
}
  0
VERTEX
  5
3E79
  8
0
  6
CONTINUOUS
 10
51.602841103836987
 20
61.797312094787749
 30
0.0
 70
    32
1001
ACAD
1000
R13OBJECT
1002
{
1005
3D53
1002
}
  0
VERTEX
  5
3E7A
  8
0
  6
CONTINUOUS
 10
51.544226412848893
 20
61.655970700562108
 30
0.0
 70
    32
1001
ACAD
1000
R13OBJECT
1002
{
1005
3D53
1002
}
  0
SEQEND
  5
3E7B
  8
0
  6
CONTINUOUS
  0
LINE
  5
3D54
  8
0
 10
51.345627548566
 20
57.544927133477579
 30
0.0
 11
52.236679474459407
 21
58.2925710544053
 31
0.0
  0
POLYLINE
  5
3D55
  8
0
  6
CONTINUOUS
 66
     1
 10
0.0
 20
0.0
 30
0.0
 70
     8
  0
VERTEX
  5
3E7C
  8
0
  6
CONTINUOUS
 10
52.941095536083083
 20
58.230945719109819
 30
0.0
 70
    32
1001
ACAD
1000
R13OBJECT
1002
{
1005
3D55
1002
}
  0
VERTEX
  5
3E7D
  8
0
  6
CONTINUOUS
 10
52.72908337558583
 20
58.379390802034301
 30
0.0
 70
    32
1001
ACAD
1000
R13OBJECT
1002
{
1005
3D55
1002
}
  0
VERTEX
  5
3E7E
  8
0
  6
CONTINUOUS
 10
52.471249202197797
 20
58.40194724026918
 30
0.0
 70
    32
1001
ACAD
1000
R13OBJECT
1002
{
1005
3D55
1002
}
  0
VERTEX
  5
3E7F
  8
0
  6
CONTINUOUS
 10
52.236679474459478
 20
58.292571054405343
 30
0.0
 70
    32
1001
ACAD
1000
R13OBJECT
1002
{
1005
3D55
1002
}
  0
SEQEND
  5
3E80
  8
0
  6
CONTINUOUS
  0
POLYLINE
  5
3D56
  8
0
  6
CONTINUOUS
 66
     1
 10
0.0
 20
0.0
 30
0.0
 70
     8
  0
VERTEX
  5
3E81
  8
0
  6
CONTINUOUS
 10
52.980722932346602
 20
57.872592782779627
 30
0.0
 70
    32
1001
ACAD
1000
R13OBJECT
1002
{
1005
3D56
1002
}
  0
VERTEX
  5
3E82
  8
0
  6
CONTINUOUS
 10
53.051404353561679
 20
58.008363733966902
 30
0.0
 70
    32
1001
ACAD
1000
R13OBJECT
1002
{
1005
3D56
1002
}
  0
VERTEX
  5
3E83
  8
0
  6
CONTINUOUS
 10
53.005374300265622
 20
58.154345105020212
 30
0.0
 70
    32
1001
ACAD
1000
R13OBJECT
1002
{
1005
3D56
1002
}
  0
SEQEND
  5
3E84
  8
0
  6
CONTINUOUS
  0
LINE
  5
3D57
  8
0
 10
53.005374300265629
 20
58.154345105020212
 30
0.0
 11
52.941095536082997
 21
58.23094571910989
 31
0.0
  0
LINE
  5
3D58
  8
0
 10
51.544226412848928
 20
61.655970700562143
 30
0.0
 11
51.543508289003142
 21
60.337887022968602
 31
0.0
  0
LINE
  5
3D59
  8
0
 10
55.944219946960771
 20
61.855851746525559
 30
0.0
 11
51.744219454978662
 21
61.855851746525559
 31
0.0
  0
POLYLINE
  5
3D5A
  8
0
  6
CONTINUOUS
 66
     1
 10
0.0
 20
0.0
 30
0.0
 70
     8
  0
VERTEX
  5
3E85
  8
0
  6
CONTINUOUS
 10
57.090689304919792
 20
55.757116490366769
 30
0.0
 70
    32
1001
ACAD
1000
R13OBJECT
1002
{
1005
3D5A
1002
}
  0
VERTEX
  5
3E86
  8
0
  6
CONTINUOUS
 10
57.349298845367812
 20
55.937480292480373
 30
0.0
 70
    32
1001
ACAD
1000
R13OBJECT
1002
{
1005
3D5A
1002
}
  0
VERTEX
  5
3E87
  8
0
  6
CONTINUOUS
 10
57.44854906580985
 20
56.236735502756339
 30
0.0
 70
    32
1001
ACAD
1000
R13OBJECT
1002
{
1005
3D5A
1002
}
  0
SEQEND
  5
3E88
  8
0
  6
CONTINUOUS
  0
LINE
  5
3D5B
  8
0
 10
56.948522628510283
 20
55.585123952999652
 30
0.0
 11
56.948463462645613
 21
53.880084387629552
 31
0.0
  0
POLYLINE
  5
3D5C
  8
0
  6
CONTINUOUS
 66
     1
 10
0.0
 20
0.0
 30
0.0
 70
     8
  0
VERTEX
  5
3E89
  8
0
  6
CONTINUOUS
 10
57.09068930491943
 20
55.757116490366542
 30
0.0
 70
    32
1001
ACAD
1000
R13OBJECT
1002
{
1005
3D5C
1002
}
  0
VERTEX
  5
3E8A
  8
0
  6
CONTINUOUS
 10
56.993387694548261
 20
55.692789717187459
 30
0.0
 70
    32
1001
ACAD
1000
R13OBJECT
1002
{
1005
3D5C
1002
}
  0
VERTEX
  5
3E8B
  8
0
  6
CONTINUOUS
 10
56.948522628510268
 20
55.585123952999481
 30
0.0
 70
    32
1001
ACAD
1000
R13OBJECT
1002
{
1005
3D5C
1002
}
  0
SEQEND
  5
3E8C
  8
0
  6
CONTINUOUS
  0
POLYLINE
  5
3D5D
  8
0
  6
CONTINUOUS
 66
     1
 10
0.0
 20
0.0
 30
0.0
 70
     8
  0
VERTEX
  5
3E8D
  8
0
  6
CONTINUOUS
 10
56.381091158084189
 20
56.207644707016769
 30
0.0
 70
    32
1001
ACAD
1000
R13OBJECT
1002
{
1005
3D5D
1002
}
  0
VERTEX
  5
3E8E
  8
0
  6
CONTINUOUS
 10
56.207650660752833
 20
55.906825264127299
 30
0.0
 70
    32
1001
ACAD
1000
R13OBJECT
1002
{
1005
3D5D
1002
}
  0
VERTEX
  5
3E8F
  8
0
  6
CONTINUOUS
 10
56.147545479284787
 20
55.56483306974593
 30
0.0
 70
    32
1001
ACAD
1000
R13OBJECT
1002
{
1005
3D5D
1002
}
  0
SEQEND
  5
3E90
  8
0
  6
CONTINUOUS
  0
LINE
  5
3D5E
  8
0
 10
56.147545479284787
 20
55.564833069745902
 30
0.0
 11
56.148463482247251
 21
53.879880358641088
 31
0.0
  0
POLYLINE
  5
3D5F
  8
0
  6
CONTINUOUS
 66
     1
 10
0.0
 20
0.0
 30
0.0
 70
     8
  0
VERTEX
  5
3E91
  8
0
  6
CONTINUOUS
 10
56.381091158084047
 20
56.207644707016861
 30
0.0
 70
    32
1001
ACAD
1000
R13OBJECT
1002
{
1005
3D5F
1002
}
  0
VERTEX
  5
3E92
  8
0
  6
CONTINUOUS
 10
56.42703369517077
 20
56.353591879499078
 30
0.0
 70
    32
1001
ACAD
1000
R13OBJECT
1002
{
1005
3D5F
1002
}
  0
VERTEX
  5
3E93
  8
0
  6
CONTINUOUS
 10
56.35635784188942
 20
56.489299308734253
 30
0.0
 70
    32
1001
ACAD
1000
R13OBJECT
1002
{
1005
3D5F
1002
}
  0
SEQEND
  5
3E94
  8
0
  6
CONTINUOUS
  0
POLYLINE
  5
3D60
  8
0
  6
CONTINUOUS
 66
     1
 10
0.0
 20
0.0
 30
0.0
 70
     8
  0
VERTEX
  5
3E95
  8
0
  6
CONTINUOUS
 10
56.148463423127147
 20
53.880112145317497
 30
0.0
 70
    32
1001
ACAD
1000
R13OBJECT
1002
{
1005
3D60
1002
}
  0
VERTEX
  5
3E96
  8
0
  6
CONTINUOUS
 10
56.202046324491299
 20
53.680120286025392
 30
0.0
 70
    32
1001
ACAD
1000
R13OBJECT
1002
{
1005
3D60
1002
}
  0
VERTEX
  5
3E97
  8
0
  6
CONTINUOUS
 10
56.348451412973724
 20
53.533712365098353
 30
0.0
 70
    32
1001
ACAD
1000
R13OBJECT
1002
{
1005
3D60
1002
}
  0
VERTEX
  5
3E98
  8
0
  6
CONTINUOUS
 10
56.548449563347717
 20
53.480118266714328
 30
0.0
 70
    32
1001
ACAD
1000
R13OBJECT
1002
{
1005
3D60
1002
}
  0
VERTEX
  5
3E99
  8
0
  6
CONTINUOUS
 10
56.748451432732899
 20
53.53369848625438
 30
0.0
 70
    32
1001
ACAD
1000
R13OBJECT
1002
{
1005
3D60
1002
}
  0
VERTEX
  5
3E9A
  8
0
  6
CONTINUOUS
 10
56.894866681742769
 20
53.680096247162467
 30
0.0
 70
    32
1001
ACAD
1000
R13OBJECT
1002
{
1005
3D60
1002
}
  0
VERTEX
  5
3E9B
  8
0
  6
CONTINUOUS
 10
56.948463462645527
 20
53.880084387629552
 30
0.0
 70
    32
1001
ACAD
1000
R13OBJECT
1002
{
1005
3D60
1002
}
  0
SEQEND
  5
3E9C
  8
0
  6
CONTINUOUS
  0
POLYLINE
  5
3D61
  8
0
  6
CONTINUOUS
 66
     1
 10
0.0
 20
0.0
 30
0.0
 70
     8
  0
VERTEX
  5
3E9D
  8
0
  6
CONTINUOUS
 10
51.540907813844257
 20
55.56483306974593
 30
0.0
 70
    32
1001
ACAD
1000
R13OBJECT
1002
{
1005
3D61
1002
}
  0
VERTEX
  5
3E9E
  8
0
  6
CONTINUOUS
 10
51.480802632376168
 20
55.906825264127342
 30
0.0
 70
    32
1001
ACAD
1000
R13OBJECT
1002
{
1005
3D61
1002
}
  0
VERTEX
  5
3E9F
  8
0
  6
CONTINUOUS
 10
51.307362135044762
 20
56.207644707016833
 30
0.0
 70
    32
1001
ACAD
1000
R13OBJECT
1002
{
1005
3D61
1002
}
  0
SEQEND
  5
3EA0
  8
0
  6
CONTINUOUS
  0
LINE
  5
3D62
  8
0
 10
51.54090781384425
 20
55.564833069745902
 30
0.0
 11
51.539989810881849
 21
53.879880358641088
 31
0.0
  0
LINE
  5
3D63
  8
0
 10
51.332095451239603
 20
56.489299308734211
 30
0.0
 11
52.980722932346531
 21
57.872592782779627
 31
0.0
  0
LINE
  5
3D64
  8
0
 10
56.356357841889427
 20
56.489299308734211
 30
0.0
 11
54.707730360782499
 21
57.872592782779627
 31
0.0
  0
LINE
  5
3D65
  8
0
 10
57.446671309292327
 20
59.68327224005008
 30
0.0
 11
57.448549065809821
 21
56.236735502756339
 31
0.0
  0
LINE
  5
3D66
  8
0
 10
55.944192199114553
 20
62.65581174604403
 30
0.0
 11
51.744261096016231
 21
62.65581174604403
 31
0.0
  0
LINE
  5
3D6F
  8
1
 10
53.844226647565392
 20
65.155811746044023
 30
0.0
 11
53.844226647565392
 21
50.941906198861169
 31
0.0
  0
LINE
  5
3DC9
  8
0
 10
74.190406844896927
 20
62.655811746646052
 30
0.0
 11
124.1904068448969
 21
62.655811746646023
 31
0.0
  0
LINE
  5
3DCA
  8
0
 10
74.190406844896927
 20
53.480118266473539
 30
0.0
 11
124.1904068448969
 21
53.480118266473539
 31
0.0
  0
LINE
  5
3DCB
  8
0
 10
74.190406844896913
 20
60.182972159898888
 30
0.0
 11
124.1904068448969
 21
60.18297215989891
 31
0.0
  0
LINE
  5
3DCC
  8
0
 10
74.190406844896927
 20
55.736488118416773
 30
0.0
 11
124.1904068448969
 21
55.736488118416773
 31
0.0
  0
LINE
  5
3DCD
  8
0
 10
74.190406844896927
 20
62.65581174664603
 30
0.0
 11
74.190406844896927
 21
53.480118266473539
 31
0.0
  0
LINE
  5
3DCF
  8
0
 10
124.1904068448969
 20
62.65581174664603
 30
0.0
 11
124.1904068448969
 21
53.480118266473539
 31
0.0
  0
LINE
  5
3E05
  8
0
 10
74.190406844896927
 20
89.82120013104182
 30
0.0
 11
74.190406844896927
 21
82.468442359851181
 31
0.0
  0
LINE
  5
3E06
  8
0
 10
124.1904068448969
 20
89.82120013104182
 30
0.0
 11
124.1904068448969
 21
82.468442359851181
 31
0.0
  0
LINE
  5
3E07
  8
1
 10
71.690406844896927
 20
86.144821245446494
 30
0.0
 11
126.6904068448969
 21
86.144821245446494
 31
0.0
  0
LINE
  5
3E08
  8
0
 10
74.190406844896941
 20
89.318755623308192
 30
0.0
 11
124.1904068448969
 21
89.318755623308178
 31
0.0
  0
LINE
  5
3E09
  8
0
 10
74.190406844896927
 20
89.82120013104182
 30
0.0
 11
124.1904068448969
 21
89.82120013104182
 31
0.0
  0
LINE
  5
3E0A
  8
0
 10
74.190406844896927
 20
82.468442359851196
 30
0.0
 11
124.1904068448969
 21
82.468442359851196
 31
0.0
  0
LINE
  5
3E0B
  8
0
 10
74.190406844896941
 20
82.970886867584824
 30
0.0
 11
124.1904068448969
 21
82.970886867584824
 31
0.0
  0
TEXT
  5
3FDC
  8
0
 62
     3
 10
0.0
 20
0.0
 30
0.0
 40
10.0
  1
L6-GVC2000B
  7
STANDARD1
  0
ENDSEC
  0
EOF
