  0
SECTION
  2
HEADER
  9
$ACADVER
  1
AC1009
  9
$INSBASE
 10
0.0
 20
0.0
 30
0.0
  9
$EXTMIN
 10
0.0
 20
-2.960436562073669
 30
0.0
  9
$EXTMAX
 10
245.60028819788749
 20
241.51415222325781
 30
0.0
  9
$LIMMIN
 10
0.0
 20
0.0
  9
$LIMMAX
 10
195.0
 20
135.0
  9
$ORTHOMODE
 70
     0
  9
$REGENMODE
 70
     1
  9
$FILLMODE
 70
     1
  9
$QTEXTMODE
 70
     0
  9
$MIRRTEXT
 70
     0
  9
$DRAGMODE
 70
     2
  9
$LTSCALE
 40
5.0
  9
$OSMODE
 70
  3071
  9
$ATTMODE
 70
     1
  9
$TEXTSIZE
 40
0.2
  9
$TRACEWID
 40
0.05
  9
$TEXTSTYLE
  7
KANJI104
  9
$CLAYER
  8
0
  9
$CELTYPE
  6
BYLAYER
  9
$CECOLOR
 62
   256
  9
$DIMSCALE
 40
0.5
  9
$DIMASZ
 40
3.0
  9
$DIMEXO
 40
2.0
  9
$DIMDLI
 40
0.38
  9
$DIMRND
 40
0.0
  9
$DIMDLE
 40
0.0
  9
$DIMEXE
 40
2.0
  9
$DIMTP
 40
0.0
  9
$DIMTM
 40
0.0
  9
$DIMTXT
 40
3.0
  9
$DIMCEN
 40
0.0
  9
$DIMTSZ
 40
0.0
  9
$DIMTOL
 70
     0
  9
$DIMLIM
 70
     0
  9
$DIMTIH
 70
     0
  9
$DIMTOH
 70
     0
  9
$DIMSE1
 70
     0
  9
$DIMSE2
 70
     0
  9
$DIMTAD
 70
     1
  9
$DIMZIN
 70
     0
  9
$DIMBLK
  1

  9
$DIMASO
 70
     0
  9
$DIMSHO
 70
     0
  9
$DIMPOST
  1

  9
$DIMAPOST
  1

  9
$DIMALT
 70
     0
  9
$DIMALTD
 70
     2
  9
$DIMALTF
 40
25.399999999999999
  9
$DIMLFAC
 40
1.0
  9
$DIMTOFL
 70
     1
  9
$DIMTVP
 40
0.0
  9
$DIMTIX
 70
     1
  9
$DIMSOXD
 70
     0
  9
$DIMSAH
 70
     0
  9
$DIMBLK1
  1

  9
$DIMBLK2
  1

  9
$DIMSTYLE
  2
STANDARD
  9
$DIMCLRD
 70
     0
  9
$DIMCLRE
 70
     0
  9
$DIMCLRT
 70
     0
  9
$DIMTFAC
 40
1.0
  9
$DIMGAP
 40
0.09
  9
$LUNITS
 70
     2
  9
$LUPREC
 70
     4
  9
$SKETCHINC
 40
0.1
  9
$FILLETRAD
 40
0.5
  9
$AUNITS
 70
     0
  9
$AUPREC
 70
     0
  9
$MENU
  1
E:\r13\win\SUPPORT\ACAD
  9
$ELEVATION
 40
0.0
  9
$PELEVATION
 40
0.0
  9
$THICKNESS
 40
0.0
  9
$LIMCHECK
 70
     0
  9
$BLIPMODE
 70
     0
  9
$CHAMFERA
 40
0.0
  9
$CHAMFERB
 40
0.0
  9
$SKPOLY
 70
     0
  9
$TDCREATE
 40
2449840.6489120368
  9
$TDUPDATE
 40
2456597.5620315978
  9
$TDINDWG
 40
0.0465810995
  9
$TDUSRTIMER
 40
0.0465810995
  9
$USRTIMER
 70
     1
  9
$ANGBASE
 50
0.0
  9
$ANGDIR
 70
     0
  9
$PDMODE
 70
     0
  9
$PDSIZE
 40
0.0
  9
$PLINEWID
 40
0.0
  9
$COORDS
 70
     1
  9
$SPLFRAME
 70
     0
  9
$SPLINETYPE
 70
     6
  9
$SPLINESEGS
 70
     8
  9
$ATTDIA
 70
     0
  9
$ATTREQ
 70
     1
  9
$HANDLING
 70
     1
  9
$HANDSEED
  5
69D
  9
$SURFTAB1
 70
     6
  9
$SURFTAB2
 70
     6
  9
$SURFTYPE
 70
     6
  9
$SURFU
 70
     6
  9
$SURFV
 70
     6
  9
$UCSNAME
  2

  9
$UCSORG
 10
0.0
 20
0.0
 30
0.0
  9
$UCSXDIR
 10
1.0
 20
0.0
 30
0.0
  9
$UCSYDIR
 10
0.0
 20
1.0
 30
0.0
  9
$PUCSNAME
  2

  9
$PUCSORG
 10
0.0
 20
0.0
 30
0.0
  9
$PUCSXDIR
 10
1.0
 20
0.0
 30
0.0
  9
$PUCSYDIR
 10
0.0
 20
1.0
 30
0.0
  9
$USERI1
 70
     3
  9
$USERI2
 70
     1
  9
$USERI3
 70
     1
  9
$USERI4
 70
     0
  9
$USERI5
 70
     0
  9
$USERR1
 40
0.5
  9
$USERR2
 40
3.0
  9
$USERR3
 40
3.0
  9
$USERR4
 40
3.0
  9
$USERR5
 40
10.0
  9
$WORLDVIEW
 70
     1
  9
$SHADEDGE
 70
     3
  9
$SHADEDIF
 70
    70
  9
$TILEMODE
 70
     1
  9
$MAXACTVP
 70
    16
  9
$PLIMCHECK
 70
     0
  9
$PEXTMIN
 10
1.0000000000000000E+020
 20
1.0000000000000000E+020
 30
1.0000000000000000E+020
  9
$PEXTMAX
 10
-1.0000000000000000E+020
 20
-1.0000000000000000E+020
 30
-1.0000000000000000E+020
  9
$PLIMMIN
 10
0.0
 20
0.0
  9
$PLIMMAX
 10
12.0
 20
9.0
  9
$UNITMODE
 70
     0
  9
$VISRETAIN
 70
     0
  9
$PLINEGEN
 70
     0
  9
$PSLTSCALE
 70
     0
  0
ENDSEC
  0
SECTION
  2
TABLES
  0
TABLE
  2
VPORT
 70
     1
  0
VPORT
  2
*ACTIVE
 70
     0
 10
0.0
 20
0.0
 11
1.0
 21
1.0
 12
122.8001446707764
 22
145.5607594015126
 13
0.0
 23
0.0
 14
5.0
 24
5.0
 15
5.0
 25
5.0
 16
0.0
 26
0.0
 36
1.0
 17
0.0
 27
0.0
 37
0.0
 40
299.87974526933749
 41
1.9089595375722539
 42
50.0
 43
0.0
 44
0.0
 50
0.0
 51
0.0
 71
     0
 72
   100
 73
     1
 74
     0
 75
     0
 76
     0
 77
     0
 78
     0
  0
ENDTAB
  0
TABLE
  2
LTYPE
 70
     3
  0
LTYPE
  2
CONTINUOUS
 70
     0
  3
Solid Line
 72
    65
 73
     0
 40
0.0
  0
LTYPE
  2
CENTER
 70
     0
  3
____ _ ____ _ ____ _ ____ _ ____ _ ____ _ ____
 72
    65
 73
     4
 40
2.0
 49
1.25
 49
-0.25
 49
0.25
 49
-0.25
  0
LTYPE
  2
PHANTOM2
 70
     0
  3
___ _ _ ___ _ _ ___ _ _ ___ _ _
 72
    65
 73
     6
 40
1.25
 49
0.625
 49
-0.125
 49
0.125
 49
-0.125
 49
0.125
 49
-0.125
  0
ENDTAB
  0
TABLE
  2
LAYER
 70
     3
  0
LAYER
  2
0
 70
     0
 62
     7
  6
CONTINUOUS
  0
LAYER
  2
1
 70
     0
 62
     1
  6
CENTER
  0
LAYER
  2
3
 70
     0
 62
     3
  6
CONTINUOUS
  0
ENDTAB
  0
TABLE
  2
STYLE
 70
     3
  0
STYLE
  2
STANDARD
 70
     0
 40
0.0
 41
1.0
 50
0.0
 71
     0
 42
5.0
  3
TXT
  4
BIGFONT
  0
STYLE
  2
KANJI104
 70
     0
 40
6.0
 41
0.7
 50
0.0
 71
     0
 42
0.2
  3
TXT
  4
BIGFONT
  0
STYLE
  2
STANDARD1
 70
     0
 40
0.0
 41
1.0
 50
0.0
 71
     0
 42
3.0
  3
txt
  4

  0
ENDTAB
  0
TABLE
  2
VIEW
 70
     1
  0
VIEW
  2
ALL
 70
     0
 40
175.0
 10
143.23529400000001
 20
87.5
 41
0.0
 11
0.0
 21
0.0
 31
1.0
 12
0.0
 22
0.0
 32
0.0
 42
0.0
 43
0.0
 44
0.0
 50
0.0
 71
     0
  0
ENDTAB
  0
TABLE
  2
UCS
 70
     0
  0
ENDTAB
  0
TABLE
  2
APPID
 70
     3
  0
APPID
  2
ACAD
 70
     0
  0
APPID
  2
ACAD_MLEADERVER
 70
     0
  0
APPID
  2
ACAD_NAV_VCDISPLAY
 70
     0
  0
ENDTAB
  0
TABLE
  2
DIMSTYLE
 70
     1
  0
DIMSTYLE
  2
STANDARD
 70
     0
  3

  4

  5

  6

  7

 40
1.0
 41
0.18
 42
0.0625
 43
0.38
 44
0.18
 45
0.0
 46
0.0
 47
0.0
 48
0.0
140
0.18
141
0.09
142
0.0
143
25.399999999999999
144
1.0
145
0.0
146
1.0
147
0.09
 71
     0
 72
     0
 73
     1
 74
     1
 75
     0
 76
     0
 77
     0
 78
     0
170
     0
171
     2
172
     0
173
     0
174
     0
175
     0
176
     0
177
     0
178
     0
  0
ENDTAB
  0
ENDSEC
  0
SECTION
  2
BLOCKS
  0
BLOCK
  8
0
  2
$MODEL_SPACE
 70
     0
 10
0.0
 20
0.0
 30
0.0
  3
$MODEL_SPACE
  1

  0
ENDBLK
  5
118
  8
0
  0
BLOCK
 67
     1
  8
0
  2
$PAPER_SPACE
 70
     0
 10
0.0
 20
0.0
 30
0.0
  3
$PAPER_SPACE
  1

  0
ENDBLK
  5
116
 67
     1
  8
0
  0
ENDSEC
  0
SECTION
  2
ENTITIES
  0
LINE
  5
512
  8
0
 10
140.50028819788739
 20
92.014152223257796
 30
0.0
 11
140.5002881978875
 21
42.014152223257767
 31
0.0
  0
LINE
  5
513
  8
0
 10
146.7002881978876
 20
92.014152223257796
 30
0.0
 11
146.70028819788769
 21
42.014152223257781
 31
0.0
  0
LINE
  5
514
  8
0
 10
86.400288197887278
 20
130.01415222325781
 30
0.0
 11
36.400288197887278
 21
130.01415222325781
 31
0.0
  0
LINE
  5
515
  8
0
 10
190.60028819788749
 20
130.01415222325781
 30
0.0
 11
240.60028819788749
 21
130.01415222325781
 31
0.0
  0
ARC
  5
516
  8
0
 10
140.80028819788751
 20
130.31415222325779
 30
0.0
 40
0.3
 50
180.00000000000421
 51
270.0000000000004
  0
ARC
  5
517
  8
0
 10
146.4002881978877
 20
130.31415222325779
 30
0.0
 40
0.3
 50
270.0000000000004
 51
0.0000000000042747
  0
LINE
  5
51A
  8
0
 10
147.20028819788749
 20
132.0141522232577
 30
0.0
 11
155.10028819788749
 21
132.01415222325781
 31
0.0
  0
LINE
  5
51B
  8
0
 10
140.50028819788739
 20
131.51415222325781
 30
0.0
 11
140.50028819788739
 21
130.31415222325771
 31
0.0
  0
LINE
  5
51C
  8
0
 10
146.70028819788749
 20
131.5141522232577
 30
0.0
 11
146.70028819788769
 21
130.31415222325779
 31
0.0
  0
LINE
  5
51D
  8
0
 10
140.80028819788751
 20
130.01415222325781
 30
0.0
 11
146.4002881978877
 21
130.01415222325781
 31
0.0
  0
CIRCLE
  5
51E
  8
0
 10
128.40028819788739
 20
139.51415222325781
 30
0.0
 40
4.0
  0
ARC
  5
51F
  8
0
 10
128.40028819788739
 20
139.51415222325781
 30
0.0
 40
7.0
 50
0.0
 51
270.0
  0
LINE
  5
520
  8
1
 10
128.40028819788739
 20
151.51415222325781
 30
0.0
 11
128.40028819788739
 21
127.5141522232578
 31
0.0
  0
LINE
  5
521
  8
1
 10
140.40028819788739
 20
139.51415222325781
 30
0.0
 11
116.40028819788741
 21
139.51415222325781
 31
0.0
  0
LINE
  5
522
  8
1
 10
143.60028819788749
 20
138.31415222325779
 30
0.0
 11
143.60028819788749
 21
127.5141522232578
 31
0.0
  0
LINE
  5
523
  8
0
 10
131.40028819788739
 20
132.01415222325781
 30
0.0
 11
140.00028819788739
 21
132.01415222325781
 31
0.0
  0
LINE
  5
524
  8
0
 10
155.60028819788749
 20
132.5141522232577
 30
0.0
 11
155.60028819788749
 21
135.31415222325779
 31
0.0
  0
LINE
  5
525
  8
0
 10
155.10028819788749
 20
135.81415222325779
 30
0.0
 11
135.90028819788739
 21
135.81415222325771
 31
0.0
  0
ARC
  5
526
  8
0
 10
155.10028819788749
 20
132.5141522232577
 30
0.0
 40
0.5
 50
270.0
 51
0.0
  0
ARC
  5
527
  8
0
 10
155.10028819788749
 20
135.31415222325779
 30
0.0
 40
0.5
 50
0.0
 51
90.0
  0
LINE
  5
529
  8
0
 10
128.40028819788739
 20
132.5141522232577
 30
0.0
 11
131.40028819788739
 21
132.01415222325781
 31
0.0
  0
LINE
  5
52A
  8
0
 10
155.60028819788741
 20
186.5141522232577
 30
0.0
 11
155.60028819788741
 21
236.51415222325781
 31
0.0
  0
LINE
  5
52B
  8
0
 10
135.40028819788739
 20
186.51415222325781
 30
0.0
 11
135.40028819788739
 21
236.51415222325781
 31
0.0
  0
LINE
  5
52C
  8
0
 10
121.40028819788741
 20
186.51415222325781
 30
0.0
 11
121.40028819788741
 21
236.51415222325781
 31
0.0
  0
LINE
  5
52D
  8
0
 10
121.40028819788741
 20
186.51415222325781
 30
0.0
 11
155.60028819788741
 21
186.5141522232577
 31
0.0
  0
LINE
  5
52E
  8
1
 10
128.40028819788739
 20
241.51415222325781
 30
0.0
 11
128.40028819788739
 21
181.5141522232577
 31
0.0
  0
LINE
  5
52F
  8
0
 10
121.40028819788751
 20
236.51415222325781
 30
0.0
 11
155.60028819788749
 21
236.51415222325781
 31
0.0
  0
LINE
  5
530
  8
0
 10
190.60028819788749
 20
132.01415222325781
 30
0.0
 11
240.60028819788749
 21
132.01415222325781
 31
0.0
  0
LINE
  5
531
  8
0
 10
190.60028819788749
 20
146.51415222325781
 30
0.0
 11
240.60028819788749
 21
146.51415222325781
 31
0.0
  0
LINE
  5
532
  8
0
 10
190.60028819788749
 20
135.81415222325779
 30
0.0
 11
240.60028819788741
 21
135.81415222325779
 31
0.0
  0
LINE
  5
533
  8
0
 10
190.60028819788749
 20
146.51415222325781
 30
0.0
 11
190.60028819788749
 21
130.01415222325781
 31
0.0
  0
LINE
  5
534
  8
0
 10
240.60028819788749
 20
146.51415222325761
 30
0.0
 11
240.60028819788761
 21
130.01415222325781
 31
0.0
  0
LINE
  5
535
  8
1
 10
185.60028819788749
 20
139.51415222325781
 30
0.0
 11
245.60028819788749
 21
139.51415222325781
 31
0.0
  0
LINE
  5
536
  8
1
 10
91.400288197887278
 20
139.51415222325781
 30
0.0
 11
31.400288197887281
 21
139.51415222325781
 31
0.0
  0
LINE
  5
537
  8
0
 10
36.400288197887278
 20
146.51415222325761
 30
0.0
 11
36.400288197887342
 21
130.01415222325781
 31
0.0
  0
LINE
  5
538
  8
0
 10
86.400288197887278
 20
146.51415222325781
 30
0.0
 11
86.400288197887278
 21
130.01415222325781
 31
0.0
  0
LINE
  5
539
  8
0
 10
86.400288197887278
 20
146.51415222325781
 30
0.0
 11
36.400288197887278
 21
146.51415222325781
 31
0.0
  0
LINE
  5
53A
  8
0
 10
86.400288197887278
 20
132.01415222325781
 30
0.0
 11
36.400288197887278
 21
132.01415222325781
 31
0.0
  0
LINE
  5
53B
  8
0
 10
121.40028819788751
 20
42.014152223257753
 30
0.0
 11
155.60028819788749
 21
42.014152223257781
 31
0.0
  0
LINE
  5
53C
  8
1
 10
128.40028819788739
 20
37.014152223257753
 30
0.0
 11
128.40028819788739
 21
97.014152223257781
 31
0.0
  0
LINE
  5
53D
  8
0
 10
121.40028819788741
 20
92.014152223257781
 30
0.0
 11
155.60028819788741
 21
92.01415222325781
 31
0.0
  0
LINE
  5
53E
  8
0
 10
121.40028819788741
 20
92.014152223257781
 30
0.0
 11
121.40028819788741
 21
42.014152223257717
 31
0.0
  0
LINE
  5
53F
  8
0
 10
155.60028819788741
 20
92.01415222325781
 30
0.0
 11
155.60028819788741
 21
42.014152223257753
 31
0.0
  0
LINE
  5
540
  8
1
 10
143.60028819788749
 20
241.51415222325781
 30
0.0
 11
143.60028819788749
 21
181.5141522232577
 31
0.0
  0
LINE
  5
541
  8
1
 10
143.60028819788761
 20
97.014152223257781
 30
0.0
 11
143.60028819788761
 21
37.014152223257781
 31
0.0
  0
LINE
  5
542
  8
3
 10
143.60028819788761
 20
42.014152223257781
 30
0.0
 11
143.60028819788761
 21
92.01415222325781
 31
0.0
  0
LINE
  5
553
  8
0
 10
135.40028819788739
 20
139.51415222325781
 30
0.0
 11
135.40028819788739
 21
136.31415222325771
 31
0.0
  0
ARC
  5
554
  8
0
 10
135.90028819788739
 20
136.31415222325771
 30
0.0
 40
0.5
 50
180.0
 51
270.00000000000011
  0
ARC
  5
55B
  8
0
 10
147.20028819788749
 20
131.5141522232577
 30
0.0
 40
0.5
 50
90.0
 51
180.00000000000691
  0
ARC
  5
55C
  8
0
 10
140.00028819788739
 20
131.5141522232577
 30
0.0
 40
0.5
 50
0.0000000000023409
 51
90.0
  0
TEXT
  5
60C
  8
0
 62
     3
 10
0.0
 20
0.0
 30
0.0
 40
10.0
  1
L6-HPF30
  7
STANDARD1
  0
ENDSEC
  0
EOF
