  0
SECTION
  2
HEADER
  9
$ACADVER
  1
AC1009
  9
$INSBASE
 10
0.0
 20
0.0
 30
0.0
  9
$EXTMIN
 10
0.0
 20
-2.960436562073669
 30
0.0
  9
$EXTMAX
 10
279.1327777892003
 20
214.01112532681611
 30
0.0
  9
$LIMMIN
 10
0.0
 20
0.0
  9
$LIMMAX
 10
375.0
 20
270.0
  9
$ORTHOMODE
 70
     1
  9
$REGENMODE
 70
     1
  9
$FILLMODE
 70
     1
  9
$QTEXTMODE
 70
     0
  9
$MIRRTEXT
 70
     0
  9
$DRAGMODE
 70
     2
  9
$LTSCALE
 40
6.0
  9
$OSMODE
 70
  3071
  9
$ATTMODE
 70
     1
  9
$TEXTSIZE
 40
0.2
  9
$TRACEWID
 40
0.05
  9
$TEXTSTYLE
  7
STANDARD
  9
$CLAYER
  8
0
  9
$CELTYPE
  6
BYLAYER
  9
$CECOLOR
 62
   256
  9
$DIMSCALE
 40
1.0
  9
$DIMASZ
 40
3.0
  9
$DIMEXO
 40
1.0
  9
$DIMDLI
 40
6.0
  9
$DIMRND
 40
0.0
  9
$DIMDLE
 40
0.0
  9
$DIMEXE
 40
1.0
  9
$DIMTP
 40
495.0
  9
$DIMTM
 40
0.0
  9
$DIMTXT
 40
3.0
  9
$DIMCEN
 40
0.0
  9
$DIMTSZ
 40
0.0
  9
$DIMTOL
 70
     0
  9
$DIMLIM
 70
     0
  9
$DIMTIH
 70
     0
  9
$DIMTOH
 70
     0
  9
$DIMSE1
 70
     0
  9
$DIMSE2
 70
     0
  9
$DIMTAD
 70
     1
  9
$DIMZIN
 70
     0
  9
$DIMBLK
  1

  9
$DIMASO
 70
     0
  9
$DIMSHO
 70
     0
  9
$DIMPOST
  1

  9
$DIMAPOST
  1

  9
$DIMALT
 70
     0
  9
$DIMALTD
 70
     2
  9
$DIMALTF
 40
25.399999999999999
  9
$DIMLFAC
 40
1.0
  9
$DIMTOFL
 70
     1
  9
$DIMTVP
 40
0.0
  9
$DIMTIX
 70
     1
  9
$DIMSOXD
 70
     0
  9
$DIMSAH
 70
     0
  9
$DIMBLK1
  1

  9
$DIMBLK2
  1

  9
$DIMSTYLE
  2
STANDARD
  9
$DIMCLRD
 70
     0
  9
$DIMCLRE
 70
     0
  9
$DIMCLRT
 70
     4
  9
$DIMTFAC
 40
1.0
  9
$DIMGAP
 40
1.0
  9
$LUNITS
 70
     2
  9
$LUPREC
 70
     4
  9
$SKETCHINC
 40
0.1
  9
$FILLETRAD
 40
2.0
  9
$AUNITS
 70
     0
  9
$AUPREC
 70
     0
  9
$MENU
  1
C:\R13\WIN\SUPPORT\ACAD-I
  9
$ELEVATION
 40
0.0
  9
$PELEVATION
 40
0.0
  9
$THICKNESS
 40
0.0
  9
$LIMCHECK
 70
     0
  9
$BLIPMODE
 70
     0
  9
$CHAMFERA
 40
0.0
  9
$CHAMFERB
 40
0.0
  9
$SKPOLY
 70
     0
  9
$TDCREATE
 40
2450834.7095229169
  9
$TDUPDATE
 40
2456597.562127165
  9
$TDINDWG
 40
0.1027430208
  9
$TDUSRTIMER
 40
0.1027430208
  9
$USRTIMER
 70
     1
  9
$ANGBASE
 50
0.0
  9
$ANGDIR
 70
     0
  9
$PDMODE
 70
     0
  9
$PDSIZE
 40
0.0
  9
$PLINEWID
 40
0.0
  9
$COORDS
 70
     1
  9
$SPLFRAME
 70
     0
  9
$SPLINETYPE
 70
     6
  9
$SPLINESEGS
 70
     8
  9
$ATTDIA
 70
     0
  9
$ATTREQ
 70
     1
  9
$HANDLING
 70
     1
  9
$HANDSEED
  5
122A
  9
$SURFTAB1
 70
     6
  9
$SURFTAB2
 70
     6
  9
$SURFTYPE
 70
     6
  9
$SURFU
 70
     6
  9
$SURFV
 70
     6
  9
$UCSNAME
  2

  9
$UCSORG
 10
0.0
 20
0.0
 30
0.0
  9
$UCSXDIR
 10
1.0
 20
0.0
 30
0.0
  9
$UCSYDIR
 10
0.0
 20
1.0
 30
0.0
  9
$PUCSNAME
  2

  9
$PUCSORG
 10
0.0
 20
0.0
 30
0.0
  9
$PUCSXDIR
 10
1.0
 20
0.0
 30
0.0
  9
$PUCSYDIR
 10
0.0
 20
1.0
 30
0.0
  9
$USERI1
 70
     4
  9
$USERI2
 70
     1
  9
$USERI3
 70
     0
  9
$USERI4
 70
     0
  9
$USERI5
 70
     0
  9
$USERR1
 40
1.0
  9
$USERR2
 40
3.0
  9
$USERR3
 40
3.0
  9
$USERR4
 40
3.0
  9
$USERR5
 40
10.0
  9
$WORLDVIEW
 70
     1
  9
$SHADEDGE
 70
     3
  9
$SHADEDIF
 70
    70
  9
$TILEMODE
 70
     1
  9
$MAXACTVP
 70
    16
  9
$PLIMCHECK
 70
     0
  9
$PEXTMIN
 10
1.0000000000000000E+020
 20
1.0000000000000000E+020
 30
1.0000000000000000E+020
  9
$PEXTMAX
 10
-1.0000000000000000E+020
 20
-1.0000000000000000E+020
 30
-1.0000000000000000E+020
  9
$PLIMMIN
 10
0.0
 20
0.0
  9
$PLIMMAX
 10
12.0
 20
9.0
  9
$UNITMODE
 70
     0
  9
$VISRETAIN
 70
     0
  9
$PLINEGEN
 70
     0
  9
$PSLTSCALE
 70
     0
  0
ENDSEC
  0
SECTION
  2
TABLES
  0
TABLE
  2
VPORT
 70
     1
  0
VPORT
  2
*ACTIVE
 70
     0
 10
0.0
 20
0.0
 11
1.0
 21
1.0
 12
187.49427839065231
 22
162.8616388594717
 13
0.0
 23
0.0
 14
10.0
 24
10.0
 15
10.0
 25
10.0
 16
0.0
 26
0.0
 36
1.0
 17
0.0
 27
0.0
 37
0.0
 40
334.81001162774987
 41
1.9089595375722539
 42
50.0
 43
0.0
 44
0.0
 50
0.0
 51
0.0
 71
     0
 72
   100
 73
     1
 74
     0
 75
     0
 76
     0
 77
     0
 78
     0
  0
ENDTAB
  0
TABLE
  2
LTYPE
 70
     3
  0
LTYPE
  2
CONTINUOUS
 70
     0
  3
Solid Line
 72
    65
 73
     0
 40
0.0
  0
LTYPE
  2
CENTER
 70
     0
  3
____ _ ____ _ ____ _ ____ _ ____ _ ____ _ ____
 72
    65
 73
     4
 40
2.0
 49
1.25
 49
-0.25
 49
0.25
 49
-0.25
  0
LTYPE
  2
PHANTOM2
 70
     0
  3
___ _ _ ___ _ _ ___ _ _ ___ _ _
 72
    65
 73
     6
 40
1.25
 49
0.625
 49
-0.125
 49
0.125
 49
-0.125
 49
0.125
 49
-0.125
  0
ENDTAB
  0
TABLE
  2
LAYER
 70
     2
  0
LAYER
  2
0
 70
     0
 62
     7
  6
CONTINUOUS
  0
LAYER
  2
1
 70
     0
 62
     1
  6
CENTER
  0
ENDTAB
  0
TABLE
  2
STYLE
 70
     2
  0
STYLE
  2
STANDARD
 70
     0
 40
0.0
 41
1.0
 50
0.0
 71
     0
 42
0.2
  3
SIMPLEX
  4
BIGFONT
  0
STYLE
  2
STANDARD1
 70
     0
 40
0.0
 41
1.0
 50
0.0
 71
     0
 42
3.0
  3
txt
  4

  0
ENDTAB
  0
TABLE
  2
VIEW
 70
     0
  0
ENDTAB
  0
TABLE
  2
UCS
 70
     0
  0
ENDTAB
  0
TABLE
  2
APPID
 70
    33
  0
APPID
  2
ACAD
 70
     0
  0
APPID
  2
GENIUS_GENOREF_13
 70
     0
  0
APPID
  2
GENIUS_GENOENT_13
 70
     0
  0
APPID
  2
GENIUS_GENBH_13
 70
     0
  0
APPID
  2
GENIUS_GENOBJ_13
 70
     0
  0
APPID
  2
GENIUS_GENODEF_13
 70
     0
  0
APPID
  2
GENIUS_GENOLIS_13
 70
     0
  0
APPID
  2
GENIUS_GENOBJ-NBEHI-BHF_13
 70
     0
  0
APPID
  2
GENIUS_GENOBJ-NBEHI-BHB_13
 70
     0
  0
APPID
  2
GENIUS_GENOBJ-F-PART_13
 70
     0
  0
APPID
  2
GENIUS_GEFSTDP_13
 70
     0
  0
APPID
  2
GENIUS_GENOBJ-N-RSSYM_13
 70
     0
  0
APPID
  2
GENIUS_GENSYMENT_13
 70
     0
  0
APPID
  2
GENIUS_GENOBJ-N-TIT_13
 70
     0
  0
APPID
  2
GENIUS_GENTITLE_13
 70
     0
  0
APPID
  2
GENIUS_GENZVEED_13
 70
     0
  0
APPID
  2
GENIUS_GENOBJ-N-LEADER_13
 70
     0
  0
APPID
  2
GENIUS_GENOBJ-N-FIL_13
 70
     0
  0
APPID
  2
GENIUS_GENOBJ-N-SEC_13
 70
     0
  0
APPID
  2
GENIUS_GENOBJ-N-CRS_13
 70
     0
  0
APPID
  2
GENIUS_GENOBJ-N-ZOO_13
 70
     0
  0
APPID
  2
GENIUS_GENZOO_13
 70
     0
  0
APPID
  2
GENIUS_GENOBJ-F-TOL_13
 70
     0
  0
APPID
  2
GENIUS_GENFIL_13
 70
     0
  0
APPID
  2
GENIUS_GENOBJ-N-CHA_13
 70
     0
  0
APPID
  2
GENIUS_GENOBJ-N-CEN_13
 70
     0
  0
APPID
  2
GENIUS_GENOBJ-F-FEM_13
 70
     0
  0
APPID
  2
GENIUS_GEFFEM_13
 70
     0
  0
APPID
  2
GENIUS_GENOBJ-N-REV_13
 70
     0
  0
APPID
  2
GENIUS_GEFINERT_13
 70
     0
  0
APPID
  2
GENIUS_GENOBJ-F-INER_13
 70
     0
  0
APPID
  2
ACAD_MLEADERVER
 70
     0
  0
APPID
  2
ACAD_NAV_VCDISPLAY
 70
     0
  0
ENDTAB
  0
TABLE
  2
DIMSTYLE
 70
     1
  0
DIMSTYLE
  2
STANDARD
 70
     0
  3

  4

  5

  6

  7

 40
1.0
 41
0.18
 42
0.0625
 43
0.38
 44
0.18
 45
0.0
 46
0.0
 47
0.0
 48
0.0
140
0.18
141
0.09
142
0.0
143
25.399999999999999
144
1.0
145
0.0
146
1.0
147
0.09
 71
     0
 72
     0
 73
     1
 74
     1
 75
     0
 76
     0
 77
     0
 78
     0
170
     0
171
     2
172
     0
173
     0
174
     0
175
     0
176
     0
177
     0
178
     0
  0
ENDTAB
  0
ENDSEC
  0
SECTION
  2
BLOCKS
  0
BLOCK
  8
0
  2
$MODEL_SPACE
 70
     0
 10
0.0
 20
0.0
 30
0.0
  3
$MODEL_SPACE
  1

  0
ENDBLK
  5
10EB
  8
0
  0
BLOCK
 67
     1
  8
0
  2
$PAPER_SPACE
 70
     0
 10
0.0
 20
0.0
 30
0.0
  3
$PAPER_SPACE
  1

  0
ENDBLK
  5
10E9
 67
     1
  8
0
  0
BLOCK
  8
0
  2
STDGX5
 70
     0
 10
0.0
 20
0.0
 30
0.0
  3
STDGX5
  1

  0
ENDBLK
  5
4F
  8
0
  0
ENDSEC
  0
SECTION
  2
ENTITIES
  0
INSERT
  5
DE
  8
0
  2
STDGX5
 10
0.0
 20
0.0
 30
0.0
  0
INSERT
  5
DF
  8
0
  2
STDGX5
 10
0.0
 20
0.0
 30
0.0
  0
INSERT
  5
15C
  8
0
  2
STDGX5
 10
275.0
 20
0.0
 30
0.0
  0
INSERT
  5
15D
  8
0
  2
STDGX5
 10
275.0
 20
0.0
 30
0.0
  0
INSERT
  5
8D3
  8
0
  2
STDGX5
 10
384.67592110905792
 20
23.969387650926588
 30
0.0
  0
INSERT
  5
8D4
  8
0
  2
STDGX5
 10
384.67592110905792
 20
23.969387650926588
 30
0.0
  0
INSERT
  5
8D5
  8
0
  2
STDGX5
 10
659.67592110905775
 20
23.969387650926588
 30
0.0
  0
INSERT
  5
8D6
  8
0
  2
STDGX5
 10
659.67592110905775
 20
23.969387650926588
 30
0.0
  0
INSERT
  5
997
  8
0
  2
STDGX5
 10
399.01509554092252
 20
27.275509708351589
 30
0.0
  0
INSERT
  5
998
  8
0
  2
STDGX5
 10
399.01509554092252
 20
27.275509708351589
 30
0.0
  0
INSERT
  5
999
  8
0
  2
STDGX5
 10
674.01509554092252
 20
27.275509708351589
 30
0.0
  0
INSERT
  5
99A
  8
0
  2
STDGX5
 10
674.01509554092252
 20
27.275509708351589
 30
0.0
  0
LINE
  5
F6A
  8
0
 10
162.6735515503982
 20
117.1691289575258
 30
0.0
 11
160.02355155010051
 21
117.1691289575256
 31
0.0
  0
LINE
  5
F6B
  8
0
 10
161.47355155039821
 20
115.1691289575257
 30
0.0
 11
159.84324755748329
 21
115.1691289575257
 31
0.0
  0
LINE
  5
F6D
  8
0
 10
135.6735515503272
 20
159.01112532681611
 30
0.0
 11
165.6735515503272
 21
159.01112532681611
 31
0.0
  0
LINE
  5
F6F
  8
1
 10
150.67355155032681
 20
110.6691289575254
 30
0.0
 11
150.67355155032681
 21
122.1691289575255
 31
0.0
  0
ARC
  5
F71
  8
0
 10
138.67355155032701
 20
114.1691289575258
 30
0.0
 40
3.0
 50
90.0
 51
183.0425007768188
  0
ARC
  5
F72
  8
0
 10
146.27355155032691
 20
113.6691289575257
 30
0.0
 40
2.0
 50
89.999999999998565
 51
180.00000000000179
1001
GENIUS_GENODEF_13
1002
{
1000
HIER
1070
     0
1002
}
1002
{
1000
MANEDIT
1070
     0
1002
}
1002
{
1000
NOSEL
1070
     0
1002
}
1002
{
1000
BEHIND
1070
     0
1002
}
1002
{
1000
REACTOR
1002
}
1001
GENIUS_GENOBJ-N-FIL_13
1002
{
1000
OWNER
1000
GEN
1002
}
  0
ARC
  5
F74
  8
0
 10
137.47355155032699
 20
110.3691289575258
 30
0.0
 40
1.6000000000000001
 50
183.04250077681891
 51
322.2776846699395
  0
LINE
  5
F75
  8
0
 10
135.87580684899751
 20
110.2842062316299
 30
0.0
 11
135.6777802353341
 21
114.0098988464708
 31
0.0
  0
LINE
  5
F77
  8
0
 10
142.773551550327
 20
110.622316631003
 30
0.0
 11
143.09355155032711
 21
110.80706871714401
 31
0.0
  0
LINE
  5
F78
  8
0
 10
144.27355155032691
 20
109.26912895752579
 30
0.0
 11
144.27355155032691
 21
113.6691289575255
 31
0.0
  0
ARC
  5
F79
  8
0
 10
137.47355155032699
 20
110.3691289575258
 30
0.0
 40
1.6000000000000001
 50
322.27768466993922
 51
95.77190341358596
  0
ARC
  5
F7A
  8
0
 10
143.773551550327
 20
109.26912895752579
 30
0.0
 40
0.5
 50
269.99999999999977
 51
0.0000000000013231
1001
GENIUS_GENODEF_13
1002
{
1000
HIER
1070
     0
1002
}
1002
{
1000
MANEDIT
1070
     0
1002
}
1002
{
1000
NOSEL
1070
     0
1002
}
1002
{
1000
BEHIND
1070
     0
1002
}
1002
{
1000
REACTOR
1002
}
1001
GENIUS_GENOBJ-N-FIL_13
1002
{
1000
OWNER
1000
GEN
1002
}
  0
ARC
  5
F7B
  8
0
 10
143.27355155032691
 20
109.26912895752579
 30
0.0
 40
0.5
 50
180.00000000000131
 51
270.0
1001
GENIUS_GENODEF_13
1002
{
1000
HIER
1070
     0
1002
}
1002
{
1000
MANEDIT
1070
     0
1002
}
1002
{
1000
NOSEL
1070
     0
1002
}
1002
{
1000
BEHIND
1070
     0
1002
}
1002
{
1000
REACTOR
1002
}
1001
GENIUS_GENOBJ-N-FIL_13
1002
{
1000
OWNER
1000
GEN
1002
}
  0
LINE
  5
F7C
  8
0
 10
143.27355155032691
 20
108.76912895752589
 30
0.0
 11
143.773551550327
 21
108.76912895752589
 31
0.0
  0
LINE
  5
F7D
  8
0
 10
142.773551550327
 20
109.26912895752579
 30
0.0
 11
142.773551550327
 21
110.622316631003
 31
0.0
  0
LINE
  5
F7E
  8
0
 10
139.87355155032711
 20
115.1691289575257
 30
0.0
 11
141.50385554324211
 21
115.1691289575257
 31
0.0
  0
ARC
  5
F7F
  8
0
 10
139.37355155032711
 20
115.6691289575257
 30
0.0
 40
0.5
 50
0.0000000000032569
 51
89.999999999996746
1001
GENIUS_GENODEF_13
1002
{
1000
HIER
1070
     0
1002
}
1002
{
1000
MANEDIT
1070
     0
1002
}
1002
{
1000
NOSEL
1070
     0
1002
}
1002
{
1000
BEHIND
1070
     0
1002
}
1002
{
1000
REACTOR
1002
}
1001
GENIUS_GENOBJ-N-FIL_13
1002
{
1000
OWNER
1000
GEN
1002
}
  0
LINE
  5
F80
  8
0
 10
139.87355155032711
 20
115.1691289575257
 30
0.0
 11
139.87355155032711
 21
115.6691289575258
 31
0.0
  0
ARC
  5
F81
  8
0
 10
137.2623578735805
 20
112.4584822620042
 30
0.0
 40
0.5
 50
183.0425007768192
 51
275.77190341358693
1001
GENIUS_GENODEF_13
1002
{
1000
HIER
1070
     0
1002
}
1002
{
1000
MANEDIT
1070
     0
1002
}
1002
{
1000
NOSEL
1070
     0
1002
}
1002
{
1000
BEHIND
1070
     0
1002
}
1002
{
1000
REACTOR
1002
}
1001
GENIUS_GENOBJ-N-FIL_13
1002
{
1000
OWNER
1000
GEN
1002
}
  0
LINE
  5
F82
  8
0
 10
136.76306265441499
 20
112.43194391016171
 30
0.0
 11
136.67637067366519
 21
114.0629755501558
 31
0.0
  0
LINE
  5
F83
  8
0
 10
138.67355155032701
 20
116.1691289575258
 30
0.0
 11
139.37355155032711
 21
116.1691289575257
 31
0.0
  0
ARC
  5
F84
  8
0
 10
138.67355155032701
 20
114.1691289575258
 30
0.0
 40
2.0
 50
90.0
 51
183.042500776819
  0
LINE
  5
F85
  8
0
 10
142.2424226761776
 20
116.1691289575258
 30
0.0
 11
143.27355155032691
 21
116.1691289575258
 31
0.0
  0
ARC
  5
F86
  8
0
 10
142.2424226761776
 20
115.6691289575258
 30
0.0
 40
0.5
 50
90.0
 51
153.61220003886709
1001
GENIUS_GENODEF_13
1002
{
1000
HIER
1070
     0
1002
}
1002
{
1000
MANEDIT
1070
     0
1002
}
1002
{
1000
NOSEL
1070
     0
1002
}
1002
{
1000
BEHIND
1070
     0
1002
}
1002
{
1000
REACTOR
1002
}
1001
GENIUS_GENOBJ-N-FIL_13
1002
{
1000
OWNER
1000
GEN
1002
}
  0
ARC
  5
F87
  8
0
 10
143.27355155032691
 20
115.9191289575258
 30
0.0
 40
0.25
 50
323.13010235415987
 51
90.0
1001
GENIUS_GENODEF_13
1002
{
1000
HIER
1070
     0
1002
}
1002
{
1000
MANEDIT
1070
     0
1002
}
1002
{
1000
NOSEL
1070
     0
1002
}
1002
{
1000
BEHIND
1070
     0
1002
}
1002
{
1000
REACTOR
1002
}
1001
GENIUS_GENOBJ-N-FIL_13
1002
{
1000
OWNER
1000
GEN
1002
}
  0
LINE
  5
F88
  8
0
 10
142.80698705808811
 20
114.2416206304097
 30
0.0
 11
143.09355155032711
 21
114.4070687171439
 31
0.0
  0
LINE
  5
F89
  8
0
 10
142.931442851935
 20
114.70850831470661
 30
0.0
 11
143.09355155032711
 21
114.6149148140522
 31
0.0
  0
ARC
  5
F8A
  8
0
 10
143.03355155032719
 20
114.51099176559811
 30
0.0
 40
0.12
 50
300.00000000001017
 51
59.999999999993641
1001
GENIUS_GENODEF_13
1002
{
1000
HIER
1070
     0
1002
}
1002
{
1000
MANEDIT
1070
     0
1002
}
1002
{
1000
NOSEL
1070
     0
1002
}
1002
{
1000
BEHIND
1070
     0
1002
}
1002
{
1000
REACTOR
1002
}
1001
GENIUS_GENOBJ-N-FIL_13
1002
{
1000
OWNER
1000
GEN
1002
}
  0
LINE
  5
F8B
  8
0
 10
142.773551550327
 20
113.599666900193
 30
0.0
 11
142.773551550327
 21
113.6109917655976
 31
0.0
  0
LINE
  5
F8C
  8
0
 10
142.7735515503272
 20
112.3996669001929
 30
0.0
 11
142.773551550327
 21
113.02231663100321
 31
0.0
  0
LINE
  5
F8D
  8
0
 10
142.773551550327
 20
113.5996669001931
 30
0.0
 11
142.773551550327
 21
113.6109917655976
 31
0.0
  0
LINE
  5
F8E
  8
0
 10
142.773551550327
 20
111.19966690019299
 30
0.0
 11
142.773551550327
 21
111.8223166310031
 31
0.0
  0
LINE
  5
F8F
  8
0
 10
142.77727849140581
 20
113.5975151497578
 30
0.0
 11
143.09355155032711
 21
113.4149148140522
 31
0.0
  0
LINE
  5
F90
  8
0
 10
142.773551550327
 20
113.02231663100321
 30
0.0
 11
143.09355155032711
 21
113.2070687171439
 31
0.0
  0
LINE
  5
F91
  8
0
 10
142.773551550327
 20
111.8223166310031
 30
0.0
 11
143.09355155032711
 21
112.00706871714389
 31
0.0
  0
LINE
  5
F92
  8
0
 10
142.7735515503272
 20
112.3996669001929
 30
0.0
 11
143.09355155032711
 21
112.21491481405219
 31
0.0
  0
LINE
  5
F93
  8
0
 10
142.773551550327
 20
111.19966690019299
 30
0.0
 11
143.09355155032711
 21
111.0149148140522
 31
0.0
  0
ARC
  5
F94
  8
0
 10
143.03355155032719
 20
110.9109917655981
 30
0.0
 40
0.12
 50
300.00000000001017
 51
59.999999999993641
1001
GENIUS_GENODEF_13
1002
{
1000
HIER
1070
     0
1002
}
1002
{
1000
MANEDIT
1070
     0
1002
}
1002
{
1000
NOSEL
1070
     0
1002
}
1002
{
1000
BEHIND
1070
     0
1002
}
1002
{
1000
REACTOR
1002
}
1001
GENIUS_GENOBJ-N-FIL_13
1002
{
1000
OWNER
1000
GEN
1002
}
  0
ARC
  5
F95
  8
0
 10
143.03355155032719
 20
113.3109917655981
 30
0.0
 40
0.12
 50
300.00000000001017
 51
59.999999999993641
1001
GENIUS_GENODEF_13
1002
{
1000
HIER
1070
     0
1002
}
1002
{
1000
MANEDIT
1070
     0
1002
}
1002
{
1000
NOSEL
1070
     0
1002
}
1002
{
1000
BEHIND
1070
     0
1002
}
1002
{
1000
REACTOR
1002
}
1001
GENIUS_GENOBJ-N-FIL_13
1002
{
1000
OWNER
1000
GEN
1002
}
  0
ARC
  5
F96
  8
0
 10
143.03355155032719
 20
112.1109917655981
 30
0.0
 40
0.12
 50
300.00000000001017
 51
59.999999999993641
1001
GENIUS_GENODEF_13
1002
{
1000
HIER
1070
     0
1002
}
1002
{
1000
MANEDIT
1070
     0
1002
}
1002
{
1000
NOSEL
1070
     0
1002
}
1002
{
1000
BEHIND
1070
     0
1002
}
1002
{
1000
REACTOR
1002
}
1001
GENIUS_GENOBJ-N-FIL_13
1002
{
1000
OWNER
1000
GEN
1002
}
  0
ARC
  5
F97
  8
0
 10
146.27355155032691
 20
113.7589917655978
 30
0.0
 40
3.5
 50
172.0740028595666
 51
182.64434683406631
1001
GENIUS_GENODEF_13
1002
{
1000
HIER
1070
     0
1002
}
1002
{
1000
MANEDIT
1070
     0
1002
}
1002
{
1000
NOSEL
1070
     0
1002
}
1002
{
1000
BEHIND
1070
     0
1002
}
1002
{
1000
REACTOR
1002
}
1001
GENIUS_GENOBJ-N-FIL_13
1002
{
1000
OWNER
1000
GEN
1002
}
  0
LINE
  5
F98
  8
0
 10
142.773551550327
 20
112.54766690019299
 30
0.0
 11
142.77355155032691
 21
113.02231663100321
 31
0.0
  0
ARC
  5
F99
  8
0
 10
146.27355155032691
 20
113.6691289575257
 30
0.0
 40
5.0
 50
153.61220003877509
 51
162.54239687627631
1001
GENIUS_GENODEF_13
1002
{
1000
HIER
1070
     0
1002
}
1002
{
1000
MANEDIT
1070
     0
1002
}
1002
{
1000
NOSEL
1070
     0
1002
}
1002
{
1000
BEHIND
1070
     0
1002
}
1002
{
1000
REACTOR
1002
}
1001
GENIUS_GENOBJ-N-FIL_13
1002
{
1000
OWNER
1000
GEN
1002
}
  0
ARC
  5
F9A
  8
0
 10
146.27355155032691
 20
113.6691289575257
 30
0.0
 40
3.5
 50
143.13010235415251
 51
162.72456331187101
1001
GENIUS_GENODEF_13
1002
{
1000
HIER
1070
     0
1002
}
1002
{
1000
MANEDIT
1070
     0
1002
}
1002
{
1000
NOSEL
1070
     0
1002
}
1002
{
1000
BEHIND
1070
     0
1002
}
1002
{
1000
REACTOR
1002
}
1001
GENIUS_GENOBJ-N-FIL_13
1002
{
1000
OWNER
1000
GEN
1002
}
  0
LINE
  5
F9B
  8
0
 10
146.27355155032691
 20
115.6691289575255
 30
0.0
 11
155.07355155039849
 21
115.6691289575253
 31
0.0
  0
LINE
  5
F9C
  8
0
 10
158.5735515503267
 20
110.622316631003
 30
0.0
 11
158.25355155032651
 21
110.80706871714401
 31
0.0
  0
LINE
  5
F9D
  8
0
 10
157.07355155039849
 20
109.26912895752579
 30
0.0
 11
157.07355155039849
 21
113.6691289575255
 31
0.0
  0
ARC
  5
F9E
  8
0
 10
157.57355155039849
 20
109.26912895752579
 30
0.0
 40
0.5
 50
179.99999999999861
 51
270.00000000000023
1001
GENIUS_GENODEF_13
1002
{
1000
HIER
1070
     0
1002
}
1002
{
1000
MANEDIT
1070
     0
1002
}
1002
{
1000
NOSEL
1070
     0
1002
}
1002
{
1000
BEHIND
1070
     0
1002
}
1002
{
1000
REACTOR
1002
}
1001
GENIUS_GENOBJ-N-FIL_13
1002
{
1000
OWNER
1000
GEN
1002
}
  0
LINE
  5
F9F
  8
0
 10
158.07355155039849
 20
108.76912895752589
 30
0.0
 11
157.57355155039849
 21
108.76912895752589
 31
0.0
  0
ARC
  5
FA0
  8
0
 10
158.07355155039849
 20
109.26912895752579
 30
0.0
 40
0.5
 50
270.0
 51
359.99999999999869
1001
GENIUS_GENODEF_13
1002
{
1000
HIER
1070
     0
1002
}
1002
{
1000
MANEDIT
1070
     0
1002
}
1002
{
1000
NOSEL
1070
     0
1002
}
1002
{
1000
BEHIND
1070
     0
1002
}
1002
{
1000
REACTOR
1002
}
1001
GENIUS_GENOBJ-N-FIL_13
1002
{
1000
OWNER
1000
GEN
1002
}
  0
LINE
  5
FA1
  8
0
 10
158.57355155039849
 20
109.26912895752579
 30
0.0
 11
158.57355155039829
 21
110.6223166310032
 31
0.0
  0
ARC
  5
FA2
  8
0
 10
155.07355155039849
 20
113.6691289575257
 30
0.0
 40
2.0
 50
359.99999999999812
 51
90.000000000001421
1001
GENIUS_GENODEF_13
1002
{
1000
HIER
1070
     0
1002
}
1002
{
1000
MANEDIT
1070
     0
1002
}
1002
{
1000
NOSEL
1070
     0
1002
}
1002
{
1000
BEHIND
1070
     0
1002
}
1002
{
1000
REACTOR
1002
}
1001
GENIUS_GENOBJ-N-FIL_13
1002
{
1000
OWNER
1000
GEN
1002
}
  0
LINE
  5
FA3
  8
0
 10
159.10468042454761
 20
116.1691289575258
 30
0.0
 11
158.07355155039849
 21
116.1691289575258
 31
0.0
  0
ARC
  5
FA4
  8
0
 10
159.10468042454761
 20
115.6691289575258
 30
0.0
 40
0.5
 50
26.387799961122461
 51
90.0
1001
GENIUS_GENODEF_13
1002
{
1000
HIER
1070
     0
1002
}
1002
{
1000
MANEDIT
1070
     0
1002
}
1002
{
1000
NOSEL
1070
     0
1002
}
1002
{
1000
BEHIND
1070
     0
1002
}
1002
{
1000
REACTOR
1002
}
1001
GENIUS_GENOBJ-N-FIL_13
1002
{
1000
OWNER
1000
GEN
1002
}
  0
ARC
  5
FA5
  8
0
 10
158.07355155039849
 20
115.9191289575258
 30
0.0
 40
0.25
 50
90.0
 51
216.8698976458401
1001
GENIUS_GENODEF_13
1002
{
1000
HIER
1070
     0
1002
}
1002
{
1000
MANEDIT
1070
     0
1002
}
1002
{
1000
NOSEL
1070
     0
1002
}
1002
{
1000
BEHIND
1070
     0
1002
}
1002
{
1000
REACTOR
1002
}
1001
GENIUS_GENOBJ-N-FIL_13
1002
{
1000
OWNER
1000
GEN
1002
}
  0
LINE
  5
FA6
  8
0
 10
158.5735515503267
 20
112.54766690019299
 30
0.0
 11
158.5735515503267
 21
113.02231663100321
 31
0.0
  0
ARC
  5
FA7
  8
0
 10
155.0735515503267
 20
113.7589917655978
 30
0.0
 40
3.5
 50
357.35565316593369
 51
7.925997140433334
1001
GENIUS_GENODEF_13
1002
{
1000
HIER
1070
     0
1002
}
1002
{
1000
MANEDIT
1070
     0
1002
}
1002
{
1000
NOSEL
1070
     0
1002
}
1002
{
1000
BEHIND
1070
     0
1002
}
1002
{
1000
REACTOR
1002
}
1001
GENIUS_GENOBJ-N-FIL_13
1002
{
1000
OWNER
1000
GEN
1002
}
  0
ARC
  5
FA8
  8
0
 10
158.31355155032651
 20
112.1109917655981
 30
0.0
 40
0.12
 50
120.0000000000063
 51
239.9999999999898
1001
GENIUS_GENODEF_13
1002
{
1000
HIER
1070
     0
1002
}
1002
{
1000
MANEDIT
1070
     0
1002
}
1002
{
1000
NOSEL
1070
     0
1002
}
1002
{
1000
BEHIND
1070
     0
1002
}
1002
{
1000
REACTOR
1002
}
1001
GENIUS_GENOBJ-N-FIL_13
1002
{
1000
OWNER
1000
GEN
1002
}
  0
ARC
  5
FA9
  8
0
 10
158.31355155032651
 20
113.3109917655981
 30
0.0
 40
0.12
 50
120.0000000000063
 51
239.9999999999898
1001
GENIUS_GENODEF_13
1002
{
1000
HIER
1070
     0
1002
}
1002
{
1000
MANEDIT
1070
     0
1002
}
1002
{
1000
NOSEL
1070
     0
1002
}
1002
{
1000
BEHIND
1070
     0
1002
}
1002
{
1000
REACTOR
1002
}
1001
GENIUS_GENOBJ-N-FIL_13
1002
{
1000
OWNER
1000
GEN
1002
}
  0
ARC
  5
FAA
  8
0
 10
158.31355155032651
 20
110.9109917655981
 30
0.0
 40
0.12
 50
120.0000000000063
 51
239.9999999999898
1001
GENIUS_GENODEF_13
1002
{
1000
HIER
1070
     0
1002
}
1002
{
1000
MANEDIT
1070
     0
1002
}
1002
{
1000
NOSEL
1070
     0
1002
}
1002
{
1000
BEHIND
1070
     0
1002
}
1002
{
1000
REACTOR
1002
}
1001
GENIUS_GENOBJ-N-FIL_13
1002
{
1000
OWNER
1000
GEN
1002
}
  0
LINE
  5
FAB
  8
0
 10
158.5735515503267
 20
111.19966690019299
 30
0.0
 11
158.25355155032651
 21
111.0149148140522
 31
0.0
  0
LINE
  5
FAC
  8
0
 10
158.57355155032641
 20
112.3996669001929
 30
0.0
 11
158.25355155032651
 21
112.21491481405219
 31
0.0
  0
LINE
  5
FAD
  8
0
 10
158.5735515503267
 20
111.8223166310031
 30
0.0
 11
158.25355155032651
 21
112.00706871714389
 31
0.0
  0
LINE
  5
FAE
  8
0
 10
158.5735515503267
 20
113.02231663100321
 30
0.0
 11
158.25355155032651
 21
113.2070687171439
 31
0.0
  0
LINE
  5
FAF
  8
0
 10
158.5698246092478
 20
113.5975151497578
 30
0.0
 11
158.25355155032651
 21
113.4149148140522
 31
0.0
  0
LINE
  5
FB0
  8
0
 10
158.5735515503267
 20
111.19966690019299
 30
0.0
 11
158.5735515503267
 21
111.8223166310031
 31
0.0
  0
LINE
  5
FB1
  8
0
 10
158.5735515503267
 20
113.5996669001931
 30
0.0
 11
158.5735515503267
 21
113.6109917655976
 31
0.0
  0
LINE
  5
FB2
  8
0
 10
158.57355155032641
 20
112.3996669001929
 30
0.0
 11
158.5735515503267
 21
113.02231663100321
 31
0.0
  0
LINE
  5
FB3
  8
0
 10
158.5735515503267
 20
113.599666900193
 30
0.0
 11
158.5735515503267
 21
113.6109917655976
 31
0.0
  0
ARC
  5
FB4
  8
0
 10
158.31355155032651
 20
114.51099176559811
 30
0.0
 40
0.12
 50
120.0000000000063
 51
239.9999999999898
1001
GENIUS_GENODEF_13
1002
{
1000
HIER
1070
     0
1002
}
1002
{
1000
MANEDIT
1070
     0
1002
}
1002
{
1000
NOSEL
1070
     0
1002
}
1002
{
1000
BEHIND
1070
     0
1002
}
1002
{
1000
REACTOR
1002
}
1001
GENIUS_GENOBJ-N-FIL_13
1002
{
1000
OWNER
1000
GEN
1002
}
  0
LINE
  5
FB5
  8
0
 10
158.41566024871861
 20
114.70850831470661
 30
0.0
 11
158.25355155032651
 21
114.6149148140522
 31
0.0
  0
LINE
  5
FB6
  8
0
 10
158.5401160425655
 20
114.2416206304097
 30
0.0
 11
158.25355155032651
 21
114.4070687171439
 31
0.0
  0
ARC
  5
FB7
  8
0
 10
155.07355155039849
 20
113.6691289575257
 30
0.0
 40
5.0
 50
17.457603123723668
 51
26.387799961214519
1001
GENIUS_GENODEF_13
1002
{
1000
HIER
1070
     0
1002
}
1002
{
1000
MANEDIT
1070
     0
1002
}
1002
{
1000
NOSEL
1070
     0
1002
}
1002
{
1000
BEHIND
1070
     0
1002
}
1002
{
1000
REACTOR
1002
}
1001
GENIUS_GENOBJ-N-FIL_13
1002
{
1000
OWNER
1000
GEN
1002
}
  0
ARC
  5
FB8
  8
0
 10
155.0735515503267
 20
113.6691289575257
 30
0.0
 40
3.5
 50
17.275436688128931
 51
36.86989764584748
1001
GENIUS_GENODEF_13
1002
{
1000
HIER
1070
     0
1002
}
1002
{
1000
MANEDIT
1070
     0
1002
}
1002
{
1000
NOSEL
1070
     0
1002
}
1002
{
1000
BEHIND
1070
     0
1002
}
1002
{
1000
REACTOR
1002
}
1001
GENIUS_GENOBJ-N-FIL_13
1002
{
1000
OWNER
1000
GEN
1002
}
  0
LINE
  5
FB9
  8
0
 10
141.92355155061921
 20
117.1691289575257
 30
0.0
 11
150.37355155033319
 21
117.1691289575254
 31
0.0
  0
LINE
  5
FBB
  8
0
 10
135.6735515503272
 20
159.01112532681611
 30
0.0
 11
135.6735515503272
 21
209.01112532681611
 31
0.0
  0
LINE
  5
FBC
  8
0
 10
138.67355155032701
 20
117.1691289575258
 30
0.0
 11
141.32355155062501
 21
117.1691289575256
 31
0.0
  0
ARC
  5
FBD
  8
0
 10
141.62355155032691
 20
117.1133510085422
 30
0.0
 40
0.12
 50
236.30993247361559
 51
303.69006752693048
  0
LINE
  5
FBE
  8
0
 10
141.92355155061921
 20
117.1691289575257
 30
0.0
 11
141.69011557387569
 21
117.01350497322269
 31
0.0
  0
LINE
  5
FBF
  8
0
 10
141.55698752677921
 20
117.0135049732221
 30
0.0
 11
141.32355155062501
 21
117.1691289575256
 31
0.0
  0
LINE
  5
FC0
  8
0
 10
141.6735515503272
 20
159.01112532681611
 30
0.0
 11
141.6735515503272
 21
209.01112532681611
 31
0.0
  0
LINE
  5
FC1
  8
0
 10
150.97355155032699
 20
117.1691289575254
 30
0.0
 11
159.42355155010691
 21
117.1691289575252
 31
0.0
  0
ARC
  5
FC3
  8
0
 10
150.67355155003489
 20
117.1133510085421
 30
0.0
 40
0.12
 50
236.30993247361559
 51
303.69006752693048
  0
LINE
  5
FC4
  8
0
 10
150.60698752648719
 20
117.0135049732221
 30
0.0
 11
150.37355155033319
 21
117.1691289575254
 31
0.0
  0
LINE
  5
FC5
  8
0
 10
150.97355155032699
 20
117.1691289575254
 30
0.0
 11
150.74011557358349
 21
117.0135049732226
 31
0.0
  0
LINE
  5
FC6
  8
0
 10
150.6735515503272
 20
159.01112532681611
 30
0.0
 11
150.6735515503272
 21
209.01112532681611
 31
0.0
  0
ARC
  5
FC7
  8
0
 10
159.72355155039861
 20
117.1133510085422
 30
0.0
 40
0.12
 50
236.30993247306941
 51
303.69006752638438
  0
LINE
  5
FC8
  8
0
 10
159.42355155010691
 20
117.1691289575252
 30
0.0
 11
159.6569875268498
 21
117.01350497322269
 31
0.0
  0
LINE
  5
FC9
  8
0
 10
159.79011557394611
 20
117.0135049732221
 30
0.0
 11
160.02355155010051
 21
117.1691289575256
 31
0.0
  0
LINE
  5
FCA
  8
0
 10
159.6735515503272
 20
159.01112532681611
 30
0.0
 11
159.6735515503272
 21
209.01112532681611
 31
0.0
  0
LINE
  5
FCC
  8
0
 10
229.1327777892003
 20
108.7691289575254
 30
0.0
 11
229.1327777892003
 21
117.1691289575254
 31
0.0
  0
ARC
  5
FCD
  8
0
 10
162.6735515503984
 20
114.1691289575258
 30
0.0
 40
2.0
 50
356.957499223181
 51
90.0
  0
ARC
  5
FCE
  8
0
 10
162.6735515503984
 20
114.1691289575258
 30
0.0
 40
3.0
 50
356.95749922318117
 51
90.0
  0
LINE
  5
FD0
  8
0
 10
165.47129625172801
 20
110.2842062316299
 30
0.0
 11
165.66932286539111
 21
114.0098988464708
 31
0.0
  0
ARC
  5
FD1
  8
0
 10
163.8735515503983
 20
110.3691289575258
 30
0.0
 40
1.6000000000000001
 50
84.228096586414026
 51
217.72231533006081
  0
ARC
  5
FD3
  8
0
 10
163.8735515503983
 20
110.3691289575258
 30
0.0
 40
1.6000000000000001
 50
217.72231533006061
 51
356.95749922318112
  0
LINE
  5
FD4
  8
0
 10
164.5840404463103
 20
112.43194391016171
 30
0.0
 11
164.67073242706019
 21
114.0629755501558
 31
0.0
  0
LINE
  5
FD5
  8
0
 10
162.6735515503982
 20
116.1691289575258
 30
0.0
 11
161.97355155039821
 21
116.1691289575257
 31
0.0
  0
ARC
  5
FD6
  8
0
 10
161.97355155039821
 20
115.6691289575257
 30
0.0
 40
0.5
 50
90.000000000003254
 51
180.0
1001
GENIUS_GENODEF_13
1002
{
1000
HIER
1070
     0
1002
}
1002
{
1000
MANEDIT
1070
     0
1002
}
1002
{
1000
NOSEL
1070
     0
1002
}
1002
{
1000
BEHIND
1070
     0
1002
}
1002
{
1000
REACTOR
1002
}
1001
GENIUS_GENOBJ-N-FIL_13
1002
{
1000
OWNER
1000
GEN
1002
}
  0
LINE
  5
FD7
  8
0
 10
161.47355155039821
 20
115.1691289575257
 30
0.0
 11
161.47355155039821
 21
115.6691289575257
 31
0.0
  0
ARC
  5
FD8
  8
0
 10
164.08474522714471
 20
112.4584822620042
 30
0.0
 40
0.5
 50
264.22809658641307
 51
356.95749922318078
1001
GENIUS_GENODEF_13
1002
{
1000
HIER
1070
     0
1002
}
1002
{
1000
MANEDIT
1070
     0
1002
}
1002
{
1000
NOSEL
1070
     0
1002
}
1002
{
1000
BEHIND
1070
     0
1002
}
1002
{
1000
REACTOR
1002
}
1001
GENIUS_GENOBJ-N-FIL_13
1002
{
1000
OWNER
1000
GEN
1002
}
  0
LINE
  5
FD9
  8
0
 10
229.1327777892003
 20
108.7691289575254
 30
0.0
 11
279.1327777892003
 21
108.7691289575254
 31
0.0
  0
LINE
  5
FDB
  8
0
 10
165.6735515503272
 20
159.01112532681611
 30
0.0
 11
165.6735515503272
 21
209.01112532681611
 31
0.0
  0
LINE
  5
FDC
  8
0
 10
229.1327777892003
 20
117.1691289575254
 30
0.0
 11
279.1327777892003
 21
117.1691289575254
 31
0.0
  0
LINE
  5
FDD
  8
0
 10
135.6735515503272
 20
209.01112532681611
 30
0.0
 11
165.6735515503272
 21
209.01112532681611
 31
0.0
  0
LINE
  5
FDE
  8
0
 10
279.1327777892003
 20
108.7691289575254
 30
0.0
 11
279.1327777892003
 21
117.1691289575254
 31
0.0
  0
LINE
  5
FE6
  8
1
 10
150.67355155032681
 20
154.01112532681611
 30
0.0
 11
150.67355155032681
 21
214.01112532681611
 31
0.0
  0
INSERT
  5
108A
  8
0
  2
STDGX5
 10
0.0
 20
0.0
 30
0.0
  0
INSERT
  5
108B
  8
0
  2
STDGX5
 10
0.0
 20
0.0
 30
0.0
  0
INSERT
  5
108C
  8
0
  2
STDGX5
 10
275.0
 20
0.0
 30
0.0
  0
INSERT
  5
108D
  8
0
  2
STDGX5
 10
275.0
 20
0.0
 30
0.0
  0
TEXT
  5
119C
  8
0
 62
     3
 10
0.0
 20
0.0
 30
0.0
 40
10.0
  1
L6-LPE30N-3M
  7
STANDARD1
  0
ENDSEC
  0
EOF
