  0
SECTION
  2
HEADER
  9
$ACADVER
  1
AC1009
  9
$INSBASE
 10
0.0
 20
0.0
 30
0.0
  9
$EXTMIN
 10
0.0
 20
-2.960436562073669
 30
0.0
  9
$EXTMAX
 10
108.7039563437926
 20
82.392447705713096
 30
0.0
  9
$LIMMIN
 10
0.0
 20
0.0
  9
$LIMMAX
 10
187.5
 20
139.0
  9
$ORTHOMODE
 70
     1
  9
$REGENMODE
 70
     1
  9
$FILLMODE
 70
     1
  9
$QTEXTMODE
 70
     0
  9
$MIRRTEXT
 70
     0
  9
$DRAGMODE
 70
     2
  9
$LTSCALE
 40
4.0
  9
$OSMODE
 70
  3071
  9
$ATTMODE
 70
     1
  9
$TEXTSIZE
 40
0.2
  9
$TRACEWID
 40
0.05
  9
$TEXTSTYLE
  7
STANDARD
  9
$CLAYER
  8
0
  9
$CELTYPE
  6
BYLAYER
  9
$CECOLOR
 62
   256
  9
$DIMSCALE
 40
1.0
  9
$DIMASZ
 40
3.0
  9
$DIMEXO
 40
1.0
  9
$DIMDLI
 40
6.0
  9
$DIMRND
 40
0.0
  9
$DIMDLE
 40
0.0
  9
$DIMEXE
 40
1.0
  9
$DIMTP
 40
495.0
  9
$DIMTM
 40
0.0
  9
$DIMTXT
 40
3.0
  9
$DIMCEN
 40
0.0
  9
$DIMTSZ
 40
0.0
  9
$DIMTOL
 70
     0
  9
$DIMLIM
 70
     0
  9
$DIMTIH
 70
     0
  9
$DIMTOH
 70
     0
  9
$DIMSE1
 70
     0
  9
$DIMSE2
 70
     0
  9
$DIMTAD
 70
     1
  9
$DIMZIN
 70
     0
  9
$DIMBLK
  1

  9
$DIMASO
 70
     0
  9
$DIMSHO
 70
     0
  9
$DIMPOST
  1

  9
$DIMAPOST
  1

  9
$DIMALT
 70
     0
  9
$DIMALTD
 70
     2
  9
$DIMALTF
 40
25.399999999999999
  9
$DIMLFAC
 40
1.0
  9
$DIMTOFL
 70
     1
  9
$DIMTVP
 40
0.0
  9
$DIMTIX
 70
     1
  9
$DIMSOXD
 70
     0
  9
$DIMSAH
 70
     0
  9
$DIMBLK1
  1

  9
$DIMBLK2
  1

  9
$DIMSTYLE
  2
STANDARD
  9
$DIMCLRD
 70
     0
  9
$DIMCLRE
 70
     0
  9
$DIMCLRT
 70
     4
  9
$DIMTFAC
 40
1.0
  9
$DIMGAP
 40
1.0
  9
$LUNITS
 70
     2
  9
$LUPREC
 70
     4
  9
$SKETCHINC
 40
0.1
  9
$FILLETRAD
 40
0.0
  9
$AUNITS
 70
     0
  9
$AUPREC
 70
     0
  9
$MENU
  1
C:\R13\WIN\SUPPORT\ACAD-I
  9
$ELEVATION
 40
0.0
  9
$PELEVATION
 40
0.0
  9
$THICKNESS
 40
0.0
  9
$LIMCHECK
 70
     0
  9
$BLIPMODE
 70
     0
  9
$CHAMFERA
 40
0.0
  9
$CHAMFERB
 40
0.0
  9
$SKPOLY
 70
     0
  9
$TDCREATE
 40
2450837.486061343
  9
$TDUPDATE
 40
2456602.6142248609
  9
$TDINDWG
 40
0.0290833102
  9
$TDUSRTIMER
 40
2456598.4424848729
  9
$USRTIMER
 70
     1
  9
$ANGBASE
 50
0.0
  9
$ANGDIR
 70
     0
  9
$PDMODE
 70
     0
  9
$PDSIZE
 40
0.0
  9
$PLINEWID
 40
0.0
  9
$COORDS
 70
     1
  9
$SPLFRAME
 70
     0
  9
$SPLINETYPE
 70
     6
  9
$SPLINESEGS
 70
     8
  9
$ATTDIA
 70
     0
  9
$ATTREQ
 70
     1
  9
$HANDLING
 70
     1
  9
$HANDSEED
  5
80B
  9
$SURFTAB1
 70
     6
  9
$SURFTAB2
 70
     6
  9
$SURFTYPE
 70
     6
  9
$SURFU
 70
     6
  9
$SURFV
 70
     6
  9
$UCSNAME
  2

  9
$UCSORG
 10
0.0
 20
0.0
 30
0.0
  9
$UCSXDIR
 10
1.0
 20
0.0
 30
0.0
  9
$UCSYDIR
 10
0.0
 20
1.0
 30
0.0
  9
$PUCSNAME
  2

  9
$PUCSORG
 10
0.0
 20
0.0
 30
0.0
  9
$PUCSXDIR
 10
1.0
 20
0.0
 30
0.0
  9
$PUCSYDIR
 10
0.0
 20
1.0
 30
0.0
  9
$USERI1
 70
     4
  9
$USERI2
 70
     1
  9
$USERI3
 70
     0
  9
$USERI4
 70
     0
  9
$USERI5
 70
     0
  9
$USERR1
 40
1.0
  9
$USERR2
 40
3.0
  9
$USERR3
 40
3.0
  9
$USERR4
 40
3.0
  9
$USERR5
 40
10.0
  9
$WORLDVIEW
 70
     1
  9
$SHADEDGE
 70
     3
  9
$SHADEDIF
 70
    70
  9
$TILEMODE
 70
     1
  9
$MAXACTVP
 70
    16
  9
$PLIMCHECK
 70
     0
  9
$PEXTMIN
 10
1.0000000000000000E+020
 20
1.0000000000000000E+020
 30
1.0000000000000000E+020
  9
$PEXTMAX
 10
-1.0000000000000000E+020
 20
-1.0000000000000000E+020
 30
-1.0000000000000000E+020
  9
$PLIMMIN
 10
0.0
 20
0.0
  9
$PLIMMAX
 10
12.0
 20
9.0
  9
$UNITMODE
 70
     0
  9
$VISRETAIN
 70
     0
  9
$PLINEGEN
 70
     0
  9
$PSLTSCALE
 70
     0
  0
ENDSEC
  0
SECTION
  2
TABLES
  0
TABLE
  2
VPORT
 70
     1
  0
VPORT
  2
*ACTIVE
 70
     0
 10
0.0
 20
0.0
 11
1.0
 21
1.0
 12
93.747139195326156
 22
86.945334320340351
 13
0.0
 23
0.0
 14
5.0
 24
5.0
 15
5.0
 25
5.0
 16
0.0
 26
0.0
 36
1.0
 17
0.0
 27
0.0
 37
0.0
 40
181.4484214609013
 41
1.831871345029239
 42
50.0
 43
0.0
 44
0.0
 50
0.0
 51
0.0
 71
     0
 72
   100
 73
     1
 74
     0
 75
     0
 76
     0
 77
     0
 78
     0
  0
ENDTAB
  0
TABLE
  2
LTYPE
 70
     3
  0
LTYPE
  2
CONTINUOUS
 70
     0
  3
Solid Line
 72
    65
 73
     0
 40
0.0
  0
LTYPE
  2
CENTER
 70
     0
  3
____ _ ____ _ ____ _ ____ _ ____ _ ____ _ ____
 72
    65
 73
     4
 40
2.0
 49
1.25
 49
-0.25
 49
0.25
 49
-0.25
  0
LTYPE
  2
PHANTOM2
 70
     0
  3
___ _ _ ___ _ _ ___ _ _ ___ _ _
 72
    65
 73
     6
 40
1.25
 49
0.625
 49
-0.125
 49
0.125
 49
-0.125
 49
0.125
 49
-0.125
  0
ENDTAB
  0
TABLE
  2
LAYER
 70
     5
  0
LAYER
  2
0
 70
     0
 62
     7
  6
CONTINUOUS
  0
LAYER
  2
1
 70
     0
 62
     1
  6
CENTER
  0
LAYER
  2
3
 70
     0
 62
     3
  6
CONTINUOUS
  0
LAYER
  2
DEFPOINTS
 70
     0
 62
     7
  6
CONTINUOUS
  0
LAYER
  2
DICHTPROFIL_6_2-
 70
     0
 62
     7
  6
CONTINUOUS
  0
ENDTAB
  0
TABLE
  2
STYLE
 70
     2
  0
STYLE
  2
STANDARD
 70
     0
 40
0.0
 41
1.0
 50
0.0
 71
     0
 42
0.2
  3
SIMPLEX
  4
BIGFONT
  0
STYLE
  2
STANDARD1
 70
     0
 40
0.0
 41
1.0
 50
0.0
 71
     0
 42
3.0
  3
txt
  4

  0
ENDTAB
  0
TABLE
  2
VIEW
 70
     0
  0
ENDTAB
  0
TABLE
  2
UCS
 70
     0
  0
ENDTAB
  0
TABLE
  2
APPID
 70
   120
  0
APPID
  2
ACAD
 70
     0
  0
APPID
  2
GENIUS_GENOBJ_13
 70
     0
  0
APPID
  2
GENIUS_GENODEF_13
 70
     0
  0
APPID
  2
GENIUS_GENOENT_13
 70
     0
  0
APPID
  2
GENIUS_GENOLIS_13
 70
     0
  0
APPID
  2
GENIUS_GENOREF_13
 70
     0
  0
APPID
  2
GENIUS_GENOBJ-N-TIT_13
 70
     0
  0
APPID
  2
GENIUS_GENTITLE_13
 70
     0
  0
APPID
  2
GENIUS_GENZVEED_13
 70
     0
  0
APPID
  2
GENIUS_GENOBJ-N-FIL_13
 70
     0
  0
APPID
  2
GENIUS_GENOBJ-N-CRS_13
 70
     0
  0
APPID
  2
GENIUS_GENOBJ-N-SEC_13
 70
     0
  0
APPID
  2
GENIUS_GENOBJ-N-LEADER_13
 70
     0
  0
APPID
  2
GENIUS_GENOBJ-N-ZOO_13
 70
     0
  0
APPID
  2
GENIUS_GENZOO_13
 70
     0
  0
APPID
  2
GENIUS_GENOBJ-N-REV_13
 70
     0
  0
APPID
  2
GENIUS_GENOBJ-N-RSSYM_13
 70
     0
  0
APPID
  2
GENIUS_GENSYMENT_13
 70
     0
  0
APPID
  2
ASM_BASE
 70
     0
  0
APPID
  2
_FTCNV
 70
     0
  0
APPID
  2
_PHO
 70
     0
  0
APPID
  2
_CLP
 70
     0
  0
APPID
  2
MOJIGUMI_PARTS
 70
     0
  0
APPID
  2
_DBL
 70
     0
  0
APPID
  2
_PWH
 70
     0
  0
APPID
  2
_G9P
 70
     0
  0
APPID
  2
AME_SOL
 70
     0
  0
APPID
  2
HAKO_DEF
 70
     0
  0
APPID
  2
HAKO_TXT
 70
     0
  0
APPID
  2
HAKO_OVR
 70
     0
  0
APPID
  2
GENIUS_GENFIL_13
 70
     0
  0
APPID
  2
GENIUS_GENOBJ-N-CHA_13
 70
     0
  0
APPID
  2
ASM_EXPLO_VER_2_00
 70
     0
  0
APPID
  2
ASM_CADM_VER_12_00
 70
     0
  0
APPID
  2
ASM_BASEFORO
 70
     0
  0
APPID
  2
ASM_BASETRAVI
 70
     0
  0
APPID
  2
ASM_BASETRAVI1
 70
     0
  0
APPID
  2
ASM_GRUPPI
 70
     0
  0
APPID
  2
ASM_CADM_ALBERO
 70
     0
  0
APPID
  2
ASM_GOLE
 70
     0
  0
APPID
  2
GENIUS_GENCFG_13
 70
     0
  0
APPID
  2
GENIUS_GENCFG0_13
 70
     0
  0
APPID
  2
GENIUS_GENCFG1_13
 70
     0
  0
APPID
  2
GENIUS_GENCFG2_13
 70
     0
  0
APPID
  2
GENIUS_GENCFG3_13
 70
     0
  0
APPID
  2
GENIUS_GENCFG4_13
 70
     0
  0
APPID
  2
GENIUS_GEVCFG0_13
 70
     0
  0
APPID
  2
GENIUS_GENHATCH_13
 70
     0
  0
APPID
  2
GENIUS_GEFCFG0_13
 70
     0
  0
APPID
  2
GENIUS_GENOBJ-N-HTC_13
 70
     0
  0
APPID
  2
DCO15
 70
     0
  0
APPID
  2
AVE_RENDER
 70
     0
  0
APPID
  2
AVE_ENTITY_MATERIAL
 70
     0
  0
APPID
  2
AVE_FINISH
 70
     0
  0
APPID
  2
AVE_MATERIAL
 70
     0
  0
APPID
  2
AVE_GLOBAL
 70
     0
  0
APPID
  2
_NUM
 70
     0
  0
APPID
  2
HAKO_FNM
 70
     0
  0
APPID
  2
_CALL_MAC$
 70
     0
  0
APPID
  2
ACA_CADIMENU
 70
     0
  0
APPID
  2
AUTOCAD_POSTSCRIPT_FIGURE
 70
     0
  0
APPID
  2
GEV_VCCNULL_SWITCH_OFF
 70
     0
  0
APPID
  2
GENIUS_GENDTOL_13
 70
     0
  0
APPID
  2
GENIUS_GEFWELD_13
 70
     0
  0
APPID
  2
GENIUS_GENOBJ-F-WELS_13
 70
     0
  0
APPID
  2
GEVID961514679
 70
     0
  0
APPID
  2
GEVDC
 70
     0
  0
APPID
  2
GEVPT
 70
     0
  0
APPID
  2
GEVIT
 70
     0
  0
APPID
  2
VCC
 70
     0
  0
APPID
  2
GENBH
 70
     0
  0
APPID
  2
GEVMK
 70
     0
  0
APPID
  2
GENIUS_GENBH_13
 70
     0
  0
APPID
  2
GENIUS_GENOBJ-NBEHI-BHF_13
 70
     0
  0
APPID
  2
GENIUS_GENOBJ-NBEHI-BHB_13
 70
     0
  0
APPID
  2
GENIUS_GENOBJ-F-DESC_13
 70
     0
  0
APPID
  2
GENIUS_GEFDESC_14
 70
     0
  0
APPID
  2
GENIUS_GENOBJ-F-PART_13
 70
     0
  0
APPID
  2
GENIUS_GEFSTDP_13
 70
     0
  0
APPID
  2
GENIUS_GEFPARTINS_13
 70
     0
  0
APPID
  2
GEVID961514680
 70
     0
  0
APPID
  2
GENIUS_GENTRA_14
 70
     0
  0
APPID
  2
GENIUS_GENINF13_13
 70
     0
  0
APPID
  2
GENIUS_GENOBJ-N-INFOPT_13
 70
     0
  0
APPID
  2
GENIUS_GENSCSYM_13
 70
     0
  0
APPID
  2
GENIUS_GEFINFNAM_13
 70
     0
  0
APPID
  2
GENIUS_GENREC_14
 70
     0
  0
APPID
  2
GENIUS_GENOBJ-N-REC_13
 70
     0
  0
APPID
  2
GEVID962097543
 70
     0
  0
APPID
  2
GEVID962097544
 70
     0
  0
APPID
  2
GEVID962097545
 70
     0
  0
APPID
  2
GENIUS_DUMCFG0_13
 70
     0
  0
APPID
  2
GEVID962352965
 70
     0
  0
APPID
  2
GEVID962352966
 70
     0
  0
APPID
  2
GEVID962352968
 70
     0
  0
APPID
  2
GEVRADREF
 70
     0
  0
APPID
  2
GEVID963230099
 70
     0
  0
APPID
  2
GENIUS_GENOBJ-F-FEAT_13
 70
     0
  0
APPID
  2
GENIUS_GEFFEAT_14
 70
     0
  0
APPID
  2
GEVID963230100
 70
     0
  0
APPID
  2
GEVID963230101
 70
     0
  0
APPID
  2
GENIUS_GENHINW_13
 70
     0
  0
APPID
  2
GENIUS_FIRSTVISTXT_14
 70
     0
  0
APPID
  2
GEVID971698136
 70
     0
  0
APPID
  2
GEVID972029070
 70
     0
  0
APPID
  2
MCAD_NO_VIS
 70
     0
  0
APPID
  2
ACAD_TEMP_GRAPHIC
 70
     0
  0
APPID
  2
ACATTRIBSERVICES
 70
     0
  0
APPID
  2
GENIUS_GENDIMSH_14
 70
     0
  0
APPID
  2
CONTENTTABDATA
 70
     0
  0
APPID
  2
CONTENTCURRENTTAB
 70
     0
  0
APPID
  2
GENIUS_GENBLKED_14
 70
     0
  0
APPID
  2
GENIUS_GEFINERT_13
 70
     0
  0
APPID
  2
GENIUS_GENOBJ-F-INER_13
 70
     0
  0
APPID
  2
GENIUS_GENOBJ-F-TOL_13
 70
     0
  0
APPID
  2
GENIUS_GENREC_13
 70
     0
  0
APPID
  2
GENIUS_GENOBJ-N-CEN_13
 70
     0
  0
APPID
  2
_KTH
 70
     0
  0
APPID
  2
ACAD_MLEADERVER
 70
     0
  0
APPID
  2
ACAD_NAV_VCDISPLAY
 70
     0
  0
ENDTAB
  0
TABLE
  2
DIMSTYLE
 70
     1
  0
DIMSTYLE
  2
STANDARD
 70
     0
  3

  4

  5

  6

  7

 40
1.0
 41
0.18
 42
0.0625
 43
0.38
 44
0.18
 45
0.0
 46
0.0
 47
0.0
 48
0.0
140
0.18
141
0.09
142
0.0
143
25.399999999999999
144
1.0
145
0.0
146
1.0
147
0.09
 71
     0
 72
     0
 73
     1
 74
     1
 75
     0
 76
     0
 77
     0
 78
     0
170
     0
171
     2
172
     0
173
     0
174
     0
175
     0
176
     0
177
     0
178
     0
  0
ENDTAB
  0
ENDSEC
  0
SECTION
  2
BLOCKS
  0
BLOCK
  8
0
  2
$MODEL_SPACE
 70
     0
 10
0.0
 20
0.0
 30
0.0
  3
$MODEL_SPACE
  1

  0
ENDBLK
  5
3E9
  8
0
  0
BLOCK
 67
     1
  8
0
  2
$PAPER_SPACE
 70
     0
 10
0.0
 20
0.0
 30
0.0
  3
$PAPER_SPACE
  1

  0
ENDBLK
  5
3E7
 67
     1
  8
0
  0
ENDSEC
  0
SECTION
  2
ENTITIES
  0
LINE
  5
359
  8
1
 10
60.674621459169273
 20
22.76804434950488
 30
0.0
 11
60.674621459169273
 21
40.635415154245322
 31
0.0
  0
LINE
  5
35B
  8
0
 10
81.480449252231153
 20
36.096547559440872
 30
0.0
 11
106.4804492522311
 21
36.096547559440872
 31
0.0
  0
LINE
  5
35C
  8
0
 10
81.480449252231153
 20
27.40960506802443
 30
0.0
 11
106.4804492522311
 21
27.40960506802443
 31
0.0
  0
LINE
  5
375
  8
0
 10
81.480449252231153
 20
35.124061351043707
 30
0.0
 11
106.4804492522312
 21
35.124061351043721
 31
0.0
  0
LINE
  5
376
  8
3
 10
81.480449252231153
 20
33.8835502394709
 30
0.0
 11
106.4804492522311
 21
33.883550239470942
 31
0.0
  0
LINE
  5
377
  8
3
 10
81.480449252231153
 20
31.341946709886429
 30
0.0
 11
106.4804492522312
 21
31.341946709886361
 31
0.0
  0
LINE
  5
378
  8
0
 10
81.480449252231153
 20
36.096547559440872
 30
0.0
 11
81.480449252231153
 21
27.40960506802443
 31
0.0
  0
LINE
  5
37B
  8
0
 10
106.4804492522311
 20
36.096547559440872
 30
0.0
 11
106.4804492522311
 21
27.40960506802443
 31
0.0
  0
LINE
  5
37C
  8
0
 10
14.7481389206194
 20
27.40960506802443
 30
0.0
 11
39.748138920619397
 21
27.40960506802443
 31
0.0
  0
LINE
  5
380
  8
0
 10
14.748138920619409
 20
36.096547559440872
 30
0.0
 11
39.748138920619397
 21
36.096547559440872
 31
0.0
  0
LINE
  5
381
  8
0
 10
14.7481389206194
 20
36.096547559440872
 30
0.0
 11
14.7481389206194
 21
27.40960506802443
 31
0.0
  0
LINE
  5
39A
  8
0
 10
39.748138920619397
 20
36.096547559440872
 30
0.0
 11
39.748138920619397
 21
27.40960506802443
 31
0.0
  0
LINE
  5
39B
  8
0
 10
14.7481389206194
 20
31.23663395959527
 30
0.0
 11
39.748138920619397
 21
31.236633959595249
 31
0.0
  0
LINE
  5
39C
  8
0
 10
14.7481389206194
 20
34.233227212330988
 30
0.0
 11
39.748138920619397
 21
34.233227212330988
 31
0.0
  0
LINE
  5
39D
  8
0
 10
64.174621459169344
 20
52.392447705713067
 30
0.0
 11
64.17462145916933
 21
77.392447705713082
 31
0.0
  0
LINE
  5
39E
  8
0
 10
57.174621459169252
 20
52.392447705713067
 30
0.0
 11
57.174621459169252
 21
77.392447705713082
 31
0.0
  0
LINE
  5
3A0
  8
0
 10
57.174621459169252
 20
52.392447705713103
 30
0.0
 11
64.174621459169344
 21
52.392447705713067
 31
0.0
  0
LINE
  5
3A1
  8
0
 10
57.174621459169323
 20
77.392447705713096
 30
0.0
 11
64.17462145916933
 21
77.392447705713082
 31
0.0
  0
ARC
  5
658
  8
DICHTPROFIL_6_2-
  6
CONTINUOUS
 62
     7
 10
63.974621459169299
 20
35.317246516301481
 30
0.0
 40
0.2000000000000001
 50
285.0000000000025
 51
0.0
  0
LINE
  5
659
  8
DICHTPROFIL_6_2-
  6
CONTINUOUS
 62
     7
 10
64.174621459169344
 20
35.317246516301481
 30
0.0
 11
64.174621459169344
 21
35.49654755944087
 31
0.0
  0
ARC
  5
65A
  8
DICHTPROFIL_6_2-
  6
CONTINUOUS
 62
     7
 10
63.574621459169322
 20
35.49654755944087
 30
0.0
 40
0.5999999999999999
 50
0.0
 51
98.999999999998721
  0
LINE
  5
65B
  8
DICHTPROFIL_6_2-
  6
CONTINUOUS
 62
     7
 10
64.026385268189784
 20
35.124061351043707
 30
0.0
 11
61.015802414066741
 21
34.344173025777557
 31
0.0
  0
LINE
  5
65C
  8
DICHTPROFIL_6_2-
  6
CONTINUOUS
 62
     7
 10
58.674621459169259
 20
31.436633959595191
 30
0.0
 11
58.674621459169259
 21
33.265784393482733
 31
0.0
  0
LINE
  5
65D
  8
DICHTPROFIL_6_2-
  6
CONTINUOUS
 62
     7
 10
60.274621459169282
 20
33.37824719948847
 30
0.0
 11
60.274621459169282
 21
31.521130684659081
 31
0.0
  0
ARC
  5
65E
  8
DICHTPROFIL_6_2-
  6
CONTINUOUS
 62
     7
 10
60.774621459169282
 20
31.521130684659081
 30
0.0
 40
0.5
 50
180.0
 51
222.00000000000159
  0
ARC
  5
65F
  8
DICHTPROFIL_6_2-
  6
CONTINUOUS
 62
     7
 10
58.47462145916932
 20
31.436633959595191
 30
0.0
 40
0.1999999999999999
 50
270.0
 51
0.0
  0
LINE
  5
660
  8
DICHTPROFIL_6_2-
  6
CONTINUOUS
 62
     7
 10
58.274621459169282
 20
31.236633959595249
 30
0.0
 11
58.47462145916932
 21
31.236633959595249
 31
0.0
  0
ARC
  5
661
  8
DICHTPROFIL_6_2-
  6
CONTINUOUS
 62
     7
 10
58.274621459169282
 20
30.936633959595191
 30
0.0
 40
0.3
 50
90.0
 51
231.1755069366952
  0
LINE
  5
662
  8
DICHTPROFIL_6_2-
  6
CONTINUOUS
 62
     7
 10
57.518186994129053
 20
34.25347273407786
 30
0.0
 11
57.405908352177391
 21
34.235689544211851
 31
0.0
  0
ARC
  5
663
  8
DICHTPROFIL_6_2-
  6
CONTINUOUS
 62
     7
 10
57.374621459169298
 20
34.433227212330991
 30
0.0
 40
0.2000000000000001
 50
180.0
 51
279.00000000000159
  0
ARC
  5
664
  8
DICHTPROFIL_6_2-
  6
CONTINUOUS
 62
     7
 10
57.774621459169282
 20
34.593756249591053
 30
0.0
 40
0.5999999999999999
 50
98.999999999998721
 51
180.0
  0
LINE
  5
665
  8
DICHTPROFIL_6_2-
  6
CONTINUOUS
 62
     7
 10
57.174621459169252
 20
34.593756249591053
 30
0.0
 11
57.174621459169252
 21
34.433227212330877
 31
0.0
  0
ARC
  5
666
  8
DICHTPROFIL_6_2-
  6
CONTINUOUS
 62
     7
 10
57.674621459169259
 20
33.265784393482733
 30
0.0
 40
0.9999999999999998
 50
0.0
 51
99.000000000001862
  0
ARC
  5
667
  8
DICHTPROFIL_6_2-
  6
CONTINUOUS
 62
     7
 10
61.274621459169282
 20
33.37824719948847
 30
0.0
 40
1.0
 50
105.00000000000109
 51
180.0
  0
LINE
  5
668
  8
DICHTPROFIL_6_2-
  6
CONTINUOUS
 62
     7
 10
57.680760780145128
 20
35.186369253948129
 30
0.0
 11
63.480760780145182
 21
36.089160563797947
 31
0.0
  0
ARC
  5
669
  8
DICHTPROFIL_6_2-
  6
CONTINUOUS
 62
     7
 10
63.229727742356687
 20
27.954498784836989
 30
0.0
 40
0.5448937168125515
 50
231.1755069366954
 51
42.00000000000162
  0
LINE
  5
66A
  8
DICHTPROFIL_6_2-
  6
CONTINUOUS
 62
     7
 10
60.403049046430567
 20
31.1865653814796
 30
0.0
 11
63.634662688441182
 21
28.319103847968861
 31
0.0
  0
LINE
  5
66B
  8
DICHTPROFIL_6_2-
  6
CONTINUOUS
 62
     7
 10
62.888113759762433
 20
27.52998842039592
 30
0.0
 11
58.086540386445961
 21
30.702912950519728
 31
0.0
  0
LINE
  5
6AD
  8
1
 10
60.674621459169273
 20
47.750886987193532
 30
0.0
 11
60.674621459169309
 21
82.392447705713096
 31
0.0
  0
TEXT
  5
76E
  8
0
 62
     3
 10
0.0
 20
0.0
 30
0.0
 40
10.0
  1
L6-PCPL2-4-20M
  7
STANDARD1
  0
ENDSEC
  0
EOF
