  0
SECTION
  2
HEADER
  9
$ACADVER
  1
AC1009
  9
$INSBASE
 10
0.0
 20
0.0
 30
0.0
  9
$EXTMIN
 10
0.0
 20
-2.960436562073669
 30
0.0
  9
$EXTMAX
 10
235.70227033053479
 20
234.9480520802739
 30
0.0
  9
$LIMMIN
 10
0.0
 20
0.0
  9
$LIMMAX
 10
375.0
 20
270.0
  9
$ORTHOMODE
 70
     1
  9
$REGENMODE
 70
     1
  9
$FILLMODE
 70
     1
  9
$QTEXTMODE
 70
     0
  9
$MIRRTEXT
 70
     0
  9
$DRAGMODE
 70
     2
  9
$LTSCALE
 40
5.0
  9
$OSMODE
 70
  3071
  9
$ATTMODE
 70
     1
  9
$TEXTSIZE
 40
4.000000000000048
  9
$TRACEWID
 40
0.05
  9
$TEXTSTYLE
  7
STANDARD
  9
$CLAYER
  8
0
  9
$CELTYPE
  6
BYLAYER
  9
$CECOLOR
 62
   256
  9
$DIMSCALE
 40
1.0
  9
$DIMASZ
 40
3.0
  9
$DIMEXO
 40
2.0
  9
$DIMDLI
 40
0.38
  9
$DIMRND
 40
0.0
  9
$DIMDLE
 40
0.0
  9
$DIMEXE
 40
2.0
  9
$DIMTP
 40
0.0
  9
$DIMTM
 40
0.0
  9
$DIMTXT
 40
3.2000000000000002
  9
$DIMCEN
 40
0.0
  9
$DIMTSZ
 40
0.0
  9
$DIMTOL
 70
     0
  9
$DIMLIM
 70
     0
  9
$DIMTIH
 70
     0
  9
$DIMTOH
 70
     0
  9
$DIMSE1
 70
     0
  9
$DIMSE2
 70
     0
  9
$DIMTAD
 70
     1
  9
$DIMZIN
 70
     0
  9
$DIMBLK
  1

  9
$DIMASO
 70
     0
  9
$DIMSHO
 70
     0
  9
$DIMPOST
  1

  9
$DIMAPOST
  1

  9
$DIMALT
 70
     0
  9
$DIMALTD
 70
     2
  9
$DIMALTF
 40
25.399999999999999
  9
$DIMLFAC
 40
1.0
  9
$DIMTOFL
 70
     0
  9
$DIMTVP
 40
1.6000000000000001
  9
$DIMTIX
 70
     1
  9
$DIMSOXD
 70
     0
  9
$DIMSAH
 70
     0
  9
$DIMBLK1
  1

  9
$DIMBLK2
  1

  9
$DIMSTYLE
  2
STANDARD
  9
$DIMCLRD
 70
     4
  9
$DIMCLRE
 70
     4
  9
$DIMCLRT
 70
     4
  9
$DIMTFAC
 40
1.0
  9
$DIMGAP
 40
0.09
  9
$LUNITS
 70
     2
  9
$LUPREC
 70
     1
  9
$SKETCHINC
 40
0.1
  9
$FILLETRAD
 40
0.0
  9
$AUNITS
 70
     0
  9
$AUPREC
 70
     0
  9
$MENU
  1
E:\r13\win\SUPPORT\ACAD
  9
$ELEVATION
 40
0.0
  9
$PELEVATION
 40
0.0
  9
$THICKNESS
 40
0.0
  9
$LIMCHECK
 70
     0
  9
$BLIPMODE
 70
     0
  9
$CHAMFERA
 40
1.1999999999999991
  9
$CHAMFERB
 40
1.1999999999999991
  9
$SKPOLY
 70
     0
  9
$TDCREATE
 40
2450759.6910987268
  9
$TDUPDATE
 40
2456597.5622738432
  9
$TDINDWG
 40
0.094630625
  9
$TDUSRTIMER
 40
0.094630625
  9
$USRTIMER
 70
     1
  9
$ANGBASE
 50
0.0
  9
$ANGDIR
 70
     0
  9
$PDMODE
 70
     0
  9
$PDSIZE
 40
0.0
  9
$PLINEWID
 40
0.0
  9
$COORDS
 70
     1
  9
$SPLFRAME
 70
     0
  9
$SPLINETYPE
 70
     6
  9
$SPLINESEGS
 70
     8
  9
$ATTDIA
 70
     0
  9
$ATTREQ
 70
     1
  9
$HANDLING
 70
     1
  9
$HANDSEED
  5
C8D
  9
$SURFTAB1
 70
     6
  9
$SURFTAB2
 70
     6
  9
$SURFTYPE
 70
     6
  9
$SURFU
 70
     6
  9
$SURFV
 70
     6
  9
$UCSNAME
  2

  9
$UCSORG
 10
0.0
 20
0.0
 30
0.0
  9
$UCSXDIR
 10
1.0
 20
0.0
 30
0.0
  9
$UCSYDIR
 10
0.0
 20
1.0
 30
0.0
  9
$PUCSNAME
  2

  9
$PUCSORG
 10
0.0
 20
0.0
 30
0.0
  9
$PUCSXDIR
 10
1.0
 20
0.0
 30
0.0
  9
$PUCSYDIR
 10
0.0
 20
1.0
 30
0.0
  9
$USERI1
 70
     0
  9
$USERI2
 70
     1
  9
$USERI3
 70
     0
  9
$USERI4
 70
     0
  9
$USERI5
 70
     0
  9
$USERR1
 40
0.0
  9
$USERR2
 40
0.0
  9
$USERR3
 40
0.0
  9
$USERR4
 40
0.0
  9
$USERR5
 40
0.0
  9
$WORLDVIEW
 70
     1
  9
$SHADEDGE
 70
     3
  9
$SHADEDIF
 70
    70
  9
$TILEMODE
 70
     1
  9
$MAXACTVP
 70
    16
  9
$PLIMCHECK
 70
     0
  9
$PEXTMIN
 10
1.0000000000000000E+020
 20
1.0000000000000000E+020
 30
1.0000000000000000E+020
  9
$PEXTMAX
 10
-1.0000000000000000E+020
 20
-1.0000000000000000E+020
 30
-1.0000000000000000E+020
  9
$PLIMMIN
 10
0.0
 20
0.0
  9
$PLIMMAX
 10
12.0
 20
9.0
  9
$UNITMODE
 70
     0
  9
$VISRETAIN
 70
     0
  9
$PLINEGEN
 70
     0
  9
$PSLTSCALE
 70
     0
  0
ENDSEC
  0
SECTION
  2
TABLES
  0
TABLE
  2
VPORT
 70
     1
  0
VPORT
  2
*ACTIVE
 70
     0
 10
0.0
 20
0.0
 11
1.0
 21
1.0
 12
187.49427839065231
 22
162.8616388594717
 13
0.0
 23
0.0
 14
10.0
 24
10.0
 15
10.0
 25
10.0
 16
0.0
 26
0.0
 36
1.0
 17
0.0
 27
0.0
 37
0.0
 40
334.81001162774987
 41
1.9089595375722539
 42
50.0
 43
0.0
 44
0.0
 50
0.0
 51
0.0
 71
     0
 72
   500
 73
     1
 74
     0
 75
     0
 76
     0
 77
     0
 78
     2
  0
ENDTAB
  0
TABLE
  2
LTYPE
 70
     3
  0
LTYPE
  2
CONTINUOUS
 70
     0
  3
Solid Line
 72
    65
 73
     0
 40
0.0
  0
LTYPE
  2
CENTER
 70
     0
  3
____ _ ____ _ ____ _ ____ _ ____ _ ____ _ ____
 72
    65
 73
     4
 40
2.0
 49
1.25
 49
-0.25
 49
0.25
 49
-0.25
  0
LTYPE
  2
PHANTOM2
 70
     0
  3
___ _ _ ___ _ _ ___ _ _ ___ _ _
 72
    65
 73
     6
 40
1.25
 49
0.625
 49
-0.125
 49
0.125
 49
-0.125
 49
0.125
 49
-0.125
  0
ENDTAB
  0
TABLE
  2
LAYER
 70
     1
  0
LAYER
  2
0
 70
     0
 62
     7
  6
CONTINUOUS
  0
ENDTAB
  0
TABLE
  2
STYLE
 70
     2
  0
STYLE
  2
STANDARD
 70
     0
 40
0.0
 41
1.0
 50
0.0
 71
     0
 42
4.000000000000048
  3
SIMPLEX
  4
BIGFONT
  0
STYLE
  2
STANDARD1
 70
     0
 40
0.0
 41
1.0
 50
0.0
 71
     0
 42
3.0
  3
txt
  4

  0
ENDTAB
  0
TABLE
  2
VIEW
 70
     2
  0
VIEW
  2
ALL
 70
     0
 40
270.0
 10
220.78595317725751
 20
135.0
 41
441.57190635451502
 11
0.0
 21
0.0
 31
1.0
 12
0.0
 22
0.0
 32
0.0
 42
50.0
 43
0.0
 44
0.0
 50
0.0
 71
     0
  0
VIEW
  2
OLE1
 70
     0
 40
278.2076202151523
 10
135.9803802420231
 20
192.0694854173791
 41
411.65680389559128
 11
0.0
 21
0.0
 31
1.0
 12
0.0
 22
0.0
 32
0.0
 42
50.0
 43
0.0
 44
0.0
 50
0.0
 71
     0
  0
ENDTAB
  0
TABLE
  2
UCS
 70
     0
  0
ENDTAB
  0
TABLE
  2
APPID
 70
     4
  0
APPID
  2
ACAD
 70
     0
  0
APPID
  2
CCLAB
 70
     0
  0
APPID
  2
ACAD_MLEADERVER
 70
     0
  0
APPID
  2
ACAD_NAV_VCDISPLAY
 70
     0
  0
ENDTAB
  0
TABLE
  2
DIMSTYLE
 70
     1
  0
DIMSTYLE
  2
STANDARD
 70
     0
  3

  4

  5

  6

  7

 40
1.0
 41
0.18
 42
0.0625
 43
0.38
 44
0.18
 45
0.0
 46
0.0
 47
0.0
 48
0.0
140
0.18
141
0.09
142
0.0
143
25.399999999999999
144
1.0
145
0.0
146
1.0
147
0.09
 71
     0
 72
     0
 73
     1
 74
     1
 75
     0
 76
     0
 77
     0
 78
     0
170
     0
171
     2
172
     0
173
     0
174
     0
175
     0
176
     0
177
     0
178
     0
  0
ENDTAB
  0
ENDSEC
  0
SECTION
  2
BLOCKS
  0
BLOCK
  8
0
  2
$MODEL_SPACE
 70
     0
 10
0.0
 20
0.0
 30
0.0
  3
$MODEL_SPACE
  1

  0
ENDBLK
  5
105
  8
0
  0
BLOCK
 67
     1
  8
0
  2
$PAPER_SPACE
 70
     0
 10
0.0
 20
0.0
 30
0.0
  3
$PAPER_SPACE
  1

  0
ENDBLK
  5
103
 67
     1
  8
0
  0
ENDSEC
  0
SECTION
  2
ENTITIES
  0
LINE
  5
654
  8
0
  6
CONTINUOUS
 62
     7
 10
119.20179758263539
 20
132.43150709724279
 30
0.0
 11
129.56878671837751
 21
132.43150709724279
 31
0.0
  0
LINE
  5
6AE
  8
0
  6
CONTINUOUS
 62
     7
 10
133.74257860375349
 20
122.3550824985489
 30
0.0
 11
126.4120102901549
 21
115.02451466178751
 31
0.0
  0
LINE
  5
718
  8
0
  6
CONTINUOUS
 62
     7
 10
135.99710474205921
 20
134.46416662788241
 30
0.0
 11
135.99710474205921
 21
148.6545104846939
 31
0.0
  0
LINE
  5
762
  8
0
  6
CONTINUOUS
 62
     7
 10
149.75948057366321
 20
115.4291951522812
 30
0.0
 11
139.72539243889759
 21
125.4632825717911
 31
0.0
  0
LINE
  5
7EC
  8
0
  6
CONTINUOUS
 62
     7
 10
124.3949528713316
 20
139.50157927131499
 30
0.0
 11
123.5464230556578
 21
140.35010717964019
 31
0.0
  0
LINE
  5
810
  8
0
  6
CONTINUOUS
 62
     7
 10
122.11266718102399
 20
136.08792303657381
 30
0.0
 11
124.3949528713316
 21
138.3702087268814
 31
0.0
  0
LINE
  5
834
  8
0
  6
CONTINUOUS
 62
     7
 10
128.67068872643421
 20
134.34264372443999
 30
0.0
 11
122.8355847377867
 21
134.34264372443999
 31
0.0
  0
LINE
  5
848
  8
0
  6
CONTINUOUS
 62
     7
 10
133.05927095604841
 20
137.4885864124283
 30
0.0
 11
130.79200754357279
 21
135.22132299995269
 31
0.0
  0
LINE
  5
85C
  8
0
  6
CONTINUOUS
 62
     7
 10
133.9379502315611
 20
145.4450073108658
 30
0.0
 11
133.9379502315611
 21
139.609905229567
 31
0.0
  0
LINE
  5
880
  8
0
  6
CONTINUOUS
 62
     7
 10
129.9103852291197
 20
143.88564299201821
 30
0.0
 11
132.19267091942729
 21
146.1679267749771
 31
0.0
  0
LINE
  5
8A4
  8
0
  6
CONTINUOUS
 62
     7
 10
127.93048677636089
 20
144.73416899299471
 30
0.0
 11
128.7790146846861
 21
143.88564299201821
 31
0.0
  0
LINE
  5
8C8
  8
0
  6
CONTINUOUS
 62
     7
 10
133.51249958391739
 20
151.73009743470641
 30
0.0
 11
127.9160710353941
 21
146.13367079353179
 31
0.0
  0
LINE
  5
8C9
  8
0
  6
CONTINUOUS
 62
     7
 10
122.146925069818
 20
140.36452292060699
 30
0.0
 11
116.5259858150572
 21
134.7435836658463
 31
0.0
  0
LINE
  5
903
  8
0
  6
CONTINUOUS
 62
     7
 10
126.15143976403181
 20
111.5056838755729
 30
0.0
 11
134.18808565331409
 21
111.5056838755729
 31
0.0
  0
LINE
  5
927
  8
0
  6
CONTINUOUS
 62
     7
 10
135.18808565331409
 20
112.50568388557279
 30
0.0
 11
135.18808565331409
 21
113.70568393325659
 31
0.0
  0
LINE
  5
94B
  8
0
  6
CONTINUOUS
 62
     7
 10
134.38808641625349
 20
114.50568388557279
 30
0.0
 11
131.160446264276
 21
114.50568388557279
 31
0.0
  0
LINE
  5
96F
  8
0
  6
CONTINUOUS
 62
     7
 10
130.43752870751331
 20
116.2509636745438
 30
0.0
 11
134.5635701198668
 21
120.3770046100602
 31
0.0
  0
LINE
  5
983
  8
0
  6
CONTINUOUS
 62
     7
 10
136.6848889370055
 20
121.25568388557291
 30
0.0
 11
139.89128217888779
 21
121.25568388557291
 31
0.0
  0
LINE
  5
997
  8
0
  6
CONTINUOUS
 62
     7
 10
142.0126029033751
 20
120.3770046100602
 30
0.0
 11
146.1386433620543
 21
116.2509636745438
 31
0.0
  0
LINE
  5
9BB
  8
0
  6
CONTINUOUS
 62
     7
 10
145.41572485161731
 20
114.50568388557279
 30
0.0
 11
142.18808565331409
 21
114.50568388557279
 31
0.0
  0
LINE
  5
9DF
  8
0
  6
CONTINUOUS
 62
     7
 10
141.38808641625349
 20
113.70568393325659
 30
0.0
 11
141.38808641625349
 21
112.50568388557279
 31
0.0
  0
LINE
  5
A03
  8
0
  6
CONTINUOUS
 62
     7
 10
142.38808641625349
 20
111.5056838755729
 30
0.0
 11
150.17399723155381
 21
111.5056838844791
 31
0.0
  0
LINE
  5
AAC
  8
0
  6
CENTER
 62
     1
 10
153.34025562508521
 20
136.38010698047299
 30
0.0
 11
116.3850743271754
 21
121.0727696797333
 31
0.0
  0
ARC
  5
AAF
  8
0
  6
CENTER
 62
     1
 10
93.288086015981833
 20
111.5056838667708
 30
0.0
 40
45.0
 50
353.62062980107078
 51
51.379370208442879
  0
ARC
  5
AB1
  8
0
  6
CONTINUOUS
 62
     7
 10
93.288085933516754
 20
111.50568381946999
 30
0.0
 40
30.000000093638889
 50
5.2158892901472482
 51
39.784110750286132
  0
ARC
  5
ABB
  8
0
  6
CONTINUOUS
 62
     7
 10
118.6560169339534
 20
132.62186683314539
 30
0.0
 40
3.0064455567384201
 50
135.11204166071599
 51
219.6718637606354
  0
ARC
  5
AC1
  8
0
  6
CONTINUOUS
 62
     7
 10
126.1573181682223
 20
114.5121236760009
 30
0.0
 40
3.0064455567384201
 50
185.32813627979769
 51
269.88795837971719
  0
CIRCLE
  5
AC3
  8
0
  6
CONTINUOUS
 62
     7
 10
134.86266497756
 20
128.72643832665139
 30
0.0
 40
2.5
  0
ARC
  5
AC4
  8
0
  6
CONTINUOUS
 62
     7
 10
93.258033222944221
 20
111.50568386676581
 30
0.0
 40
32.037323040034728
 50
7.0524946365470402
 51
37.689302410153651
  0
ARC
  5
AC5
  8
0
  6
CONTINUOUS
 62
     7
 10
93.288086015981719
 20
111.5056838667708
 30
0.0
 40
58.010398400227061
 50
4.4489002831078359
 51
40.513963675385469
  0
ARC
  5
AC6
  8
0
  6
CONTINUOUS
 62
     7
 10
136.79706378515769
 20
148.6545738724447
 30
0.0
 40
0.7999590456100167
 50
42.127570925965983
 51
180.00454004566529
  0
ARC
  5
AC8
  8
0
  6
CONTINUOUS
 62
     7
 10
150.31902341620781
 20
116.0047365166332
 30
0.0
 40
0.8027054595074364
 50
225.80750580461071
 51
2.622681526177435
  0
ARC
  5
ACB
  8
0
  6
CONTINUOUS
 62
     7
 10
119.2024801720539
 20
131.6311462713592
 30
0.0
 40
0.8003611169574181
 50
90.048864814567651
 51
222.28579033053811
  0
ARC
  5
ACE
  8
0
  6
CONTINUOUS
 62
     7
 10
125.84159668407111
 20
115.6053921748513
 30
0.0
 40
0.8059566898255463
 50
191.9012237642157
 51
314.7136380939782
  0
ARC
  5
AD0
  8
0
  6
CONTINUOUS
 62
     7
 10
134.86266497756
 20
128.72643832665139
 30
0.0
 40
5.26116938850934
 50
149.3378158978249
 51
255.66218408430819
  0
ARC
  5
AD2
  8
0
  6
CONTINUOUS
 62
     7
 10
129.5689759947177
 20
131.63187634679969
 30
0.0
 40
0.7996307728444118
 50
343.85358600307222
 51
90.013562178844879
  0
ARC
  5
AD3
  8
0
  6
CONTINUOUS
 62
     7
 10
133.173916524856
 20
122.9287800235536
 30
0.0
 40
0.7996307728444118
 50
314.9864378032907
 51
61.146413979063418
  0
ARC
  5
AD5
  8
0
  6
CONTINUOUS
 62
     7
 10
136.7960036043655
 20
134.46383121748951
 30
0.0
 40
0.7988989327158089
 50
179.97594489153411
 51
245.0004659584755
  0
ARC
  5
AD6
  8
0
  6
CONTINUOUS
 62
     7
 10
140.286691248381
 20
126.0365657692569
 30
0.0
 40
0.7988989327158089
 50
159.99953406055189
 51
225.0240551274932
  0
ARC
  5
AD7
  8
0
  6
CONTINUOUS
 62
     7
 10
134.86266497756
 20
128.72643832665139
 30
0.0
 40
5.26116938850934
 50
332.65594589411683
 51
72.344053694810356
  0
ARC
  5
ADC
  8
0
  6
CONTINUOUS
 62
     7
 10
122.8393161901449
 20
139.6430036666363
 30
0.0
 40
0.9999977486764835
 50
44.999864175357139
 51
133.81980985956841
  0
ARC
  5
ADD
  8
0
  6
CONTINUOUS
 62
     7
 10
123.8292630806105
 20
138.93589399909831
 30
0.0
 40
0.8000029790751405
 50
315.00022882882757
 51
44.999771171172391
  0
ARC
  5
ADE
  8
0
  6
CONTINUOUS
 62
     7
 10
122.8355840854487
 20
135.36500407193699
 30
0.0
 40
1.0223603474971881
 50
134.9999183576378
 51
270.0000365587432
  0
ARC
  5
ADF
  8
0
  6
CONTINUOUS
 62
     7
 10
128.67068974977161
 20
137.34263848842039
 30
0.0
 40
2.9999947639804851
 50
269.99998045566002
 51
315.00003113299613
  0
ARC
  5
AE0
  8
0
  6
CONTINUOUS
 62
     7
 10
128.63400967149821
 20
145.4412408632044
 30
0.0
 40
0.9974442809621605
 50
136.03617017550499
 51
225.14415257251881
  0
ARC
  5
AE1
  8
0
  6
CONTINUOUS
 62
     7
 10
129.3448880003204
 20
144.44730712438621
 30
0.0
 40
0.7970280505531374
 50
226.07616874332831
 51
315.19484291154657
  0
ARC
  5
AE2
  8
0
  6
CONTINUOUS
 62
     7
 10
132.9152307151509
 20
145.44414276140941
 30
0.0
 40
1.022719881830868
 50
0.0484346122626733
 51
134.95150357855849
  0
ARC
  5
AE3
  8
0
  6
CONTINUOUS
 62
     7
 10
130.9301539941996
 20
139.6131356832347
 30
0.0
 40
3.0077979721577641
 50
315.06152558850238
 51
359.93846282284483
  0
ARC
  5
AE5
  8
0
  6
CONTINUOUS
 62
     7
 10
136.68811939066799
 20
118.2478876482238
 30
0.0
 40
3.0077979721454451
 50
90.061537177056891
 51
134.93847441159551
  0
ARC
  5
AE6
  8
0
  6
CONTINUOUS
 62
     7
 10
131.16014005555019
 20
115.5275678409086
 30
0.0
 40
1.021884001213567
 50
136.89727793175541
 51
270.01716874701822
  0
ARC
  5
AE7
  8
0
  6
CONTINUOUS
 62
     7
 10
134.38756805298851
 20
113.7051663944024
 30
0.0
 40
0.8005176589996189
 50
0.0219369067384517
 51
89.962898970335957
  0
ARC
  5
AE8
  8
0
  6
CONTINUOUS
 62
     7
 10
134.18955680841671
 20
112.5042127304703
 30
0.0
 40
0.9985299286398415
 50
269.91558489488591
 51
0.0844151051100074
  0
ARC
  5
AE9
  8
0
  6
CONTINUOUS
 62
     7
 10
142.3863331522567
 20
112.5039306115935
 30
0.0
 40
0.9982482756862907
 50
179.8993684703091
 51
270.10063095672962
  0
ARC
  5
AEA
  8
0
  6
CONTINUOUS
 62
     7
 10
142.1877265488026
 20
113.7061070986725
 30
0.0
 40
0.7996402445175466
 50
88.49820001844499
 51
180.03032062689269
  0
ARC
  5
AEB
  8
0
  6
CONTINUOUS
 62
     7
 10
145.4145170290798
 20
115.5282866210225
 30
0.0
 40
1.023044998909302
 50
271.2212734543325
 51
44.942606183392471
  0
ARC
  5
AEC
  8
0
  6
CONTINUOUS
 62
     7
 10
139.8860883310594
 20
118.2484203136848
 30
0.0
 40
3.0088096206052191
 50
45.027869257021258
 51
91.958752283757363
  0
LINE
  5
AF5
  8
0
  6
CONTINUOUS
 62
     7
 10
115.6495713772149
 20
229.9480520802739
 30
0.0
 11
115.6495713772149
 21
179.9480520802739
 31
0.0
  0
LINE
  5
AF6
  8
0
  6
CONTINUOUS
 62
     7
 10
153.2022703305347
 20
229.9480520802739
 30
0.0
 11
153.2022703305347
 21
179.9480520802739
 31
0.0
  0
LINE
  5
AF7
  8
0
  6
CENTER
 62
     1
 10
134.8626649761303
 20
84.034273232069808
 30
0.0
 11
134.8626649761303
 21
24.034273232069811
 31
0.0
  0
LINE
  5
AF8
  8
0
  6
CONTINUOUS
 62
     7
 10
127.63656539053601
 20
229.9480520802739
 30
0.0
 11
127.63656539053601
 21
179.9480520802739
 31
0.0
  0
LINE
  5
AF9
  8
0
  6
CONTINUOUS
 62
     7
 10
124.62926605968561
 20
229.9480520802739
 30
0.0
 11
124.62926605968561
 21
179.9480520802739
 31
0.0
  0
LINE
  5
AFA
  8
0
  6
CONTINUOUS
 62
     7
 10
122.8393161901449
 20
229.9480520802739
 30
0.0
 11
122.8393161901449
 21
179.9480520802739
 31
0.0
  0
LINE
  5
AFB
  8
0
  6
CONTINUOUS
 62
     7
 10
153.2022703305347
 20
179.9480520802739
 30
0.0
 11
115.6495713772149
 21
179.9480520802739
 31
0.0
  0
LINE
  5
AFC
  8
0
  6
CONTINUOUS
 62
     7
 10
153.2022703305347
 20
229.9480520802739
 30
0.0
 11
115.6495713772149
 21
229.9480520802739
 31
0.0
  0
LINE
  5
AFD
  8
0
  6
CONTINUOUS
 62
     7
 10
153.2022703305347
 20
79.034273232069822
 30
0.0
 11
115.6495713772149
 21
79.034273232069822
 31
0.0
  0
LINE
  5
AFE
  8
0
  6
CONTINUOUS
 62
     7
 10
153.2022703305347
 20
29.034273232069811
 30
0.0
 11
115.6495713772149
 21
29.034273232069811
 31
0.0
  0
LINE
  5
B01
  8
0
  6
CONTINUOUS
 62
     7
 10
153.2022703305347
 20
79.034273232069822
 30
0.0
 11
153.2022703305347
 21
29.034273232069811
 31
0.0
  0
LINE
  5
B02
  8
0
  6
CONTINUOUS
 62
     7
 10
115.6495713772149
 20
79.034273232069822
 30
0.0
 11
115.6495713772149
 21
29.034273232069811
 31
0.0
  0
LINE
  5
B08
  8
0
  6
CONTINUOUS
 62
     7
 10
141.38808641625349
 20
79.034273232069822
 30
0.0
 11
141.38808641625349
 21
29.034273232069811
 31
0.0
  0
LINE
  5
B09
  8
0
  6
CONTINUOUS
 62
     7
 10
135.18808565331409
 20
79.034273232069822
 30
0.0
 11
135.18808565331409
 21
29.034273232069811
 31
0.0
  0
LINE
  5
B0A
  8
0
  6
CONTINUOUS
 62
     7
 10
124.1303765931621
 20
79.034273232069822
 30
0.0
 11
124.1303765931621
 21
29.034273232069811
 31
0.0
  0
LINE
  5
B0B
  8
0
  6
CONTINUOUS
 62
     7
 10
230.70227033053479
 20
152.63276943865799
 30
0.0
 11
180.7022703305347
 21
152.63276943865799
 31
0.0
  0
LINE
  5
B0C
  8
0
  6
CONTINUOUS
 62
     7
 10
230.70227033053479
 20
111.5056838755729
 30
0.0
 11
180.7022703305347
 21
111.5056838755729
 31
0.0
  0
LINE
  5
B10
  8
0
  6
CONTINUOUS
 62
     7
 10
180.7022703305347
 20
152.63276943865799
 30
0.0
 11
180.7022703305347
 21
111.5056838755729
 31
0.0
  0
LINE
  5
B11
  8
0
  6
CONTINUOUS
 62
     7
 10
230.70227033053479
 20
152.63276943865799
 30
0.0
 11
230.70227033053479
 21
111.5056838755729
 31
0.0
  0
LINE
  5
B12
  8
0
  6
CENTER
 62
     1
 10
235.70227033053479
 20
128.72643833010309
 30
0.0
 11
175.7022703305347
 21
128.72643833010309
 31
0.0
  0
LINE
  5
B13
  8
0
  6
CONTINUOUS
 62
     7
 10
39.023059621725793
 20
152.63276943865799
 30
0.0
 11
39.023059621725793
 21
111.5056838755729
 31
0.0
  0
LINE
  5
B14
  8
0
  6
CONTINUOUS
 62
     7
 10
89.023059621725849
 20
152.63276943865799
 30
0.0
 11
89.023059621725849
 21
111.5056838755729
 31
0.0
  0
LINE
  5
B15
  8
0
  6
CONTINUOUS
 62
     7
 10
39.023059621725793
 20
111.5056838755729
 30
0.0
 11
89.023059621725849
 21
111.5056838755729
 31
0.0
  0
LINE
  5
B16
  8
0
  6
CONTINUOUS
 62
     7
 10
39.023059621725793
 20
152.63276943865799
 30
0.0
 11
89.023059621725849
 21
152.63276943865799
 31
0.0
  0
LINE
  5
B1D
  8
0
  6
CONTINUOUS
 62
     7
 10
39.023059621725793
 20
145.4412408632044
 30
0.0
 11
89.023059621725849
 21
145.4412408632044
 31
0.0
  0
LINE
  5
B1E
  8
0
  6
CONTINUOUS
 62
     7
 10
39.023059621725793
 20
143.65032810056769
 30
0.0
 11
89.023059621725849
 21
143.65032810056769
 31
0.0
  0
LINE
  5
B1F
  8
0
  6
CONTINUOUS
 62
     7
 10
39.023059621725793
 20
140.64294836794329
 30
0.0
 11
89.023059621725849
 21
140.64294836794329
 31
0.0
  0
LINE
  5
B20
  8
0
  6
CONTINUOUS
 62
     7
 10
39.023059621725793
 20
132.75867001158591
 30
0.0
 11
89.023059621725849
 21
132.75867001158591
 31
0.0
  0
LINE
  5
B29
  8
0
  6
CENTER
 62
     1
 10
94.023059621725849
 20
128.72643833010309
 30
0.0
 11
34.023059621725793
 21
128.72643833010309
 31
0.0
  0
LINE
  5
B2A
  8
0
  6
CENTER
 62
     1
 10
134.8626649761303
 20
174.9480520802739
 30
0.0
 11
134.8626649761303
 21
234.9480520802739
 31
0.0
  0
ARC
  5
B45
  8
0
 10
93.288086024783837
 20
111.5056838755729
 30
0.0
 40
60.0
 50
2.4163463323945722
 51
42.583653630355421
  0
ARC
  5
B4A
  8
0
 10
135.6723745289093
 20
149.59486659073349
 30
0.0
 40
3.0371484216378239
 50
89.205411888564981
 51
135.32874335416449
  0
ARC
  5
B4B
  8
0
 10
135.75661126304399
 20
149.59486659073349
 30
0.0
 40
3.0371484216378239
 50
55.759978078056498
 51
90.794588111435004
  0
ARC
  5
B4C
  8
0
 10
150.25098760624689
 20
114.6023466797557
 30
0.0
 40
3.0371484216378239
 50
314.20541192899822
 51
349.2400210014859
  0
ARC
  5
B4D
  8
0
 10
150.19142324035741
 20
114.542782313782
 30
0.0
 40
3.0371484216378239
 50
269.67125668626869
 51
315.7945881518682
  0
TEXT
  5
BFB
  8
0
 62
     3
 10
0.0
 20
0.0
 30
0.0
 40
10.0
  1
L6-RPH36D45N-3M
  7
STANDARD1
  0
ENDSEC
  0
EOF
