  0
SECTION
  2
HEADER
  9
$ACADVER
  1
AC1009
  9
$INSBASE
 10
0.0
 20
0.0
 30
0.0
  9
$EXTMIN
 10
0.0
 20
-2.960436562073669
 30
0.0
  9
$EXTMAX
 10
203.36821952705191
 20
175.59051607814109
 30
0.0
  9
$LIMMIN
 10
0.0
 20
0.0
  9
$LIMMAX
 10
275.0
 20
175.0
  9
$ORTHOMODE
 70
     1
  9
$REGENMODE
 70
     1
  9
$FILLMODE
 70
     1
  9
$QTEXTMODE
 70
     0
  9
$MIRRTEXT
 70
     0
  9
$DRAGMODE
 70
     2
  9
$LTSCALE
 40
5.0
  9
$OSMODE
 70
  3071
  9
$ATTMODE
 70
     1
  9
$TEXTSIZE
 40
0.2
  9
$TRACEWID
 40
0.05
  9
$TEXTSTYLE
  7
STANDARD
  9
$CLAYER
  8
0
  9
$CELTYPE
  6
BYLAYER
  9
$CECOLOR
 62
   256
  9
$DIMSCALE
 40
1.0
  9
$DIMASZ
 40
3.0
  9
$DIMEXO
 40
1.0
  9
$DIMDLI
 40
6.0
  9
$DIMRND
 40
0.0
  9
$DIMDLE
 40
0.0
  9
$DIMEXE
 40
1.0
  9
$DIMTP
 40
495.0
  9
$DIMTM
 40
0.0
  9
$DIMTXT
 40
3.0
  9
$DIMCEN
 40
0.0
  9
$DIMTSZ
 40
0.0
  9
$DIMTOL
 70
     0
  9
$DIMLIM
 70
     0
  9
$DIMTIH
 70
     0
  9
$DIMTOH
 70
     0
  9
$DIMSE1
 70
     0
  9
$DIMSE2
 70
     0
  9
$DIMTAD
 70
     1
  9
$DIMZIN
 70
     0
  9
$DIMBLK
  1

  9
$DIMASO
 70
     0
  9
$DIMSHO
 70
     0
  9
$DIMPOST
  1

  9
$DIMAPOST
  1

  9
$DIMALT
 70
     0
  9
$DIMALTD
 70
     2
  9
$DIMALTF
 40
25.399999999999999
  9
$DIMLFAC
 40
1.0
  9
$DIMTOFL
 70
     1
  9
$DIMTVP
 40
0.0
  9
$DIMTIX
 70
     1
  9
$DIMSOXD
 70
     0
  9
$DIMSAH
 70
     0
  9
$DIMBLK1
  1

  9
$DIMBLK2
  1

  9
$DIMSTYLE
  2
STANDARD
  9
$DIMCLRD
 70
     0
  9
$DIMCLRE
 70
     0
  9
$DIMCLRT
 70
     4
  9
$DIMTFAC
 40
1.0
  9
$DIMGAP
 40
1.0
  9
$LUNITS
 70
     2
  9
$LUPREC
 70
     4
  9
$SKETCHINC
 40
0.1
  9
$FILLETRAD
 40
0.5
  9
$AUNITS
 70
     0
  9
$AUPREC
 70
     0
  9
$MENU
  1
E:\r13\win\SUPPORT\ACAD
  9
$ELEVATION
 40
0.0
  9
$PELEVATION
 40
0.0
  9
$THICKNESS
 40
0.0
  9
$LIMCHECK
 70
     0
  9
$BLIPMODE
 70
     0
  9
$CHAMFERA
 40
0.0
  9
$CHAMFERB
 40
0.0
  9
$SKPOLY
 70
     0
  9
$TDCREATE
 40
2450653.5278402781
  9
$TDUPDATE
 40
2456597.5623351391
  9
$TDINDWG
 40
0.2281829051
  9
$TDUSRTIMER
 40
0.2281829051
  9
$USRTIMER
 70
     1
  9
$ANGBASE
 50
0.0
  9
$ANGDIR
 70
     0
  9
$PDMODE
 70
     0
  9
$PDSIZE
 40
0.0
  9
$PLINEWID
 40
0.0
  9
$COORDS
 70
     1
  9
$SPLFRAME
 70
     0
  9
$SPLINETYPE
 70
     6
  9
$SPLINESEGS
 70
     8
  9
$ATTDIA
 70
     0
  9
$ATTREQ
 70
     1
  9
$HANDLING
 70
     1
  9
$HANDSEED
  5
23DC
  9
$SURFTAB1
 70
     6
  9
$SURFTAB2
 70
     6
  9
$SURFTYPE
 70
     6
  9
$SURFU
 70
     6
  9
$SURFV
 70
     6
  9
$UCSNAME
  2

  9
$UCSORG
 10
0.0
 20
0.0
 30
0.0
  9
$UCSXDIR
 10
1.0
 20
0.0
 30
0.0
  9
$UCSYDIR
 10
0.0
 20
1.0
 30
0.0
  9
$PUCSNAME
  2

  9
$PUCSORG
 10
0.0
 20
0.0
 30
0.0
  9
$PUCSXDIR
 10
1.0
 20
0.0
 30
0.0
  9
$PUCSYDIR
 10
0.0
 20
1.0
 30
0.0
  9
$USERI1
 70
     4
  9
$USERI2
 70
     1
  9
$USERI3
 70
     1
  9
$USERI4
 70
     0
  9
$USERI5
 70
     0
  9
$USERR1
 40
1.0
  9
$USERR2
 40
3.0
  9
$USERR3
 40
3.0
  9
$USERR4
 40
3.0
  9
$USERR5
 40
10.0
  9
$WORLDVIEW
 70
     1
  9
$SHADEDGE
 70
     3
  9
$SHADEDIF
 70
    70
  9
$TILEMODE
 70
     1
  9
$MAXACTVP
 70
    16
  9
$PLIMCHECK
 70
     0
  9
$PEXTMIN
 10
1.0000000000000000E+020
 20
1.0000000000000000E+020
 30
1.0000000000000000E+020
  9
$PEXTMAX
 10
-1.0000000000000000E+020
 20
-1.0000000000000000E+020
 30
-1.0000000000000000E+020
  9
$PLIMMIN
 10
0.0
 20
0.0
  9
$PLIMMAX
 10
12.0
 20
9.0
  9
$UNITMODE
 70
     0
  9
$VISRETAIN
 70
     0
  9
$PLINEGEN
 70
     0
  9
$PSLTSCALE
 70
     0
  0
ENDSEC
  0
SECTION
  2
TABLES
  0
TABLE
  2
VPORT
 70
     1
  0
VPORT
  2
*ACTIVE
 70
     0
 10
0.0
 20
0.0
 11
1.0
 21
1.0
 12
137.49580415314509
 22
105.5130596037923
 13
0.0
 23
0.0
 14
5.0
 24
5.0
 15
10.0
 25
10.0
 16
0.0
 26
0.0
 36
1.0
 17
0.0
 27
0.0
 37
0.0
 40
219.0105207521928
 41
1.9089595375722539
 42
50.0
 43
0.0
 44
0.0
 50
0.0
 51
0.0
 71
     0
 72
   100
 73
     1
 74
     0
 75
     0
 76
     0
 77
     0
 78
     0
  0
ENDTAB
  0
TABLE
  2
LTYPE
 70
     4
  0
LTYPE
  2
CONTINUOUS
 70
     0
  3
Solid Line
 72
    65
 73
     0
 40
0.0
  0
LTYPE
  2
CENTER
 70
     0
  3
____ _ ____ _ ____ _ ____ _ ____ _ ____ _ ____
 72
    65
 73
     4
 40
2.0
 49
1.25
 49
-0.25
 49
0.25
 49
-0.25
  0
LTYPE
  2
HIDDEN
 70
     0
  3
_ _ _ _ _ _ _ _ _ _ _ _ _ _ _ _ _ _ _ _ _ _ _
 72
    65
 73
     2
 40
0.375
 49
0.25
 49
-0.125
  0
LTYPE
  2
PHANTOM2
 70
     0
  3
___ _ _ ___ _ _ ___ _ _ ___ _ _
 72
    65
 73
     6
 40
1.25
 49
0.625
 49
-0.125
 49
0.125
 49
-0.125
 49
0.125
 49
-0.125
  0
ENDTAB
  0
TABLE
  2
LAYER
 70
     4
  0
LAYER
  2
0
 70
     0
 62
     7
  6
CONTINUOUS
  0
LAYER
  2
1
 70
     0
 62
     1
  6
CENTER
  0
LAYER
  2
2
 70
     0
 62
     2
  6
HIDDEN
  0
LAYER
  2
3
 70
     0
 62
     3
  6
CONTINUOUS
  0
ENDTAB
  0
TABLE
  2
STYLE
 70
     2
  0
STYLE
  2
STANDARD
 70
     0
 40
0.0
 41
1.0
 50
0.0
 71
     0
 42
0.2
  3
simplex
  4
bigfont
  0
STYLE
  2
STANDARD1
 70
     0
 40
0.0
 41
1.0
 50
0.0
 71
     0
 42
3.0
  3
txt
  4

  0
ENDTAB
  0
TABLE
  2
VIEW
 70
     0
  0
ENDTAB
  0
TABLE
  2
UCS
 70
     0
  0
ENDTAB
  0
TABLE
  2
APPID
 70
    46
  0
APPID
  2
ACAD
 70
     0
  0
APPID
  2
GENIUS_GENODEF_13
 70
     0
  0
APPID
  2
GENIUS_GENOBJ-N-FIL_13
 70
     0
  0
APPID
  2
GENIUS_GENOENT_13
 70
     0
  0
APPID
  2
GENIUS_GENOBJ_13
 70
     0
  0
APPID
  2
GENIUS_GENOLIS_13
 70
     0
  0
APPID
  2
GENIUS_GENOREF_13
 70
     0
  0
APPID
  2
GENIUS_GENOBJ-N-SEC_13
 70
     0
  0
APPID
  2
GENIUS_GENOBJ-N-CRS_13
 70
     0
  0
APPID
  2
GENIUS_GENBH_13
 70
     0
  0
APPID
  2
GENIUS_GENOBJ-NBEHI-BHF_13
 70
     0
  0
APPID
  2
GENIUS_GENOBJ-NBEHI-BHB_13
 70
     0
  0
APPID
  2
GENIUS_GENOBJ-F-PART_13
 70
     0
  0
APPID
  2
GENIUS_GEFSTDP_13
 70
     0
  0
APPID
  2
GENIUS_GENOBJ-N-RSSYM_13
 70
     0
  0
APPID
  2
GENIUS_GENSYMENT_13
 70
     0
  0
APPID
  2
GENIUS_GEFINERT_13
 70
     0
  0
APPID
  2
GENIUS_GENOBJ-F-INER_13
 70
     0
  0
APPID
  2
GENIUS_GENOBJ-N-TIT_13
 70
     0
  0
APPID
  2
GENIUS_GENTITLE_13
 70
     0
  0
APPID
  2
GENIUS_GENZVEED_13
 70
     0
  0
APPID
  2
GENIUS_GENOBJ-N-LEADER_13
 70
     0
  0
APPID
  2
GENIUS_GENOBJ-N-ZOO_13
 70
     0
  0
APPID
  2
GENIUS_GENZOO_13
 70
     0
  0
APPID
  2
GENIUS_GENOBJ-F-TOL_13
 70
     0
  0
APPID
  2
GENIUS_GENOBJ-N-REV_13
 70
     0
  0
APPID
  2
GENIUS_GENOBJ-F-ROD_13
 70
     0
  0
APPID
  2
GENIUS_GENOBJ-F-SPR_13
 70
     0
  0
APPID
  2
GENIUS_GEFSPRING_13
 70
     0
  0
APPID
  2
GENIUS_GENCFG_13
 70
     0
  0
APPID
  2
GENIUS_GENCFG0_13
 70
     0
  0
APPID
  2
GENIUS_GENCFG1_13
 70
     0
  0
APPID
  2
GENIUS_GENCFG2_13
 70
     0
  0
APPID
  2
GENIUS_GENCFG3_13
 70
     0
  0
APPID
  2
GENIUS_GENCFG4_13
 70
     0
  0
APPID
  2
GENIUS_GEVCFG0_13
 70
     0
  0
APPID
  2
GENIUS_GENOBJ-N-REC_13
 70
     0
  0
APPID
  2
GENIUS_GENFIL_13
 70
     0
  0
APPID
  2
GENIUS_GENOBJ-N-CHA_13
 70
     0
  0
APPID
  2
GENIUS_GENREC_13
 70
     0
  0
APPID
  2
GENIUS_GENOBJ-F-FEM_13
 70
     0
  0
APPID
  2
GENIUS_GEFFEM_13
 70
     0
  0
APPID
  2
GENIUS_GENOBJ-N-CEN_13
 70
     0
  0
APPID
  2
GENIUS_GENREC_14
 70
     0
  0
APPID
  2
ACAD_MLEADERVER
 70
     0
  0
APPID
  2
ACAD_NAV_VCDISPLAY
 70
     0
  0
ENDTAB
  0
TABLE
  2
DIMSTYLE
 70
     1
  0
DIMSTYLE
  2
STANDARD
 70
     0
  3

  4

  5

  6

  7

 40
1.0
 41
0.18
 42
0.0625
 43
0.38
 44
0.18
 45
0.0
 46
0.0
 47
0.0
 48
0.0
140
0.18
141
0.09
142
0.0
143
25.399999999999999
144
1.0
145
0.0
146
1.0
147
0.09
 71
     0
 72
     0
 73
     1
 74
     1
 75
     0
 76
     0
 77
     0
 78
     0
170
     0
171
     2
172
     0
173
     0
174
     0
175
     0
176
     0
177
     0
178
     0
  0
ENDTAB
  0
ENDSEC
  0
SECTION
  2
BLOCKS
  0
BLOCK
  8
0
  2
$MODEL_SPACE
 70
     0
 10
0.0
 20
0.0
 30
0.0
  3
$MODEL_SPACE
  1

  0
ENDBLK
  5
21A0
  8
0
  0
BLOCK
 67
     1
  8
0
  2
$PAPER_SPACE
 70
     0
 10
0.0
 20
0.0
 30
0.0
  3
$PAPER_SPACE
  1

  0
ENDBLK
  5
219E
 67
     1
  8
0
  0
ENDSEC
  0
SECTION
  2
ENTITIES
  0
LINE
  5
20E4
  8
1
 10
100.5613587047235
 20
175.59051607814109
 30
0.0
 11
100.5613587047235
 21
110.59051607814111
 31
0.0
  0
LINE
  5
20EA
  8
0
 10
102.1113587047234
 20
84.724896351601714
 30
0.0
 11
97.011358704723506
 21
84.724896351601856
 31
0.0
  0
LINE
  5
210C
  8
0
 10
96.511358704723506
 20
84.224896351601842
 30
0.0
 11
96.511358704723506
 21
82.224896351601885
 31
0.0
  0
ARC
  5
210D
  8
0
 10
97.011358704723492
 20
84.224896351601842
 30
0.0
 40
0.4999999999999983
 50
89.999999999998977
 51
180.0000000000002
  0
ARC
  5
2123
  8
0
 10
102.1113587047234
 20
84.224896351601728
 30
0.0
 40
0.5
 50
0.0000000000008142
 51
89.999999999997556
  0
LINE
  5
2124
  8
0
 10
102.6113587047235
 20
82.224896351601714
 30
0.0
 11
102.6113587047234
 21
84.224896351601728
 31
0.0
  0
LINE
  5
2128
  8
0
 10
143.36821952705179
 20
84.724896351601714
 30
0.0
 11
143.36821952705191
 21
71.224896351601686
 31
0.0
  0
LINE
  5
212C
  8
0
 10
203.36821952705191
 20
71.224896351601657
 30
0.0
 11
203.36821952705191
 21
84.724896351601714
 31
0.0
  0
LINE
  5
2135
  8
0
 10
112.5613587047234
 20
173.09051607814121
 30
0.0
 11
88.561358704723503
 21
173.09051607814109
 31
0.0
  0
LINE
  5
2136
  8
0
 10
88.561358704723474
 20
113.09051607814121
 30
0.0
 11
112.5613587047234
 21
113.09051607814121
 31
0.0
  0
LINE
  5
21D7
  8
0
 10
88.561358704723503
 20
80.724896351601998
 30
0.0
 11
88.561358704723474
 21
79.724896351601998
 31
0.0
1001
GENIUS_GENODEF_13
1002
{
1000
HIER
1070
     0
1002
}
1002
{
1000
MANEDIT
1070
     0
1002
}
1002
{
1000
NOSEL
1070
     0
1002
}
1002
{
1000
BEHIND
1070
     0
1002
}
1002
{
1000
REACTOR
1002
}
1001
GENIUS_GENOBJ-N-CEN_13
1002
{
1000
OWNER
1000
GEN
1002
}
  0
LINE
  5
21D8
  8
0
 10
112.5613587047234
 20
80.724896351601515
 30
0.0
 11
112.5613587047234
 21
79.724896351601515
 31
0.0
1001
GENIUS_GENODEF_13
1002
{
1000
HIER
1070
     0
1002
}
1002
{
1000
MANEDIT
1070
     0
1002
}
1002
{
1000
NOSEL
1070
     0
1002
}
1002
{
1000
BEHIND
1070
     0
1002
}
1002
{
1000
REACTOR
1002
}
1001
GENIUS_GENOBJ-N-CEN_13
1002
{
1000
OWNER
1000
GEN
1002
}
  0
LINE
  5
21D9
  8
0
 10
111.5613587047235
 20
81.724896351601515
 30
0.0
 11
103.1113587047234
 21
81.724896351601728
 31
0.0
  0
LINE
  5
21DA
  8
0
 10
111.5613587047234
 20
78.724896351601515
 30
0.0
 11
104.01135870472341
 21
78.724896351601686
 31
0.0
  0
LINE
  5
21DC
  8
0
 10
104.5358753051286
 20
71.224896351601686
 30
0.0
 11
96.586842104318265
 21
71.22489635160187
 31
0.0
  0
LINE
  5
21DD
  8
1
 10
99.561358704723503
 20
87.224896351601785
 30
0.0
 11
99.561358704723489
 21
82.224896351601785
 31
0.0
  0
LINE
  5
21DE
  8
1
 10
100.5613587047235
 20
87.224896351601757
 30
0.0
 11
100.5613587047235
 21
66.724896351601785
 31
0.0
  0
ARC
  5
21E3
  8
0
 10
96.011358704723492
 20
82.224896351601885
 30
0.0
 40
0.5
 50
269.99999999999869
 51
0.0
  0
LINE
  5
21E5
  8
0
 10
96.011358704723463
 20
81.724896351601885
 30
0.0
 11
89.561358704723531
 21
81.724896351602027
 31
0.0
  0
ARC
  5
21E6
  8
0
 10
103.1113587047235
 20
82.224896351601714
 30
0.0
 40
0.5
 50
180.00000000000321
 51
269.99999999999858
  0
ARC
  5
21E7
  8
0
 10
89.561358704723489
 20
80.724896351602027
 30
0.0
 40
1.0
 50
89.999999999998678
 51
180.00000000000051
1001
GENIUS_GENODEF_13
1002
{
1000
HIER
1070
     0
1002
}
1002
{
1000
MANEDIT
1070
     0
1002
}
1002
{
1000
NOSEL
1070
     0
1002
}
1002
{
1000
BEHIND
1070
     0
1002
}
1002
{
1000
REACTOR
1002
}
1001
GENIUS_GENOBJ-N-CEN_13
1002
{
1000
OWNER
1000
GEN
1002
}
  0
ARC
  5
21E8
  8
0
 10
89.561358704723489
 20
79.724896351601998
 30
0.0
 40
1.0
 50
180.0
 51
269.99999999999869
  0
ARC
  5
21E9
  8
0
 10
111.5613587047234
 20
80.724896351601515
 30
0.0
 40
1.0
 50
0.0000000000002544
 51
89.999999999998522
1001
GENIUS_GENODEF_13
1002
{
1000
HIER
1070
     0
1002
}
1002
{
1000
MANEDIT
1070
     0
1002
}
1002
{
1000
NOSEL
1070
     0
1002
}
1002
{
1000
BEHIND
1070
     0
1002
}
1002
{
1000
REACTOR
1002
}
1001
GENIUS_GENOBJ-N-CEN_13
1002
{
1000
OWNER
1000
GEN
1002
}
  0
ARC
  5
21EA
  8
0
 10
111.5613587047234
 20
79.724896351601515
 30
0.0
 40
1.0
 50
269.99999999999881
 51
0.0000000000004071
  0
ARC
  5
21ED
  8
0
 10
94.287079436819468
 20
74.524896351601896
 30
0.0
 40
1.0
 50
90.000000000000099
 51
224.99999999999901
  0
LINE
  5
21EE
  8
0
 10
93.579972655632886
 20
73.818492576415721
 30
0.0
 11
95.879735323131825
 21
71.518729908917024
 31
0.0
  0
ARC
  5
21EF
  8
0
 10
96.586842104318293
 20
72.225836690103534
 30
0.0
 40
1.000000000000004
 50
225.00000000000051
 51
270.00000000000028
  0
LINE
  5
21F3
  8
0
 10
97.611358704723514
 20
78.224896351601842
 30
0.0
 11
97.611358704723514
 21
76.024896351601839
 31
0.0
  0
ARC
  5
21F4
  8
0
 10
97.1113587047235
 20
76.024896351601839
 30
0.0
 40
0.5
 50
269.99999999999869
 51
0.0
  0
ARC
  5
21F5
  8
0
 10
106.8356379726274
 20
74.523956013100062
 30
0.0
 40
1.0
 50
315.00000000000159
 51
90.000000000000554
  0
LINE
  5
21F6
  8
0
 10
107.54274475381401
 20
73.817552237913887
 30
0.0
 11
105.2429820863151
 21
71.517789570415161
 31
0.0
  0
ARC
  5
21F7
  8
0
 10
104.5358753051286
 20
72.224896351601686
 30
0.0
 40
1.000000000000004
 50
270.00000000000028
 51
315.00000000000023
  0
LINE
  5
21FA
  8
0
 10
103.51135870472341
 20
78.224896351601686
 30
0.0
 11
103.51135870472341
 21
76.024896351601853
 31
0.0
  0
ARC
  5
21FB
  8
0
 10
104.01135870472341
 20
76.024896351601853
 30
0.0
 40
0.5
 50
180.00000000000071
 51
270.00000000000199
  0
LINE
  5
21FD
  8
0
 10
97.111358704723486
 20
75.524896351601839
 30
0.0
 11
94.287079436819468
 21
75.524896351601896
 31
0.0
  0
LINE
  5
21FE
  8
0
 10
104.01135870472351
 20
75.524896351601839
 30
0.0
 11
106.8356379726275
 21
75.524896351601896
 31
0.0
  0
LINE
  5
21FF
  8
0
 10
97.111358704723514
 20
78.724896351601842
 30
0.0
 11
89.56135870472346
 21
78.724896351601984
 31
0.0
  0
ARC
  5
2200
  8
0
 10
97.1113587047235
 20
78.224896351601842
 30
0.0
 40
0.5
 50
0.0000000000003053
 51
89.999999999998877
  0
ARC
  5
2201
  8
0
 10
104.01135870472341
 20
78.224896351601686
 30
0.0
 40
0.5
 50
89.999999999998565
 51
180.00000000000031
  0
LINE
  5
2202
  8
0
 10
143.36821952705179
 20
84.724896351601743
 30
0.0
 11
203.36821952705191
 21
84.724896351601714
 31
0.0
  0
LINE
  5
2203
  8
0
 10
143.36821952705191
 20
81.724896351601501
 30
0.0
 11
203.36821952705191
 21
81.724896351601487
 31
0.0
  0
LINE
  5
2204
  8
0
 10
143.36821952705191
 20
78.724896351601529
 30
0.0
 11
203.36821952705191
 21
78.724896351601529
 31
0.0
  0
LINE
  5
2205
  8
0
 10
143.36821952705191
 20
75.52489635160191
 30
0.0
 11
203.36821952705191
 21
75.524896351601868
 31
0.0
  0
LINE
  5
2206
  8
0
 10
143.36821952705191
 20
71.2248963516017
 30
0.0
 11
203.36821952705191
 21
71.224896351601657
 31
0.0
  0
LINE
  5
2207
  8
0
 10
112.5613587047234
 20
113.09051607814121
 30
0.0
 11
112.5613587047234
 21
173.09051607814121
 31
0.0
  0
LINE
  5
2208
  8
0
 10
102.6113587047234
 20
113.09051607814121
 30
0.0
 11
102.6113587047234
 21
173.09051607814121
 31
0.0
  0
LINE
  5
2209
  8
0
 10
96.511358704723506
 20
113.09051607814111
 30
0.0
 11
96.511358704723506
 21
173.09051607814121
 31
0.0
  0
LINE
  5
220A
  8
0
 10
88.561358704723474
 20
113.09051607814121
 30
0.0
 11
88.561358704723503
 21
173.09051607814109
 31
0.0
  0
LINE
  5
2220
  8
1
 10
153.36821952705191
 20
87.224896351601672
 30
0.0
 11
153.36821952705191
 21
66.7248963516017
 31
0.0
  0
LINE
  5
2221
  8
1
 10
193.36821952705191
 20
87.224896351601672
 30
0.0
 11
193.36821952705191
 21
66.724896351601672
 31
0.0
  0
LINE
  5
2226
  8
2
 10
154.23424493013141
 20
77.724896351601686
 30
0.0
 11
153.36821952705191
 21
77.224896352008699
 31
0.0
  0
LINE
  5
2227
  8
2
 10
152.5021941239724
 20
77.724896351601686
 30
0.0
 11
153.36821952705191
 21
77.224896352008699
 31
0.0
  0
LINE
  5
2228
  8
2
 10
153.80123222859149
 20
79.224896351601728
 30
0.0
 11
153.80123222859149
 21
77.724896351601728
 31
0.0
  0
LINE
  5
2229
  8
2
 10
154.23424493013141
 20
79.224896351601728
 30
0.0
 11
154.23424493013141
 21
77.724896351601728
 31
0.0
  0
LINE
  5
222A
  8
2
 10
152.93520682551241
 20
79.224896351601757
 30
0.0
 11
152.93520682551241
 21
77.724896351601728
 31
0.0
  0
LINE
  5
222B
  8
2
 10
152.50219412397249
 20
79.224896351601728
 30
0.0
 11
152.5021941239724
 21
77.724896351601728
 31
0.0
  0
LINE
  5
222C
  8
2
 10
154.23424493013141
 20
77.724896351601686
 30
0.0
 11
152.5021941239724
 21
77.724896351601686
 31
0.0
  0
LINE
  5
222D
  8
2
 10
154.86821952705199
 20
78.924896351601717
 30
0.0
 11
154.3486042847814
 21
79.224896351601757
 31
0.0
  0
LINE
  5
222E
  8
2
 10
151.86821952705179
 20
78.924896351601717
 30
0.0
 11
152.3878347693225
 21
79.224896351601757
 31
0.0
  0
LINE
  5
222F
  8
0
 10
152.4682195270519
 20
69.2248963516017
 30
0.0
 11
151.86821952705191
 21
69.824896351601694
 31
0.0
  0
LINE
  5
2230
  8
0
 10
154.86821952705191
 20
69.824896351601694
 30
0.0
 11
154.2682195270518
 21
69.2248963516017
 31
0.0
  0
LINE
  5
2231
  8
0
 10
154.86821952705191
 20
69.824896351601723
 30
0.0
 11
151.86821952705191
 21
69.824896351601723
 31
0.0
  0
LINE
  5
2232
  8
2
 10
154.86821952705199
 20
78.924896351601689
 30
0.0
 11
151.86821952705191
 21
78.924896351601717
 31
0.0
  0
LINE
  5
2233
  8
2
 10
154.3486042847814
 20
79.224896351601728
 30
0.0
 11
152.38783476932261
 21
79.224896351601728
 31
0.0
  0
LINE
  5
2234
  8
3
 10
152.13871952704821
 20
69.554396351605391
 30
0.0
 11
152.13871952704821
 21
71.2248963516017
 31
0.0
  0
LINE
  5
2235
  8
3
 10
154.5977195270556
 20
69.554396351605391
 30
0.0
 11
154.5977195270556
 21
71.2248963516017
 31
0.0
  0
LINE
  5
2236
  8
0
 10
154.86821952705191
 20
69.824896351601694
 30
0.0
 11
154.86821952705191
 21
71.2248963516017
 31
0.0
  0
LINE
  5
2237
  8
0
 10
151.86821952705191
 20
69.824896351601694
 30
0.0
 11
151.86821952705191
 21
71.2248963516017
 31
0.0
  0
LINE
  5
2238
  8
0
 10
154.2682195270518
 20
69.2248963516017
 30
0.0
 11
152.4682195270519
 21
69.2248963516017
 31
0.0
  0
LINE
  5
223A
  8
2
 10
154.86821952705191
 20
78.924896351601689
 30
0.0
 11
154.86821952705179
 21
84.724896351601714
 31
0.0
  0
LINE
  5
223B
  8
2
 10
154.59771952705549
 20
79.081069599415486
 30
0.0
 11
154.59771952705549
 21
84.724896351601714
 31
0.0
  0
LINE
  5
223C
  8
2
 10
152.13871952704821
 20
79.081069599415457
 30
0.0
 11
152.13871952704821
 21
84.724896351601743
 31
0.0
  0
LINE
  5
223D
  8
2
 10
151.86821952705179
 20
78.924896351601774
 30
0.0
 11
151.86821952705179
 21
84.724896351601743
 31
0.0
  0
LINE
  5
223E
  8
2
 10
154.86821952705191
 20
71.2248963516017
 30
0.0
 11
154.86821952705191
 21
78.924896351601774
 31
0.0
  0
LINE
  5
223F
  8
2
 10
154.59771952705549
 20
71.2248963516017
 30
0.0
 11
154.59771952705549
 21
79.081069599415486
 31
0.0
  0
LINE
  5
2240
  8
2
 10
152.13871952704821
 20
71.2248963516017
 30
0.0
 11
152.13871952704821
 21
79.081069599415457
 31
0.0
  0
LINE
  5
2241
  8
2
 10
151.86821952705191
 20
71.2248963516017
 30
0.0
 11
151.86821952705179
 21
78.924896351601774
 31
0.0
  0
LINE
  5
2245
  8
2
 10
191.86821952705199
 20
71.224896351601672
 30
0.0
 11
191.86821952705191
 21
78.924896351601745
 31
0.0
  0
LINE
  5
2246
  8
2
 10
192.13871952704821
 20
71.224896351601672
 30
0.0
 11
192.13871952704821
 21
79.081069599415429
 31
0.0
  0
LINE
  5
2247
  8
2
 10
194.59771952705549
 20
71.224896351601672
 30
0.0
 11
194.59771952705549
 21
79.081069599415457
 31
0.0
  0
LINE
  5
2248
  8
2
 10
194.86821952705191
 20
71.224896351601672
 30
0.0
 11
194.86821952705191
 21
78.924896351601745
 31
0.0
  0
LINE
  5
2249
  8
2
 10
192.50219412397249
 20
79.2248963516017
 30
0.0
 11
192.5021941239724
 21
77.724896351601686
 31
0.0
  0
LINE
  5
224A
  8
2
 10
192.93520682551241
 20
79.224896351601728
 30
0.0
 11
192.93520682551241
 21
77.724896351601686
 31
0.0
  0
LINE
  5
224B
  8
2
 10
194.23424493013141
 20
79.2248963516017
 30
0.0
 11
194.23424493013141
 21
77.724896351601686
 31
0.0
  0
LINE
  5
224C
  8
2
 10
193.80123222859149
 20
79.2248963516017
 30
0.0
 11
193.80123222859149
 21
77.724896351601686
 31
0.0
  0
LINE
  5
224D
  8
3
 10
192.13871952704821
 20
69.554396351605362
 30
0.0
 11
192.13871952704821
 21
71.224896351601672
 31
0.0
  0
LINE
  5
224E
  8
3
 10
194.5977195270556
 20
69.554396351605362
 30
0.0
 11
194.5977195270556
 21
71.224896351601672
 31
0.0
  0
LINE
  5
224F
  8
0
 10
194.86821952705191
 20
69.824896351601666
 30
0.0
 11
194.2682195270518
 21
69.224896351601672
 31
0.0
  0
LINE
  5
2250
  8
0
 10
192.4682195270519
 20
69.224896351601672
 30
0.0
 11
191.86821952705191
 21
69.824896351601666
 31
0.0
  0
LINE
  5
2251
  8
0
 10
194.2682195270518
 20
69.224896351601672
 30
0.0
 11
192.4682195270519
 21
69.224896351601672
 31
0.0
  0
LINE
  5
2252
  8
0
 10
194.86821952705191
 20
69.824896351601694
 30
0.0
 11
191.86821952705191
 21
69.824896351601694
 31
0.0
  0
LINE
  5
2253
  8
0
 10
191.86821952705191
 20
69.824896351601666
 30
0.0
 11
191.86821952705191
 21
71.224896351601672
 31
0.0
  0
LINE
  5
2254
  8
0
 10
194.86821952705191
 20
69.824896351601666
 30
0.0
 11
194.86821952705191
 21
71.224896351601672
 31
0.0
  0
LINE
  5
2255
  8
2
 10
194.23424493013141
 20
77.724896351601672
 30
0.0
 11
192.5021941239724
 21
77.724896351601672
 31
0.0
  0
LINE
  5
2256
  8
2
 10
194.23424493013141
 20
77.724896351601672
 30
0.0
 11
193.36821952705191
 21
77.22489635200867
 31
0.0
  0
LINE
  5
2257
  8
2
 10
192.5021941239724
 20
77.724896351601672
 30
0.0
 11
193.36821952705191
 21
77.22489635200867
 31
0.0
  0
LINE
  5
2258
  8
2
 10
194.86821952705191
 20
78.92489635160166
 30
0.0
 11
194.86821952705179
 21
84.724896351601714
 31
0.0
  0
LINE
  5
2259
  8
2
 10
194.59771952705549
 20
79.081069599415457
 30
0.0
 11
194.59771952705549
 21
84.724896351601714
 31
0.0
  0
LINE
  5
225A
  8
2
 10
192.13871952704821
 20
79.081069599415429
 30
0.0
 11
192.13871952704821
 21
84.724896351601714
 31
0.0
  0
LINE
  5
225B
  8
2
 10
191.86821952705191
 20
78.924896351601745
 30
0.0
 11
191.86821952705191
 21
84.724896351601714
 31
0.0
  0
LINE
  5
225C
  8
2
 10
194.3486042847814
 20
79.2248963516017
 30
0.0
 11
192.38783476932261
 21
79.2248963516017
 31
0.0
  0
LINE
  5
225D
  8
2
 10
194.86821952705199
 20
78.92489635160166
 30
0.0
 11
191.86821952705191
 21
78.924896351601689
 31
0.0
  0
LINE
  5
225E
  8
2
 10
191.86821952705191
 20
78.924896351601689
 30
0.0
 11
192.3878347693225
 21
79.224896351601728
 31
0.0
  0
LINE
  5
225F
  8
2
 10
194.86821952705199
 20
78.924896351601689
 30
0.0
 11
194.3486042847814
 21
79.224896351601728
 31
0.0
  0
LINE
  5
2265
  8
2
 10
99.061358704723546
 20
71.224896351601771
 30
0.0
 11
99.061358704723474
 21
78.924896351601845
 31
0.0
  0
LINE
  5
2266
  8
2
 10
99.331858704719806
 20
71.224896351601771
 30
0.0
 11
99.331858704719806
 21
79.081069599415514
 31
0.0
  0
LINE
  5
2267
  8
2
 10
101.7908587047271
 20
71.224896351601771
 30
0.0
 11
101.7908587047271
 21
79.081069599415557
 31
0.0
  0
LINE
  5
2268
  8
2
 10
102.0613587047234
 20
71.224896351601771
 30
0.0
 11
102.0613587047234
 21
78.924896351601845
 31
0.0
  0
LINE
  5
2269
  8
2
 10
99.695333301644084
 20
79.224896351601799
 30
0.0
 11
99.695333301644027
 21
77.724896351601799
 31
0.0
  0
LINE
  5
226A
  8
2
 10
100.12834600318401
 20
79.224896351601814
 30
0.0
 11
100.12834600318401
 21
77.724896351601799
 31
0.0
  0
LINE
  5
226B
  8
2
 10
101.42738410780289
 20
79.224896351601799
 30
0.0
 11
101.42738410780289
 21
77.724896351601799
 31
0.0
  0
LINE
  5
226C
  8
2
 10
100.9943714062631
 20
79.224896351601799
 30
0.0
 11
100.994371406263
 21
77.724896351601799
 31
0.0
  0
LINE
  5
226D
  8
3
 10
99.331858704719849
 20
69.554396351605462
 30
0.0
 11
99.331858704719849
 21
71.224896351601771
 31
0.0
  0
LINE
  5
226E
  8
3
 10
101.7908587047272
 20
69.554396351605462
 30
0.0
 11
101.7908587047272
 21
71.224896351601771
 31
0.0
  0
LINE
  5
226F
  8
0
 10
102.0613587047234
 20
69.824896351601765
 30
0.0
 11
101.46135870472339
 21
69.224896351601771
 31
0.0
  0
LINE
  5
2270
  8
0
 10
99.661358704723554
 20
69.224896351601771
 30
0.0
 11
99.061358704723517
 21
69.824896351601765
 31
0.0
  0
LINE
  5
2271
  8
0
 10
101.46135870472339
 20
69.224896351601771
 30
0.0
 11
99.661358704723554
 21
69.224896351601771
 31
0.0
  0
LINE
  5
2272
  8
0
 10
102.0613587047235
 20
69.824896351601794
 30
0.0
 11
99.061358704723517
 21
69.824896351601794
 31
0.0
  0
LINE
  5
2273
  8
0
 10
99.061358704723517
 20
69.824896351601765
 30
0.0
 11
99.061358704723517
 21
71.224896351601771
 31
0.0
  0
LINE
  5
2274
  8
0
 10
102.0613587047234
 20
69.824896351601765
 30
0.0
 11
102.0613587047234
 21
71.224896351601771
 31
0.0
  0
LINE
  5
2275
  8
2
 10
101.42738410780289
 20
77.724896351601771
 30
0.0
 11
99.695333301644027
 21
77.724896351601771
 31
0.0
  0
LINE
  5
2276
  8
2
 10
101.42738410780299
 20
77.724896351601771
 30
0.0
 11
100.5613587047235
 21
77.22489635200877
 31
0.0
  0
LINE
  5
2277
  8
2
 10
99.695333301644027
 20
77.724896351601771
 30
0.0
 11
100.5613587047235
 21
77.22489635200877
 31
0.0
  0
LINE
  5
2278
  8
2
 10
102.0613587047234
 20
78.92489635160176
 30
0.0
 11
102.0613587047234
 21
84.724896351601785
 31
0.0
  0
LINE
  5
2279
  8
2
 10
101.7908587047271
 20
79.081069599415557
 30
0.0
 11
101.7908587047271
 21
84.724896351601785
 31
0.0
  0
LINE
  5
227A
  8
2
 10
99.331858704719806
 20
79.081069599415514
 30
0.0
 11
99.331858704719806
 21
84.724896351601814
 31
0.0
  0
LINE
  5
227B
  8
2
 10
99.061358704723474
 20
78.924896351601845
 30
0.0
 11
99.061358704723474
 21
84.724896351601814
 31
0.0
  0
LINE
  5
227C
  8
2
 10
101.5417434624529
 20
79.224896351601799
 30
0.0
 11
99.580973946994206
 21
79.224896351601799
 31
0.0
  0
LINE
  5
227D
  8
2
 10
102.0613587047236
 20
78.92489635160176
 30
0.0
 11
99.061358704723517
 21
78.924896351601774
 31
0.0
  0
LINE
  5
227E
  8
2
 10
99.061358704723474
 20
78.924896351601774
 30
0.0
 11
99.580973946994064
 21
79.224896351601814
 31
0.0
  0
LINE
  5
227F
  8
2
 10
102.0613587047235
 20
78.924896351601774
 30
0.0
 11
101.5417434624529
 21
79.224896351601814
 31
0.0
  0
LINE
  5
2283
  8
0
 10
100.5613587047236
 20
163.95654148122031
 30
0.0
 11
101.3113587047236
 21
163.5235287793283
 31
0.0
  0
LINE
  5
2284
  8
0
 10
99.811358705334328
 20
163.5235287796811
 30
0.0
 11
100.5613587053343
 21
163.95654148157331
 31
0.0
  0
LINE
  5
2285
  8
0
 10
99.811358705334328
 20
162.6575033766016
 30
0.0
 11
99.811358705334328
 21
163.52352878038599
 31
0.0
  0
LINE
  5
2286
  8
0
 10
100.5613587047236
 20
162.2244906750619
 30
0.0
 11
99.811358704723602
 21
162.65750337695391
 31
0.0
  0
LINE
  5
2287
  8
0
 10
101.31135870411239
 20
162.6575033766012
 30
0.0
 11
100.5613587041133
 21
162.2244906747089
 31
0.0
  0
LINE
  5
2288
  8
0
 10
101.3113587041133
 20
163.52352877968119
 30
0.0
 11
101.3113587041133
 21
162.65750337589679
 31
0.0
  0
CIRCLE
  5
2289
  8
0
 10
100.5613587047235
 20
163.09051607814109
 30
0.0
 40
1.5
  0
CIRCLE
  5
228A
  8
3
 10
100.5613587047235
 20
163.09051607814109
 30
0.0
 40
1.2295
  0
LINE
  5
228B
  8
0
 10
100.5613587047236
 20
123.9565414812203
 30
0.0
 11
101.3113587047236
 21
123.5235287793283
 31
0.0
  0
LINE
  5
228C
  8
0
 10
99.8113587053343
 20
123.5235287796811
 30
0.0
 11
100.5613587053343
 21
123.9565414815734
 31
0.0
  0
LINE
  5
228D
  8
0
 10
99.8113587053343
 20
122.6575033766016
 30
0.0
 11
99.8113587053343
 21
123.5235287803861
 31
0.0
  0
LINE
  5
228E
  8
0
 10
100.5613587047236
 20
122.2244906750619
 30
0.0
 11
99.811358704723574
 21
122.657503376954
 31
0.0
  0
LINE
  5
228F
  8
0
 10
101.31135870411239
 20
122.6575033766012
 30
0.0
 11
100.5613587041133
 21
122.2244906747089
 31
0.0
  0
LINE
  5
2290
  8
0
 10
101.3113587041133
 20
123.5235287796812
 30
0.0
 11
101.3113587041133
 21
122.65750337589679
 31
0.0
  0
CIRCLE
  5
2291
  8
0
 10
100.5613587047234
 20
123.09051607814111
 30
0.0
 40
1.5
  0
CIRCLE
  5
2292
  8
3
 10
100.5613587047234
 20
123.09051607814111
 30
0.0
 40
1.2295
  0
LINE
  5
2294
  8
1
 10
104.5613587047235
 20
163.09051607814109
 30
0.0
 11
96.561358704723489
 21
163.09051607814109
 31
0.0
  0
LINE
  5
2296
  8
1
 10
104.5613587047234
 20
123.09051607814111
 30
0.0
 11
96.561358704723474
 21
123.09051607814111
 31
0.0
  0
TEXT
  5
234E
  8
0
 62
     3
 10
0.0
 20
0.0
 30
0.0
 40
10.0
  1
L6-SGS6/6L
  7
STANDARD1
  0
ENDSEC
  0
EOF
