  0
SECTION
  2
HEADER
  9
$ACADVER
  1
AC1009
  9
$INSBASE
 10
7.37824081052986
 20
15.90864369846679
 30
0.0
  9
$EXTMIN
 10
0.0
 20
-2.960436562073669
 30
0.0
  9
$EXTMAX
 10
339.20196427139689
 20
262.31544473329751
 30
0.0
  9
$LIMMIN
 10
0.0
 20
0.0
  9
$LIMMAX
 10
385.0
 20
270.0
  9
$ORTHOMODE
 70
     1
  9
$REGENMODE
 70
     1
  9
$FILLMODE
 70
     1
  9
$QTEXTMODE
 70
     0
  9
$MIRRTEXT
 70
     0
  9
$DRAGMODE
 70
     2
  9
$LTSCALE
 40
10.0
  9
$OSMODE
 70
  3071
  9
$ATTMODE
 70
     1
  9
$TEXTSIZE
 40
4.0
  9
$TRACEWID
 40
0.05
  9
$TEXTSTYLE
  7
STANDARD
  9
$CLAYER
  8
0
  9
$CELTYPE
  6
BYLAYER
  9
$CECOLOR
 62
   256
  9
$DIMSCALE
 40
1.0
  9
$DIMASZ
 40
3.0
  9
$DIMEXO
 40
2.0
  9
$DIMDLI
 40
10.0
  9
$DIMRND
 40
0.0
  9
$DIMDLE
 40
0.0
  9
$DIMEXE
 40
2.0
  9
$DIMTP
 40
0.0
  9
$DIMTM
 40
0.0
  9
$DIMTXT
 40
3.0
  9
$DIMCEN
 40
0.09
  9
$DIMTSZ
 40
0.0
  9
$DIMTOL
 70
     0
  9
$DIMLIM
 70
     0
  9
$DIMTIH
 70
     0
  9
$DIMTOH
 70
     0
  9
$DIMSE1
 70
     0
  9
$DIMSE2
 70
     0
  9
$DIMTAD
 70
     1
  9
$DIMZIN
 70
     0
  9
$DIMBLK
  1

  9
$DIMASO
 70
     0
  9
$DIMSHO
 70
     0
  9
$DIMPOST
  1

  9
$DIMAPOST
  1

  9
$DIMALT
 70
     0
  9
$DIMALTD
 70
     2
  9
$DIMALTF
 40
25.399999999999999
  9
$DIMLFAC
 40
1.0
  9
$DIMTOFL
 70
     1
  9
$DIMTVP
 40
1.6000000000000001
  9
$DIMTIX
 70
     1
  9
$DIMSOXD
 70
     0
  9
$DIMSAH
 70
     0
  9
$DIMBLK1
  1

  9
$DIMBLK2
  1

  9
$DIMSTYLE
  2
STANDARD
  9
$DIMCLRD
 70
     0
  9
$DIMCLRE
 70
     0
  9
$DIMCLRT
 70
     0
  9
$DIMTFAC
 40
1.0
  9
$DIMGAP
 40
1.0
  9
$LUNITS
 70
     2
  9
$LUPREC
 70
     2
  9
$SKETCHINC
 40
0.1
  9
$FILLETRAD
 40
0.0
  9
$AUNITS
 70
     0
  9
$AUPREC
 70
     2
  9
$MENU
  1
E:\r13\win\SUPPORT\ACAD
  9
$ELEVATION
 40
0.0
  9
$PELEVATION
 40
0.0
  9
$THICKNESS
 40
0.0
  9
$LIMCHECK
 70
     0
  9
$BLIPMODE
 70
     0
  9
$CHAMFERA
 40
1.0
  9
$CHAMFERB
 40
1.0
  9
$SKPOLY
 70
     0
  9
$TDCREATE
 40
2450252.6853964119
  9
$TDUPDATE
 40
2456597.5623578252
  9
$TDINDWG
 40
0.127802581
  9
$TDUSRTIMER
 40
0.127802581
  9
$USRTIMER
 70
     1
  9
$ANGBASE
 50
0.0
  9
$ANGDIR
 70
     0
  9
$PDMODE
 70
     0
  9
$PDSIZE
 40
0.0
  9
$PLINEWID
 40
0.0
  9
$COORDS
 70
     1
  9
$SPLFRAME
 70
     0
  9
$SPLINETYPE
 70
     6
  9
$SPLINESEGS
 70
     8
  9
$ATTDIA
 70
     0
  9
$ATTREQ
 70
     1
  9
$HANDLING
 70
     1
  9
$HANDSEED
  5
2219
  9
$SURFTAB1
 70
     6
  9
$SURFTAB2
 70
     6
  9
$SURFTYPE
 70
     6
  9
$SURFU
 70
     6
  9
$SURFV
 70
     6
  9
$UCSNAME
  2

  9
$UCSORG
 10
0.0
 20
0.0
 30
0.0
  9
$UCSXDIR
 10
1.0
 20
0.0
 30
0.0
  9
$UCSYDIR
 10
0.0
 20
1.0
 30
0.0
  9
$PUCSNAME
  2

  9
$PUCSORG
 10
0.0
 20
0.0
 30
0.0
  9
$PUCSXDIR
 10
1.0
 20
0.0
 30
0.0
  9
$PUCSYDIR
 10
0.0
 20
1.0
 30
0.0
  9
$USERI1
 70
     3
  9
$USERI2
 70
     1
  9
$USERI3
 70
     0
  9
$USERI4
 70
     1
  9
$USERI5
 70
     0
  9
$USERR1
 40
1.0
  9
$USERR2
 40
3.0
  9
$USERR3
 40
3.0
  9
$USERR4
 40
3.0
  9
$USERR5
 40
10.0
  9
$WORLDVIEW
 70
     1
  9
$SHADEDGE
 70
     3
  9
$SHADEDIF
 70
    70
  9
$TILEMODE
 70
     1
  9
$MAXACTVP
 70
    16
  9
$PLIMCHECK
 70
     0
  9
$PEXTMIN
 10
1.0000000000000000E+020
 20
1.0000000000000000E+020
 30
1.0000000000000000E+020
  9
$PEXTMAX
 10
-1.0000000000000000E+020
 20
-1.0000000000000000E+020
 30
-1.0000000000000000E+020
  9
$PLIMMIN
 10
0.0
 20
0.0
  9
$PLIMMAX
 10
12.0
 20
9.0
  9
$UNITMODE
 70
     0
  9
$VISRETAIN
 70
     0
  9
$PLINEGEN
 70
     0
  9
$PSLTSCALE
 70
     0
  0
ENDSEC
  0
SECTION
  2
TABLES
  0
TABLE
  2
VPORT
 70
     1
  0
VPORT
  2
*ACTIVE
 70
     0
 10
0.0
 20
0.0
 11
1.0
 21
1.0
 12
192.49412581440311
 22
162.8616388594717
 13
0.0
 23
0.0
 14
5.0
 24
5.0
 15
5.0
 25
5.0
 16
0.0
 26
0.0
 36
1.0
 17
0.0
 27
0.0
 37
0.0
 40
334.81001162774987
 41
1.9089595375722539
 42
50.0
 43
0.0
 44
0.0
 50
0.0
 51
0.0
 71
     0
 72
  1000
 73
     1
 74
     0
 75
     0
 76
     0
 77
     0
 78
     1
  0
ENDTAB
  0
TABLE
  2
LTYPE
 70
     3
  0
LTYPE
  2
CONTINUOUS
 70
     0
  3
Solid Line
 72
    65
 73
     0
 40
0.0
  0
LTYPE
  2
CENTER
 70
     0
  3
____ _ ____ _ ____ _ ____ _ ____ _ ____ _ ____
 72
    65
 73
     4
 40
2.0
 49
1.25
 49
-0.25
 49
0.25
 49
-0.25
  0
LTYPE
  2
PHANTOM2
 70
     0
  3
___ _ _ ___ _ _ ___ _ _ ___ _ _
 72
    65
 73
     6
 40
1.25
 49
0.625
 49
-0.125
 49
0.125
 49
-0.125
 49
0.125
 49
-0.125
  0
ENDTAB
  0
TABLE
  2
LAYER
 70
     2
  0
LAYER
  2
0
 70
     0
 62
     7
  6
CONTINUOUS
  0
LAYER
  2
1
 70
     0
 62
     1
  6
CENTER
  0
ENDTAB
  0
TABLE
  2
STYLE
 70
     2
  0
STYLE
  2
STANDARD
 70
     0
 40
0.0
 41
1.0
 50
0.0
 71
     0
 42
4.0
  3
simplex
  4
bigfont
  0
STYLE
  2
STANDARD1
 70
     0
 40
0.0
 41
1.0
 50
0.0
 71
     0
 42
3.0
  3
txt
  4

  0
ENDTAB
  0
TABLE
  2
VIEW
 70
     0
  0
ENDTAB
  0
TABLE
  2
UCS
 70
     0
  0
ENDTAB
  0
TABLE
  2
APPID
 70
     3
  0
APPID
  2
ACAD
 70
     0
  0
APPID
  2
ACAD_MLEADERVER
 70
     0
  0
APPID
  2
ACAD_NAV_VCDISPLAY
 70
     0
  0
ENDTAB
  0
TABLE
  2
DIMSTYLE
 70
     1
  0
DIMSTYLE
  2
STANDARD
 70
     0
  3

  4

  5

  6

  7

 40
1.0
 41
0.18
 42
0.0625
 43
0.38
 44
0.18
 45
0.0
 46
0.0
 47
0.0
 48
0.0
140
0.18
141
0.09
142
0.0
143
25.399999999999999
144
1.0
145
0.0
146
1.0
147
0.09
 71
     0
 72
     0
 73
     1
 74
     1
 75
     0
 76
     0
 77
     0
 78
     0
170
     0
171
     2
172
     0
173
     0
174
     0
175
     0
176
     0
177
     0
178
     0
  0
ENDTAB
  0
ENDSEC
  0
SECTION
  2
BLOCKS
  0
BLOCK
  8
0
  2
$MODEL_SPACE
 70
     0
 10
0.0
 20
0.0
 30
0.0
  3
$MODEL_SPACE
  1

  0
ENDBLK
  5
20DA
  8
0
  0
BLOCK
 67
     1
  8
0
  2
$PAPER_SPACE
 70
     0
 10
0.0
 20
0.0
 30
0.0
  3
$PAPER_SPACE
  1

  0
ENDBLK
  5
20D8
 67
     1
  8
0
  0
ENDSEC
  0
SECTION
  2
ENTITIES
  0
LINE
  5
1F1C
  8
0
 10
185.25873065162639
 20
252.3154447332976
 30
0.0
 11
65.258730651627388
 21
252.3154447332976
 31
0.0
  0
LINE
  5
1F1D
  8
0
 10
185.25873065162639
 20
152.31544473329751
 30
0.0
 11
65.258730651627388
 21
152.31544473329751
 31
0.0
  0
LINE
  5
1F1F
  8
0
 10
65.258730651627388
 20
152.31544473329751
 30
0.0
 11
65.258730651627388
 21
252.3154447332976
 31
0.0
  0
LINE
  5
1F20
  8
0
 10
77.158730651653627
 20
152.31544473329751
 30
0.0
 11
77.158730651653627
 21
252.3154447332976
 31
0.0
  0
LINE
  5
1F21
  8
0
 10
83.358730651654582
 20
152.31544473329751
 30
0.0
 11
83.358730651654582
 21
252.3154447332976
 31
0.0
  0
LINE
  5
1F22
  8
0
 10
107.1587306516536
 20
152.31544473329751
 30
0.0
 11
107.1587306516536
 21
252.3154447332976
 31
0.0
  0
LINE
  5
1F23
  8
0
 10
113.3587306516546
 20
152.31544473329751
 30
0.0
 11
113.3587306516546
 21
252.3154447332976
 31
0.0
  0
LINE
  5
1F24
  8
0
 10
137.1587306516536
 20
152.31544473329751
 30
0.0
 11
137.1587306516536
 21
252.3154447332976
 31
0.0
  0
LINE
  5
1F25
  8
0
 10
143.35873065165461
 20
152.31544473329751
 30
0.0
 11
143.35873065165461
 21
252.3154447332976
 31
0.0
  0
LINE
  5
1F26
  8
0
 10
329.20196427139678
 20
74.364105973181495
 30
0.0
 11
329.20196427139678
 21
104.36410597318149
 31
0.0
  0
LINE
  5
1F27
  8
0
 10
229.2019642713968
 20
74.364105973181495
 30
0.0
 11
229.2019642713968
 21
104.36410597318149
 31
0.0
  0
LINE
  5
1F29
  8
0
 10
229.2019642713968
 20
74.364105973181495
 30
0.0
 11
329.20196427139678
 21
74.364105973181495
 31
0.0
  0
LINE
  5
1F2A
  8
0
 10
167.1587306516536
 20
152.31544473329751
 30
0.0
 11
167.1587306516536
 21
252.3154447332976
 31
0.0
  0
LINE
  5
1F2B
  8
0
 10
173.35873065165461
 20
152.31544473329751
 30
0.0
 11
173.35873065165461
 21
252.3154447332976
 31
0.0
  0
LINE
  5
1F2D
  8
0
 10
185.25873065162639
 20
152.31544473329751
 30
0.0
 11
185.25873065162639
 21
252.3154447332976
 31
0.0
  0
LINE
  5
1F2E
  8
0
 10
229.2019642713968
 20
86.264105973181586
 30
0.0
 11
329.20196427139678
 21
86.264105973181586
 31
0.0
  0
LINE
  5
1F2F
  8
0
 10
229.2019642713968
 20
92.464105973181603
 30
0.0
 11
329.20196427139678
 21
92.464105973181631
 31
0.0
  0
LINE
  5
1F31
  8
0
 10
229.2019642713968
 20
104.36410597318149
 30
0.0
 11
329.20196427139678
 21
104.36410597318149
 31
0.0
  0
LINE
  5
1F3A
  8
1
 10
219.2019642713968
 20
89.364105973181495
 30
0.0
 11
339.20196427139689
 21
89.364105973181495
 31
0.0
  0
LINE
  5
1F3B
  8
1
 10
80.258730651626465
 20
114.36410597318149
 30
0.0
 11
80.258730651626465
 21
64.364105973181495
 31
0.0
  0
LINE
  5
1F3C
  8
1
 10
170.25873065162651
 20
114.36410597318149
 30
0.0
 11
170.25873065162651
 21
64.364105973181495
 31
0.0
  0
LINE
  5
1F3D
  8
1
 10
55.258730651626479
 20
89.364105973181495
 30
0.0
 11
195.25873065162651
 21
89.364105973181495
 31
0.0
  0
LINE
  5
1F3E
  8
1
 10
140.2587306516817
 20
114.36410597318149
 30
0.0
 11
140.2587306516817
 21
64.364105973181495
 31
0.0
  0
LINE
  5
1F3F
  8
1
 10
110.2587306516817
 20
114.36410597318149
 30
0.0
 11
110.2587306516817
 21
64.364105973181495
 31
0.0
  0
LINE
  5
1F40
  8
1
 10
80.258730651626465
 20
142.3154447332976
 30
0.0
 11
80.258730651626465
 21
262.31544473329751
 31
0.0
  0
LINE
  5
1F41
  8
1
 10
110.2587306516817
 20
142.3154447332976
 30
0.0
 11
110.2587306516817
 21
262.31544473329751
 31
0.0
  0
LINE
  5
1F42
  8
1
 10
140.2587306516817
 20
142.3154447332976
 30
0.0
 11
140.2587306516817
 21
262.31544473329751
 31
0.0
  0
LINE
  5
1F43
  8
1
 10
170.25873065162651
 20
142.3154447332976
 30
0.0
 11
170.25873065162651
 21
262.31544473329751
 31
0.0
  0
ARC
  5
1F74
  8
0
 10
168.6555343947901
 20
81.114105973180017
 30
0.0
 40
3.0000000000000941
 50
89.999999999995666
 51
134.99999999999551
  0
ARC
  5
1F75
  8
0
 10
166.3587306516265
 20
76.564105973180062
 30
0.0
 40
0.8000000000000682
 50
0.0000000000081422
 51
90.000000000008129
  0
ARC
  5
1F76
  8
0
 10
166.15873065162651
 20
75.364105973181495
 30
0.0
 40
1.0
 50
270.0
 51
0.0
  0
ARC
  5
1F77
  8
0
 10
166.15873065162791
 20
103.36410597318149
 30
0.0
 40
1.0
 50
0.0
 51
90.0
  0
ARC
  5
1F78
  8
0
 10
166.35873065162801
 20
102.16410597318171
 30
0.0
 40
0.7999999999999546
 50
270.0
 51
0.0
  0
ARC
  5
1F79
  8
0
 10
168.65553439479169
 20
97.614105973181395
 30
0.0
 40
2.9999999999999432
 50
224.99999999999571
 51
269.99999999999568
  0
LINE
  5
1F7A
  8
0
 10
78.655534394790379
 20
84.114105973180131
 30
0.0
 11
81.861926908474175
 21
84.114105973180131
 31
0.0
  0
LINE
  5
1F7B
  8
0
 10
81.86192690847281
 20
94.614105973181495
 30
0.0
 11
78.65553439479163
 21
94.614105973181495
 31
0.0
  0
CIRCLE
  5
1F7C
  8
0
 10
80.258730651626465
 20
89.364105973181495
 30
0.0
 40
2.5
  0
LINE
  5
1F7D
  8
0
 10
75.008730651627957
 20
90.967302230038285
 30
0.0
 11
75.008730651627957
 21
87.760909716336528
 31
0.0
  0
ARC
  5
1F7E
  8
0
 10
68.258730651626479
 20
77.364105973181495
 30
0.0
 40
3.0
 50
180.0
 51
270.0
  0
LINE
  5
1F7F
  8
0
 10
68.258730651626479
 20
74.364105973181495
 30
0.0
 11
76.15873065162657
 21
74.364105973181495
 31
0.0
  0
ARC
  5
1F80
  8
0
 10
69.258730651627957
 20
82.182482591590315
 30
0.0
 40
1.0000000000000071
 50
180.0
 51
315.0
  0
LINE
  5
1F81
  8
0
 10
65.258730651626479
 20
85.264105973181586
 30
0.0
 11
65.258730651626479
 21
77.364105973181495
 31
0.0
  0
ARC
  5
1F82
  8
0
 10
66.258730651626479
 20
85.264105973181586
 30
0.0
 40
1.0
 50
90.0
 51
180.0
  0
LINE
  5
1F83
  8
0
 10
67.458730651628002
 20
86.264105973181586
 30
0.0
 11
66.258730651626479
 21
86.264105973181586
 31
0.0
  0
ARC
  5
1F84
  8
0
 10
67.458730651627889
 20
85.464105973181617
 30
0.0
 40
0.7999999999999546
 50
0.0
 51
89.999999999991857
  0
LINE
  5
1F85
  8
0
 10
68.258730651627957
 20
82.182482591590315
 30
0.0
 11
68.258730651627843
 21
85.464105973181617
 31
0.0
  0
LINE
  5
1F86
  8
0
 10
72.370000488857613
 20
79.071212754366783
 30
0.0
 11
76.53421405123072
 21
83.235426316739776
 31
0.0
  0
LINE
  5
1F87
  8
0
 10
74.130050995187617
 20
85.639589372776982
 30
0.0
 11
69.96583743281451
 21
81.475375810403762
 31
0.0
  0
LINE
  5
1F88
  8
0
 10
76.358730651626502
 20
77.364105973180131
 30
0.0
 11
73.077107270044166
 21
77.364105973180131
 31
0.0
  0
ARC
  5
1F89
  8
0
 10
73.077107270044166
 20
78.364105973180173
 30
0.0
 40
1.000000000000056
 50
134.9999999999977
 51
270.0
  0
ARC
  5
1F8A
  8
0
 10
76.358730651626502
 20
76.564105973180176
 30
0.0
 40
0.7999999999999546
 50
0.0
 51
90.0
  0
LINE
  5
1F8B
  8
0
 10
77.15873065162657
 20
75.364105973181609
 30
0.0
 11
77.158730651626456
 21
76.564105973180176
 31
0.0
  0
ARC
  5
1F8C
  8
0
 10
76.15873065162657
 20
75.364105973181495
 30
0.0
 40
1.0
 50
270.0
 51
0.0000000000065138
  0
ARC
  5
1F8D
  8
0
 10
72.008730651628071
 20
87.760909716336585
 30
0.0
 40
2.9999999999998859
 50
314.99999999999932
 51
359.99999999999892
  0
ARC
  5
1F8E
  8
0
 10
78.655534394790379
 20
81.114105973180131
 30
0.0
 40
3.000000000000024
 50
89.999999999999446
 51
134.9999999999992
  0
ARC
  5
1F8F
  8
0
 10
68.258730651626479
 20
101.36410597318149
 30
0.0
 40
3.0
 50
90.0
 51
180.0
  0
ARC
  5
1F90
  8
0
 10
69.258730651627957
 20
96.545729354784342
 30
0.0
 40
1.000000000000028
 50
45.000000000003453
 51
180.00000000000321
  0
LINE
  5
1F91
  8
0
 10
76.158730651627934
 20
104.36410597318149
 30
0.0
 11
68.258730651626479
 21
104.36410597318149
 31
0.0
  0
LINE
  5
1F92
  8
0
 10
65.258730651626479
 20
101.36410597318149
 30
0.0
 11
65.258730651626479
 21
93.464105973181404
 31
0.0
  0
LINE
  5
1F93
  8
0
 10
68.258730651627957
 20
93.264105973181586
 30
0.0
 11
68.258730651627957
 21
96.545729354784271
 31
0.0
  0
ARC
  5
1F94
  8
0
 10
67.458730651627889
 20
93.264105973181628
 30
0.0
 40
0.8000000000000113
 50
269.99999999999591
 51
359.99999999999591
  0
LINE
  5
1F95
  8
0
 10
66.258730651626706
 20
92.464105973181404
 30
0.0
 11
67.458730651627889
 21
92.464105973181631
 31
0.0
  0
ARC
  5
1F96
  8
0
 10
66.258730651626479
 20
93.464105973181404
 30
0.0
 40
1.0
 50
180.00000000000159
 51
270.00000000001302
  0
LINE
  5
1F97
  8
0
 10
69.96583743281451
 20
97.252836135970938
 30
0.0
 11
74.130050995187617
 21
93.088622573597945
 31
0.0
  0
LINE
  5
1F98
  8
0
 10
76.534214051232084
 20
95.492785629621949
 30
0.0
 11
72.370000488858977
 21
99.656999191994942
 31
0.0
  0
ARC
  5
1F99
  8
0
 10
72.008730651627957
 20
90.967302230038285
 30
0.0
 40
3.0000000000000031
 50
359.99999999999937
 51
44.999999999999602
  0
ARC
  5
1F9A
  8
0
 10
78.655534394791744
 20
97.614105973181438
 30
0.0
 40
2.9999999999999432
 50
224.9999999999969
 51
269.99999999999682
  0
LINE
  5
1F9B
  8
0
 10
73.077107270045531
 20
101.36410597318149
 30
0.0
 11
76.358730651627965
 21
101.36410597318169
 31
0.0
  0
ARC
  5
1F9C
  8
0
 10
73.077107270045531
 20
100.36410597318149
 30
0.0
 40
1.000000000000028
 50
90.0
 51
225.00000000000111
  0
ARC
  5
1F9D
  8
0
 10
76.158730651627934
 20
103.36410597318149
 30
0.0
 40
1.0
 50
0.0
 51
90.0
  0
LINE
  5
1F9E
  8
0
 10
77.158730651627934
 20
102.16410597318171
 30
0.0
 11
77.158730651627934
 21
103.36410597318149
 31
0.0
  0
ARC
  5
1F9F
  8
0
 10
76.358730651627965
 20
102.16410597318171
 30
0.0
 40
0.7999999999999546
 50
270.0
 51
0.0
  0
LINE
  5
1FA0
  8
0
 10
165.00873065162779
 20
90.967302229710413
 30
0.0
 11
165.0087306516279
 21
87.760909715849039
 31
0.0
  0
LINE
  5
1FA1
  8
0
 10
145.50873065162779
 20
87.760909716605056
 30
0.0
 11
145.50873065162779
 21
90.967302230357063
 31
0.0
  0
LINE
  5
1FA2
  8
0
 10
105.0087306516278
 20
90.967302229710413
 30
0.0
 11
105.0087306516278
 21
87.760909715849039
 31
0.0
  0
LINE
  5
1FA3
  8
0
 10
85.508730651627843
 20
87.760909716605056
 30
0.0
 11
85.508730651627843
 21
90.967302230357063
 31
0.0
  0
LINE
  5
1FA4
  8
0
 10
135.00873065162779
 20
90.967302229710413
 30
0.0
 11
135.0087306516279
 21
87.760909715849039
 31
0.0
  0
LINE
  5
1FA5
  8
0
 10
115.5087306516278
 20
87.760909716605056
 30
0.0
 11
115.5087306516278
 21
90.967302230357063
 31
0.0
  0
CIRCLE
  5
1FA6
  8
0
 10
110.25873065162649
 20
89.364105973181495
 30
0.0
 40
2.5
  0
CIRCLE
  5
1FA7
  8
0
 10
140.25873065162651
 20
89.364105973181495
 30
0.0
 40
2.5
  0
LINE
  5
1FA8
  8
0
 10
123.844517062112
 20
78.182482593689883
 30
0.0
 11
116.387410306121
 21
85.639589374992511
 31
0.0
  0
LINE
  5
1FA9
  8
0
 10
114.3587306516296
 20
74.364105973181495
 30
0.0
 11
136.1587306516266
 21
74.364105973181495
 31
0.0
  0
LINE
  5
1FAA
  8
0
 10
104.1300509915321
 20
85.639589368634006
 30
0.0
 11
96.672944186828659
 21
78.182482589630126
 31
0.0
  0
ARC
  5
1FAB
  8
0
 10
103.0771072700441
 20
78.364105973180131
 30
0.0
 40
1.0
 50
135.0
 51
270.0
  0
LINE
  5
1FAC
  8
0
 10
84.358730651629557
 20
74.364105973181495
 30
0.0
 11
106.1587306516265
 21
74.364105973181495
 31
0.0
  0
LINE
  5
1FAD
  8
0
 10
93.844517062112004
 20
78.182482593689883
 30
0.0
 11
86.387410306121069
 21
85.639589374992511
 31
0.0
  0
LINE
  5
1FAE
  8
0
 10
83.983247252037017
 20
83.235426316742974
 30
0.0
 11
88.14746081441001
 21
79.071212754369981
 31
0.0
  0
LINE
  5
1FAF
  8
0
 10
87.440354033223571
 20
77.364105973183314
 30
0.0
 11
84.158730651629526
 21
77.364105973183314
 31
0.0
  0
ARC
  5
1FB0
  8
0
 10
84.358730651629557
 20
75.364105973181495
 30
0.0
 40
1.0
 50
180.0
 51
270.0
  0
LINE
  5
1FB1
  8
0
 10
83.358730651629571
 20
76.564105973183359
 30
0.0
 11
83.358730651629571
 21
75.364105973181495
 31
0.0
  0
ARC
  5
1FB2
  8
0
 10
84.158730651629526
 20
76.564105973183359
 30
0.0
 40
0.7999999999999546
 50
90.0
 51
180.0
  0
ARC
  5
1FB3
  8
0
 10
87.440354033223457
 20
78.364105973183342
 30
0.0
 40
1.000000000000048
 50
270.00000000000489
 51
45.000000000004597
  0
ARC
  5
1FB4
  8
0
 10
88.508730651627843
 20
87.760909716604985
 30
0.0
 40
2.9999999999999432
 50
179.99999999999889
 51
224.99999994740941
  0
ARC
  5
1FB5
  8
0
 10
81.861926908479631
 20
81.114105973177857
 30
0.0
 40
3.0000000000022591
 50
45.000000000104201
 51
90.000000000104208
  0
ARC
  5
1FB6
  8
0
 10
95.258730626500196
 20
79.596696154047663
 30
0.0
 40
1.999999999999855
 50
224.9999999183552
 51
314.99999991716692
  0
ARC
  5
1FB7
  8
0
 10
111.8619269084796
 20
81.114105973177857
 30
0.0
 40
3.0000000000022591
 50
45.000000000104201
 51
90.000000000104208
  0
LINE
  5
1FB8
  8
0
 10
102.3700004888576
 20
79.071212754366684
 30
0.0
 11
106.53421405123061
 21
83.235426316739904
 31
0.0
  0
ARC
  5
1FB9
  8
0
 10
106.3587306516265
 20
76.564105973180062
 30
0.0
 40
0.8000000000000682
 50
0.0000000000081422
 51
90.000000000008129
  0
ARC
  5
1FBA
  8
0
 10
106.1587306516265
 20
75.364105973181495
 30
0.0
 40
1.0
 50
270.0
 51
0.0
  0
LINE
  5
1FBB
  8
0
 10
106.3587306516264
 20
77.364105973180131
 30
0.0
 11
103.0771072700441
 21
77.364105973180131
 31
0.0
  0
LINE
  5
1FBC
  8
0
 10
107.1587306516265
 20
75.364105973181495
 30
0.0
 11
107.1587306516265
 21
76.564105973180176
 31
0.0
  0
ARC
  5
1FBD
  8
0
 10
108.6555343947901
 20
81.114105973180017
 30
0.0
 40
3.0000000000001039
 50
89.999999999995666
 51
134.9999999999954
  0
ARC
  5
1FBE
  8
0
 10
102.0087306516278
 20
87.760909715849039
 30
0.0
 40
3.0
 50
314.9999999012706
 51
0.0000000000005428
  0
LINE
  5
1FBF
  8
0
 10
108.65553439479039
 20
84.114105973180131
 30
0.0
 11
111.8619269084742
 21
84.114105973180131
 31
0.0
  0
LINE
  5
1FC0
  8
0
 10
113.983247252037
 20
83.235426316742974
 30
0.0
 11
118.14746081441
 21
79.071212754369981
 31
0.0
  0
ARC
  5
1FC1
  8
0
 10
117.4403540332234
 20
78.364105973183342
 30
0.0
 40
1.000000000000048
 50
270.00000000000489
 51
45.000000000004597
  0
ARC
  5
1FC2
  8
0
 10
114.3587306516296
 20
75.364105973181495
 30
0.0
 40
1.0
 50
180.0
 51
270.0
  0
LINE
  5
1FC3
  8
0
 10
113.3587306516296
 20
76.564105973183359
 30
0.0
 11
113.3587306516296
 21
75.364105973181495
 31
0.0
  0
ARC
  5
1FC4
  8
0
 10
114.1587306516295
 20
76.564105973183359
 30
0.0
 40
0.7999999999999546
 50
90.0
 51
180.0
  0
LINE
  5
1FC5
  8
0
 10
117.4403540332235
 20
77.364105973183314
 30
0.0
 11
114.1587306516295
 21
77.364105973183314
 31
0.0
  0
ARC
  5
1FC6
  8
0
 10
118.5087306516278
 20
87.760909716604985
 30
0.0
 40
2.9999999999999432
 50
179.99999999999889
 51
224.99999994740941
  0
LINE
  5
1FC7
  8
0
 10
144.35873065162949
 20
74.364105973181495
 30
0.0
 11
166.15873065162651
 21
74.364105973181495
 31
0.0
  0
LINE
  5
1FC8
  8
0
 10
147.44035403322351
 20
77.364105973183314
 30
0.0
 11
144.1587306516295
 21
77.364105973183314
 31
0.0
  0
LINE
  5
1FC9
  8
0
 10
143.98324725203699
 20
83.235426316742974
 30
0.0
 11
148.14746081441001
 21
79.071212754369981
 31
0.0
  0
ARC
  5
1FCA
  8
0
 10
132.0087306516279
 20
87.760909715849039
 30
0.0
 40
3.0
 50
314.9999999012706
 51
0.0000000000005428
  0
LINE
  5
1FCB
  8
0
 10
132.37000048885761
 20
79.071212754366684
 30
0.0
 11
136.53421405123061
 21
83.235426316739904
 31
0.0
  0
LINE
  5
1FCC
  8
0
 10
136.35873065162639
 20
77.364105973180131
 30
0.0
 11
133.07710727004411
 21
77.364105973180131
 31
0.0
  0
LINE
  5
1FCD
  8
0
 10
134.13005099153219
 20
85.639589368634006
 30
0.0
 11
126.6729441868289
 21
78.182482589630126
 31
0.0
  0
ARC
  5
1FCE
  8
0
 10
125.2587306265003
 20
79.596696154047777
 30
0.0
 40
2.0000000000000151
 50
224.9999999183552
 51
314.99999991716692
  0
ARC
  5
1FCF
  8
0
 10
133.07710727004411
 20
78.364105973180131
 30
0.0
 40
1.0
 50
135.0
 51
270.0
  0
ARC
  5
1FD0
  8
0
 10
136.3587306516265
 20
76.564105973180062
 30
0.0
 40
0.8000000000000682
 50
0.0000000000081422
 51
90.000000000008129
  0
LINE
  5
1FD1
  8
0
 10
137.1587306516266
 20
75.364105973181495
 30
0.0
 11
137.1587306516266
 21
76.564105973180176
 31
0.0
  0
ARC
  5
1FD2
  8
0
 10
136.1587306516266
 20
75.364105973181495
 30
0.0
 40
1.0
 50
270.0
 51
0.0
  0
ARC
  5
1FD3
  8
0
 10
144.35873065162949
 20
75.364105973181495
 30
0.0
 40
1.0
 50
180.0
 51
270.0
  0
LINE
  5
1FD4
  8
0
 10
143.3587306516296
 20
76.564105973183359
 30
0.0
 11
143.3587306516296
 21
75.364105973181495
 31
0.0
  0
ARC
  5
1FD5
  8
0
 10
144.1587306516295
 20
76.564105973183359
 30
0.0
 40
0.7999999999999546
 50
90.0
 51
180.0
  0
LINE
  5
1FD6
  8
0
 10
138.65553439479041
 20
84.114105973180131
 30
0.0
 11
141.86192690847409
 21
84.114105973180131
 31
0.0
  0
ARC
  5
1FD7
  8
0
 10
138.6555343947901
 20
81.114105973180017
 30
0.0
 40
3.0000000000000941
 50
89.999999999995666
 51
134.99999999999551
  0
ARC
  5
1FD8
  8
0
 10
141.8619269084796
 20
81.114105973177857
 30
0.0
 40
3.0000000000022591
 50
45.000000000104201
 51
90.000000000104208
  0
ARC
  5
1FD9
  8
0
 10
155.2587306265003
 20
79.596696154047777
 30
0.0
 40
2.0000000000000151
 50
224.9999999183552
 51
314.99999991716692
  0
LINE
  5
1FDA
  8
0
 10
153.844517062112
 20
78.182482593689883
 30
0.0
 11
146.38741030612101
 21
85.639589374992511
 31
0.0
  0
ARC
  5
1FDB
  8
0
 10
147.4403540332234
 20
78.364105973183371
 30
0.0
 40
1.000000000000058
 50
270.00000000000648
 51
45.000000000002871
  0
ARC
  5
1FDC
  8
0
 10
148.50873065162779
 20
87.760909716604985
 30
0.0
 40
2.999999999999984
 50
179.99999999999889
 51
224.9999999474087
  0
LINE
  5
1FDD
  8
0
 10
164.13005099153219
 20
85.639589368634006
 30
0.0
 11
156.67294418682889
 21
78.182482589630126
 31
0.0
  0
LINE
  5
1FDE
  8
0
 10
162.37000048885761
 20
79.071212754366684
 30
0.0
 11
166.53421405123061
 21
83.235426316739904
 31
0.0
  0
ARC
  5
1FDF
  8
0
 10
163.07710727004411
 20
78.364105973180131
 30
0.0
 40
1.0
 50
135.0
 51
270.0
  0
LINE
  5
1FE0
  8
0
 10
166.35873065162639
 20
77.364105973180131
 30
0.0
 11
163.07710727004411
 21
77.364105973180131
 31
0.0
  0
ARC
  5
1FE1
  8
0
 10
162.0087306516279
 20
87.760909715849039
 30
0.0
 40
3.0
 50
314.9999999012706
 51
0.0000000000005428
  0
LINE
  5
1FE2
  8
0
 10
116.3874103105266
 20
93.088622576374974
 30
0.0
 11
123.8445171138695
 21
100.5457293569338
 31
0.0
  0
LINE
  5
1FE3
  8
0
 10
136.15873065162791
 20
104.36410597318149
 30
0.0
 11
114.35873065163091
 21
104.36410597318149
 31
0.0
  0
LINE
  5
1FE4
  8
0
 10
96.672944238615756
 20
100.545729352626
 30
0.0
 11
104.1300509976457
 21
93.088622570811708
 31
0.0
  0
LINE
  5
1FE5
  8
0
 10
106.15873065162791
 20
104.36410597318149
 30
0.0
 11
84.358730651630935
 21
104.36410597318149
 31
0.0
  0
ARC
  5
1FE6
  8
0
 10
103.0771072700455
 20
100.36410597318149
 30
0.0
 40
1.000000000000028
 50
90.0
 51
225.00000000000111
  0
LINE
  5
1FE7
  8
0
 10
86.387410310526647
 20
93.088622576374974
 30
0.0
 11
93.844517113869529
 21
100.5457293569338
 31
0.0
  0
LINE
  5
1FE8
  8
0
 10
88.147460814408646
 20
99.656999191998125
 30
0.0
 11
83.98324725203247
 21
95.492785629621835
 31
0.0
  0
ARC
  5
1FE9
  8
0
 10
88.508730651627843
 20
90.967302230356907
 30
0.0
 40
2.9999999999999711
 50
134.9999999335981
 51
179.9999999999967
  0
ARC
  5
1FEA
  8
0
 10
81.86192690847281
 20
97.614105973181495
 30
0.0
 40
3.0000000000000031
 50
269.99999999999949
 51
314.99999999999972
  0
LINE
  5
1FEB
  8
0
 10
84.158730651630876
 20
101.36410597318471
 30
0.0
 11
87.440354033222206
 21
101.36410597318471
 31
0.0
  0
ARC
  5
1FEC
  8
0
 10
84.158730651630876
 20
102.1641059731846
 30
0.0
 40
0.7999999999999546
 50
180.0
 51
270.0
  0
LINE
  5
1FED
  8
0
 10
83.358730651630935
 20
103.36410597318149
 30
0.0
 11
83.358730651630935
 21
102.1641059731846
 31
0.0
  0
ARC
  5
1FEE
  8
0
 10
84.358730651630935
 20
103.36410597318149
 30
0.0
 40
1.0
 50
90.0
 51
180.0
  0
ARC
  5
1FEF
  8
0
 10
87.440354033222206
 20
100.36410597318471
 30
0.0
 40
1.0
 50
314.99999999999773
 51
89.999999999996746
  0
ARC
  5
1FF0
  8
0
 10
95.258730674088724
 20
99.131515792406844
 30
0.0
 40
2.0000000000000151
 50
44.999999912735937
 51
134.99999991273589
  0
ARC
  5
1FF1
  8
0
 10
111.8619269084728
 20
97.614105973181495
 30
0.0
 40
3.0000000000000031
 50
269.99999999999949
 51
314.99999999999972
  0
LINE
  5
1FF2
  8
0
 10
106.534214051232
 20
95.492785629621949
 30
0.0
 11
102.37000048885901
 21
99.656999191994942
 31
0.0
  0
ARC
  5
1FF3
  8
0
 10
108.6555343947917
 20
97.614105973181438
 30
0.0
 40
2.9999999999999432
 50
224.9999999999969
 51
269.99999999999682
  0
ARC
  5
1FF4
  8
0
 10
102.0087306516278
 20
90.967302229710299
 30
0.0
 40
3.0000000000000639
 50
0.0000000000021713
 51
44.999999933603128
  0
LINE
  5
1FF5
  8
0
 10
111.8619269084728
 20
94.614105973181495
 30
0.0
 11
108.6555343947915
 21
94.614105973181495
 31
0.0
  0
ARC
  5
1FF6
  8
0
 10
106.15873065162791
 20
103.36410597318149
 30
0.0
 40
1.0
 50
0.0
 51
90.0
  0
ARC
  5
1FF7
  8
0
 10
106.35873065162789
 20
102.16410597318171
 30
0.0
 40
0.7999999999999546
 50
270.0
 51
0.0
  0
LINE
  5
1FF8
  8
0
 10
107.15873065162791
 20
102.16410597318171
 30
0.0
 11
107.15873065162791
 21
103.36410597318149
 31
0.0
  0
LINE
  5
1FF9
  8
0
 10
103.0771072700455
 20
101.36410597318149
 30
0.0
 11
106.35873065162789
 21
101.36410597318169
 31
0.0
  0
LINE
  5
1FFA
  8
0
 10
118.1474608144086
 20
99.656999191998125
 30
0.0
 11
113.9832472520325
 21
95.492785629621835
 31
0.0
  0
ARC
  5
1FFB
  8
0
 10
118.5087306516278
 20
90.967302230356907
 30
0.0
 40
2.9999999999999711
 50
134.9999999335981
 51
179.9999999999967
  0
ARC
  5
1FFC
  8
0
 10
117.44035403322221
 20
100.36410597318471
 30
0.0
 40
1.0
 50
314.99999999999773
 51
89.999999999996746
  0
LINE
  5
1FFD
  8
0
 10
114.1587306516309
 20
101.36410597318471
 30
0.0
 11
117.44035403322221
 21
101.36410597318471
 31
0.0
  0
ARC
  5
1FFE
  8
0
 10
114.1587306516309
 20
102.1641059731846
 30
0.0
 40
0.7999999999999546
 50
180.0
 51
270.0
  0
LINE
  5
1FFF
  8
0
 10
113.35873065163091
 20
103.36410597318149
 30
0.0
 11
113.35873065163091
 21
102.1641059731846
 31
0.0
  0
ARC
  5
2000
  8
0
 10
114.35873065163091
 20
103.36410597318149
 30
0.0
 40
1.0
 50
90.0
 51
180.0
  0
LINE
  5
2001
  8
0
 10
148.14746081440859
 20
99.656999191998125
 30
0.0
 11
143.98324725203241
 21
95.492785629621835
 31
0.0
  0
LINE
  5
2002
  8
0
 10
144.15873065163089
 20
101.36410597318471
 30
0.0
 11
147.44035403322221
 21
101.36410597318471
 31
0.0
  0
LINE
  5
2003
  8
0
 10
166.15873065162791
 20
104.36410597318149
 30
0.0
 11
144.35873065163091
 21
104.36410597318149
 31
0.0
  0
ARC
  5
2004
  8
0
 10
132.00873065162779
 20
90.967302229710583
 30
0.0
 40
2.9999999999999432
 50
359.99999999999682
 51
44.999999933597763
  0
LINE
  5
2005
  8
0
 10
133.0771072700455
 20
101.36410597318149
 30
0.0
 11
136.35873065162801
 21
101.36410597318169
 31
0.0
  0
LINE
  5
2006
  8
0
 10
136.534214051232
 20
95.492785629621949
 30
0.0
 11
132.37000048885901
 21
99.656999191994942
 31
0.0
  0
LINE
  5
2007
  8
0
 10
126.6729442386157
 20
100.545729352626
 30
0.0
 11
134.13005099764601
 21
93.088622570811708
 31
0.0
  0
ARC
  5
2008
  8
0
 10
125.2587306740887
 20
99.131515792406844
 30
0.0
 40
2.0000000000000151
 50
44.999999912735937
 51
134.99999991273589
  0
ARC
  5
2009
  8
0
 10
133.0771072700455
 20
100.36410597318149
 30
0.0
 40
1.000000000000028
 50
90.0
 51
225.00000000000111
  0
LINE
  5
200A
  8
0
 10
141.86192690847281
 20
94.614105973181495
 30
0.0
 11
138.65553439479149
 21
94.614105973181495
 31
0.0
  0
ARC
  5
200B
  8
0
 10
138.65553439479169
 20
97.614105973181395
 30
0.0
 40
2.9999999999999432
 50
224.99999999999619
 51
269.99999999999619
  0
ARC
  5
200C
  8
0
 10
141.86192690847281
 20
97.614105973181495
 30
0.0
 40
3.0000000000000031
 50
269.99999999999949
 51
314.99999999999972
  0
ARC
  5
200D
  8
0
 10
136.15873065162791
 20
103.36410597318149
 30
0.0
 40
1.0
 50
0.0
 51
90.0
  0
LINE
  5
200E
  8
0
 10
137.15873065162791
 20
102.16410597318171
 30
0.0
 11
137.15873065162791
 21
103.36410597318149
 31
0.0
  0
ARC
  5
200F
  8
0
 10
136.35873065162801
 20
102.16410597318171
 30
0.0
 40
0.7999999999999546
 50
270.0
 51
0.0
  0
ARC
  5
2010
  8
0
 10
144.15873065163089
 20
102.1641059731846
 30
0.0
 40
0.7999999999999546
 50
180.0
 51
270.0
  0
LINE
  5
2011
  8
0
 10
143.35873065163091
 20
103.36410597318149
 30
0.0
 11
143.35873065163091
 21
102.1641059731846
 31
0.0
  0
ARC
  5
2012
  8
0
 10
144.35873065163091
 20
103.36410597318149
 30
0.0
 40
1.0
 50
90.0
 51
180.0
  0
ARC
  5
2013
  8
0
 10
155.2587306740887
 20
99.131515792406844
 30
0.0
 40
2.0000000000000151
 50
44.999999912735937
 51
134.99999991273589
  0
LINE
  5
2014
  8
0
 10
146.3874103105266
 20
93.088622576374974
 30
0.0
 11
153.8445171138695
 21
100.5457293569338
 31
0.0
  0
ARC
  5
2015
  8
0
 10
148.50873065162779
 20
90.967302230356907
 30
0.0
 40
3.0
 50
134.9999999335985
 51
179.9999999999967
  0
ARC
  5
2016
  8
0
 10
147.44035403322221
 20
100.36410597318471
 30
0.0
 40
1.0
 50
314.99999999999773
 51
89.999999999996746
  0
LINE
  5
2017
  8
0
 10
156.67294423861571
 20
100.545729352626
 30
0.0
 11
164.13005099764601
 21
93.088622570811708
 31
0.0
  0
LINE
  5
2018
  8
0
 10
166.53421405123191
 20
95.492785629621949
 30
0.0
 11
162.37000048885901
 21
99.656999191994942
 31
0.0
  0
ARC
  5
2019
  8
0
 10
162.0087306516279
 20
90.967302229710583
 30
0.0
 40
2.9999999999999032
 50
359.99999999999682
 51
44.999999933598517
  0
LINE
  5
201A
  8
0
 10
163.0771072700455
 20
101.36410597318149
 30
0.0
 11
166.35873065162801
 21
101.36410597318169
 31
0.0
  0
ARC
  5
201B
  8
0
 10
163.0771072700455
 20
100.36410597318149
 30
0.0
 40
1.000000000000028
 50
90.0
 51
225.00000000000111
  0
LINE
  5
201C
  8
0
 10
175.508730651631
 20
87.760909716348564
 30
0.0
 11
175.508730651631
 21
90.967302230032615
 31
0.0
  0
CIRCLE
  5
201D
  8
0
 10
170.25873065162651
 20
89.364105973181495
 30
0.0
 40
2.5
  0
ARC
  5
201E
  8
0
 10
182.25873065162651
 20
77.364105973181495
 30
0.0
 40
3.0
 50
270.0
 51
0.0
  0
LINE
  5
201F
  8
0
 10
180.5516238704445
 20
81.475375810415798
 30
0.0
 11
176.3874103080712
 21
85.639589372789018
 31
0.0
  0
LINE
  5
2020
  8
0
 10
174.35873065162949
 20
74.364105973181495
 30
0.0
 11
182.25873065162651
 21
74.364105973181495
 31
0.0
  0
ARC
  5
2021
  8
0
 10
177.4403540332234
 20
78.364105973183371
 30
0.0
 40
1.000000000000058
 50
270.00000000000648
 51
45.000000000002871
  0
LINE
  5
2022
  8
0
 10
173.98324725203699
 20
83.235426316742974
 30
0.0
 11
178.14746081441001
 21
79.071212754369981
 31
0.0
  0
LINE
  5
2023
  8
0
 10
167.15873065162651
 20
75.364105973181495
 30
0.0
 11
167.15873065162651
 21
76.564105973180176
 31
0.0
  0
ARC
  5
2024
  8
0
 10
174.35873065162949
 20
75.364105973181495
 30
0.0
 40
1.0
 50
180.0
 51
270.0
  0
LINE
  5
2025
  8
0
 10
173.35873065162949
 20
76.564105973183359
 30
0.0
 11
173.35873065162949
 21
75.364105973181495
 31
0.0
  0
ARC
  5
2026
  8
0
 10
174.1587306516295
 20
76.564105973183359
 30
0.0
 40
0.7999999999999546
 50
90.0
 51
180.0
  0
LINE
  5
2027
  8
0
 10
177.4403540332236
 20
77.364105973183314
 30
0.0
 11
174.1587306516295
 21
77.364105973183314
 31
0.0
  0
ARC
  5
2028
  8
0
 10
171.8619269084796
 20
81.114105973177857
 30
0.0
 40
3.0000000000022591
 50
45.000000000104201
 51
90.000000000104208
  0
LINE
  5
2029
  8
0
 10
168.65553439479041
 20
84.114105973180131
 30
0.0
 11
171.86192690847409
 21
84.114105973180131
 31
0.0
  0
ARC
  5
202A
  8
0
 10
178.50873065163091
 20
87.760909716348465
 30
0.0
 40
2.9999999999998632
 50
179.99999999999781
 51
224.9999999999969
  0
ARC
  5
202B
  8
0
 10
181.258730651631
 20
82.182482591602366
 30
0.0
 40
1.0
 50
225.0
 51
0.0
  0
LINE
  5
202C
  8
0
 10
185.25873065162639
 20
77.364105973181495
 30
0.0
 11
185.25873065162639
 21
85.264105973184769
 31
0.0
  0
LINE
  5
202D
  8
0
 10
184.25873065162639
 20
86.264105973184769
 30
0.0
 11
183.05873065163101
 21
86.264105973184769
 31
0.0
  0
LINE
  5
202E
  8
0
 10
182.258730651631
 20
85.464105973184815
 30
0.0
 11
182.258730651631
 21
82.182482591602366
 31
0.0
  0
ARC
  5
202F
  8
0
 10
183.05873065163101
 20
85.464105973184815
 30
0.0
 40
0.7999999999999546
 50
90.0
 51
180.0
  0
ARC
  5
2030
  8
0
 10
184.25873065162639
 20
85.264105973184769
 30
0.0
 40
1.0
 50
0.0
 51
90.0
  0
ARC
  5
2031
  8
0
 10
182.25873065162651
 20
101.36410597318149
 30
0.0
 40
3.0
 50
0.0
 51
90.0
  0
LINE
  5
2032
  8
0
 10
176.38741030807131
 20
93.088622573592261
 30
0.0
 11
180.5516238704443
 21
97.252836135965254
 31
0.0
  0
LINE
  5
2033
  8
0
 10
178.1474608144087
 20
99.656999191998125
 30
0.0
 11
173.9832472520323
 21
95.492785629621835
 31
0.0
  0
ARC
  5
2034
  8
0
 10
177.44035403322221
 20
100.36410597318471
 30
0.0
 40
1.0
 50
315.0
 51
90.0
  0
LINE
  5
2035
  8
0
 10
182.25873065162651
 20
104.36410597318149
 30
0.0
 11
174.35873065163091
 21
104.36410597318149
 31
0.0
  0
ARC
  5
2036
  8
0
 10
171.86192690847281
 20
97.614105973181395
 30
0.0
 40
2.9999999999998632
 50
270.0
 51
315.0
  0
LINE
  5
2037
  8
0
 10
171.86192690847281
 20
94.614105973181495
 30
0.0
 11
168.65553439479149
 21
94.614105973181495
 31
0.0
  0
ARC
  5
2038
  8
0
 10
178.508730651631
 20
90.967302230032615
 30
0.0
 40
3.000000000000056
 50
135.00000000000071
 51
180.0
  0
LINE
  5
2039
  8
0
 10
167.15873065162791
 20
102.16410597318171
 30
0.0
 11
167.15873065162791
 21
103.36410597318149
 31
0.0
  0
LINE
  5
203A
  8
0
 10
174.15873065163089
 20
101.36410597318471
 30
0.0
 11
177.44035403322221
 21
101.36410597318471
 31
0.0
  0
ARC
  5
203B
  8
0
 10
174.15873065163089
 20
102.1641059731846
 30
0.0
 40
0.7999999999999546
 50
180.0
 51
270.0
  0
LINE
  5
203C
  8
0
 10
173.35873065163091
 20
103.36410597318149
 30
0.0
 11
173.35873065163091
 21
102.1641059731846
 31
0.0
  0
ARC
  5
203D
  8
0
 10
174.35873065163091
 20
103.36410597318149
 30
0.0
 40
1.0
 50
90.0
 51
180.0
  0
LINE
  5
203E
  8
0
 10
185.25873065162639
 20
93.464105973184573
 30
0.0
 11
185.25873065162639
 21
101.36410597318149
 31
0.0
  0
ARC
  5
203F
  8
0
 10
181.258730651631
 20
96.545729354778715
 30
0.0
 40
1.0000000000000679
 50
0.0000000000065138
 51
135.00000000000571
  0
LINE
  5
2040
  8
0
 10
183.05873065163101
 20
92.464105973184815
 30
0.0
 11
184.25873065162619
 21
92.464105973184573
 31
0.0
  0
ARC
  5
2041
  8
0
 10
183.05873065163101
 20
93.264105973184755
 30
0.0
 40
0.7999999999999546
 50
180.0
 51
270.0
  0
LINE
  5
2042
  8
0
 10
182.258730651631
 20
96.545729354778814
 30
0.0
 11
182.258730651631
 21
93.264105973184755
 31
0.0
  0
ARC
  5
2043
  8
0
 10
184.25873065162639
 20
93.464105973184573
 30
0.0
 40
1.000000000000028
 50
269.99999999998698
 51
359.99999999999841
  0
TEXT
  5
218B
  8
0
 62
     3
 10
0.0
 20
0.0
 30
0.0
 40
10.0
  1
L6-SPH12030N
  7
STANDARD1
  0
ENDSEC
  0
EOF
