  0
SECTION
  2
HEADER
  9
$ACADVER
  1
AC1009
  9
$INSBASE
 10
7.37824081052986
 20
15.90864369846679
 30
0.0
  9
$EXTMIN
 10
0.0
 20
-2.960436562073669
 30
0.0
  9
$EXTMAX
 10
275.04237363546122
 20
173.46047743257441
 30
0.0
  9
$LIMMIN
 10
0.0
 20
0.0
  9
$LIMMAX
 10
385.0
 20
270.0
  9
$ORTHOMODE
 70
     1
  9
$REGENMODE
 70
     1
  9
$FILLMODE
 70
     1
  9
$QTEXTMODE
 70
     0
  9
$MIRRTEXT
 70
     0
  9
$DRAGMODE
 70
     2
  9
$LTSCALE
 40
10.0
  9
$OSMODE
 70
  3071
  9
$ATTMODE
 70
     1
  9
$TEXTSIZE
 40
4.0
  9
$TRACEWID
 40
0.05
  9
$TEXTSTYLE
  7
STANDARD
  9
$CLAYER
  8
0
  9
$CELTYPE
  6
BYLAYER
  9
$CECOLOR
 62
   256
  9
$DIMSCALE
 40
1.0
  9
$DIMASZ
 40
3.0
  9
$DIMEXO
 40
2.0
  9
$DIMDLI
 40
10.0
  9
$DIMRND
 40
0.0
  9
$DIMDLE
 40
0.0
  9
$DIMEXE
 40
2.0
  9
$DIMTP
 40
0.0
  9
$DIMTM
 40
0.0
  9
$DIMTXT
 40
3.0
  9
$DIMCEN
 40
0.09
  9
$DIMTSZ
 40
0.0
  9
$DIMTOL
 70
     0
  9
$DIMLIM
 70
     0
  9
$DIMTIH
 70
     0
  9
$DIMTOH
 70
     0
  9
$DIMSE1
 70
     0
  9
$DIMSE2
 70
     0
  9
$DIMTAD
 70
     1
  9
$DIMZIN
 70
     0
  9
$DIMBLK
  1

  9
$DIMASO
 70
     0
  9
$DIMSHO
 70
     0
  9
$DIMPOST
  1

  9
$DIMAPOST
  1

  9
$DIMALT
 70
     0
  9
$DIMALTD
 70
     2
  9
$DIMALTF
 40
25.399999999999999
  9
$DIMLFAC
 40
1.0
  9
$DIMTOFL
 70
     1
  9
$DIMTVP
 40
1.6000000000000001
  9
$DIMTIX
 70
     1
  9
$DIMSOXD
 70
     0
  9
$DIMSAH
 70
     0
  9
$DIMBLK1
  1

  9
$DIMBLK2
  1

  9
$DIMSTYLE
  2
STANDARD
  9
$DIMCLRD
 70
     0
  9
$DIMCLRE
 70
     0
  9
$DIMCLRT
 70
     0
  9
$DIMTFAC
 40
1.0
  9
$DIMGAP
 40
1.0
  9
$LUNITS
 70
     2
  9
$LUPREC
 70
     2
  9
$SKETCHINC
 40
0.1
  9
$FILLETRAD
 40
0.0
  9
$AUNITS
 70
     0
  9
$AUPREC
 70
     2
  9
$MENU
  1
E:\r13\win\SUPPORT\ACAD
  9
$ELEVATION
 40
0.0
  9
$PELEVATION
 40
0.0
  9
$THICKNESS
 40
0.0
  9
$LIMCHECK
 70
     0
  9
$BLIPMODE
 70
     0
  9
$CHAMFERA
 40
1.0
  9
$CHAMFERB
 40
1.0
  9
$SKPOLY
 70
     0
  9
$TDCREATE
 40
2450252.6853964119
  9
$TDUPDATE
 40
2456597.562420093
  9
$TDINDWG
 40
0.1261447917
  9
$TDUSRTIMER
 40
0.1261447917
  9
$USRTIMER
 70
     1
  9
$ANGBASE
 50
0.0
  9
$ANGDIR
 70
     0
  9
$PDMODE
 70
     0
  9
$PDSIZE
 40
0.0
  9
$PLINEWID
 40
0.0
  9
$COORDS
 70
     1
  9
$SPLFRAME
 70
     0
  9
$SPLINETYPE
 70
     6
  9
$SPLINESEGS
 70
     8
  9
$ATTDIA
 70
     0
  9
$ATTREQ
 70
     1
  9
$HANDLING
 70
     1
  9
$HANDSEED
  5
2029
  9
$SURFTAB1
 70
     6
  9
$SURFTAB2
 70
     6
  9
$SURFTYPE
 70
     6
  9
$SURFU
 70
     6
  9
$SURFV
 70
     6
  9
$UCSNAME
  2

  9
$UCSORG
 10
0.0
 20
0.0
 30
0.0
  9
$UCSXDIR
 10
1.0
 20
0.0
 30
0.0
  9
$UCSYDIR
 10
0.0
 20
1.0
 30
0.0
  9
$PUCSNAME
  2

  9
$PUCSORG
 10
0.0
 20
0.0
 30
0.0
  9
$PUCSXDIR
 10
1.0
 20
0.0
 30
0.0
  9
$PUCSYDIR
 10
0.0
 20
1.0
 30
0.0
  9
$USERI1
 70
     3
  9
$USERI2
 70
     1
  9
$USERI3
 70
     0
  9
$USERI4
 70
     1
  9
$USERI5
 70
     0
  9
$USERR1
 40
1.0
  9
$USERR2
 40
3.0
  9
$USERR3
 40
3.0
  9
$USERR4
 40
3.0
  9
$USERR5
 40
10.0
  9
$WORLDVIEW
 70
     1
  9
$SHADEDGE
 70
     3
  9
$SHADEDIF
 70
    70
  9
$TILEMODE
 70
     1
  9
$MAXACTVP
 70
    16
  9
$PLIMCHECK
 70
     0
  9
$PEXTMIN
 10
1.0000000000000000E+020
 20
1.0000000000000000E+020
 30
1.0000000000000000E+020
  9
$PEXTMAX
 10
-1.0000000000000000E+020
 20
-1.0000000000000000E+020
 30
-1.0000000000000000E+020
  9
$PLIMMIN
 10
0.0
 20
0.0
  9
$PLIMMAX
 10
12.0
 20
9.0
  9
$UNITMODE
 70
     0
  9
$VISRETAIN
 70
     0
  9
$PLINEGEN
 70
     0
  9
$PSLTSCALE
 70
     0
  0
ENDSEC
  0
SECTION
  2
TABLES
  0
TABLE
  2
VPORT
 70
     1
  0
VPORT
  2
*ACTIVE
 70
     0
 10
0.0
 20
0.0
 11
1.0
 21
1.0
 12
192.49412581440311
 22
162.8616388594717
 13
0.0
 23
0.0
 14
5.0
 24
5.0
 15
5.0
 25
5.0
 16
0.0
 26
0.0
 36
1.0
 17
0.0
 27
0.0
 37
0.0
 40
334.81001162774987
 41
1.9089595375722539
 42
50.0
 43
0.0
 44
0.0
 50
0.0
 51
0.0
 71
     0
 72
  1000
 73
     1
 74
     0
 75
     0
 76
     0
 77
     0
 78
     1
  0
ENDTAB
  0
TABLE
  2
LTYPE
 70
     3
  0
LTYPE
  2
CONTINUOUS
 70
     0
  3
Solid Line
 72
    65
 73
     0
 40
0.0
  0
LTYPE
  2
CENTER
 70
     0
  3
____ _ ____ _ ____ _ ____ _ ____ _ ____ _ ____
 72
    65
 73
     4
 40
2.0
 49
1.25
 49
-0.25
 49
0.25
 49
-0.25
  0
LTYPE
  2
PHANTOM2
 70
     0
  3
___ _ _ ___ _ _ ___ _ _ ___ _ _
 72
    65
 73
     6
 40
1.25
 49
0.625
 49
-0.125
 49
0.125
 49
-0.125
 49
0.125
 49
-0.125
  0
ENDTAB
  0
TABLE
  2
LAYER
 70
     2
  0
LAYER
  2
0
 70
     0
 62
     7
  6
CONTINUOUS
  0
LAYER
  2
1
 70
     0
 62
     1
  6
CENTER
  0
ENDTAB
  0
TABLE
  2
STYLE
 70
     2
  0
STYLE
  2
STANDARD
 70
     0
 40
0.0
 41
1.0
 50
0.0
 71
     0
 42
4.0
  3
simplex
  4
bigfont
  0
STYLE
  2
STANDARD1
 70
     0
 40
0.0
 41
1.0
 50
0.0
 71
     0
 42
3.0
  3
txt
  4

  0
ENDTAB
  0
TABLE
  2
VIEW
 70
     0
  0
ENDTAB
  0
TABLE
  2
UCS
 70
     0
  0
ENDTAB
  0
TABLE
  2
APPID
 70
     3
  0
APPID
  2
ACAD
 70
     0
  0
APPID
  2
ACAD_MLEADERVER
 70
     0
  0
APPID
  2
ACAD_NAV_VCDISPLAY
 70
     0
  0
ENDTAB
  0
TABLE
  2
DIMSTYLE
 70
     1
  0
DIMSTYLE
  2
STANDARD
 70
     0
  3

  4

  5

  6

  7

 40
1.0
 41
0.18
 42
0.0625
 43
0.38
 44
0.18
 45
0.0
 46
0.0
 47
0.0
 48
0.0
140
0.18
141
0.09
142
0.0
143
25.399999999999999
144
1.0
145
0.0
146
1.0
147
0.09
 71
     0
 72
     0
 73
     1
 74
     1
 75
     0
 76
     0
 77
     0
 78
     0
170
     0
171
     2
172
     0
173
     0
174
     0
175
     0
176
     0
177
     0
178
     0
  0
ENDTAB
  0
ENDSEC
  0
SECTION
  2
BLOCKS
  0
BLOCK
  8
0
  2
$MODEL_SPACE
 70
     0
 10
0.0
 20
0.0
 30
0.0
  3
$MODEL_SPACE
  1

  0
ENDBLK
  5
1EEA
  8
0
  0
BLOCK
 67
     1
  8
0
  2
$PAPER_SPACE
 70
     0
 10
0.0
 20
0.0
 30
0.0
  3
$PAPER_SPACE
  1

  0
ENDBLK
  5
1EE8
 67
     1
  8
0
  0
ENDSEC
  0
SECTION
  2
ENTITIES
  0
LINE
  5
1D6A
  8
0
 10
270.04237363546122
 20
108.46047743257439
 30
0.0
 11
270.04237363546122
 21
168.46047743257441
 31
0.0
  0
LINE
  5
1D6B
  8
0
 10
220.04237363546119
 20
108.46047743257439
 30
0.0
 11
220.04237363546119
 21
168.46047743257441
 31
0.0
  0
LINE
  5
1D6D
  8
0
 10
220.04237363546119
 20
168.46047743257441
 30
0.0
 11
270.04237363546122
 21
168.46047743257441
 31
0.0
  0
LINE
  5
1D6E
  8
0
 10
220.04237363546119
 20
156.5604774325472
 30
0.0
 11
270.04237363546122
 21
156.5604774325472
 31
0.0
  0
LINE
  5
1D6F
  8
0
 10
220.04237363546119
 20
150.3604774325463
 30
0.0
 11
270.04237363546122
 21
150.3604774325463
 31
0.0
  0
LINE
  5
1D70
  8
0
 10
220.04237363546119
 20
126.5604774325473
 30
0.0
 11
270.04237363546122
 21
126.5604774325473
 31
0.0
  0
LINE
  5
1D71
  8
0
 10
220.04237363546119
 20
120.3604774325463
 30
0.0
 11
270.04237363546122
 21
120.3604774325463
 31
0.0
  0
LINE
  5
1D73
  8
0
 10
270.04237363546122
 20
108.46047743257439
 30
0.0
 11
220.04237363546119
 21
108.46047743257439
 31
0.0
  0
LINE
  5
1D79
  8
1
 10
215.0423736354611
 20
123.46047743257439
 30
0.0
 11
275.04237363546122
 21
123.46047743257439
 31
0.0
  0
LINE
  5
1D7A
  8
1
 10
215.0423736354611
 20
153.46047743257441
 30
0.0
 11
275.04237363546122
 21
153.46047743257441
 31
0.0
  0
LINE
  5
1D7B
  8
1
 10
177.0034161348099
 20
138.46047743257441
 30
0.0
 11
107.0034161348099
 21
138.46047743257441
 31
0.0
  0
LINE
  5
1D7C
  8
1
 10
142.00341613480981
 20
173.46047743257441
 30
0.0
 11
142.00341613480981
 21
103.46047743257439
 31
0.0
  0
LINE
  5
1D7D
  8
1
 10
177.0034161348099
 20
153.46047743257441
 30
0.0
 11
107.0034161348099
 21
153.46047743257441
 31
0.0
  0
LINE
  5
1D7E
  8
1
 10
177.0034161348099
 20
123.46047743257439
 30
0.0
 11
107.0034161348099
 21
123.46047743257439
 31
0.0
  0
LINE
  5
1D7F
  8
1
 10
127.0034161348098
 20
173.46047743257441
 30
0.0
 11
127.0034161348098
 21
103.46047743257439
 31
0.0
  0
LINE
  5
1D80
  8
1
 10
157.0034161348099
 20
173.46047743257441
 30
0.0
 11
157.0034161348099
 21
103.46047743257439
 31
0.0
  0
ARC
  5
1DA0
  8
0
 10
169.00341613480981
 20
111.4604774325776
 30
0.0
 40
3.0
 50
270.0
 51
0.0
  0
ARC
  5
1DA1
  8
0
 10
160.90341613481289
 20
110.660477432576
 30
0.0
 40
0.7999999999999546
 50
90.0
 51
180.0
  0
ARC
  5
1DA2
  8
0
 10
153.10341613481
 20
110.6604774325731
 30
0.0
 40
0.7999999999999546
 50
0.0
 51
90.0
  0
ARC
  5
1DA3
  8
0
 10
130.90341613481289
 20
110.660477432576
 30
0.0
 40
0.7999999999999546
 50
90.0
 51
180.0
  0
ARC
  5
1DA4
  8
0
 10
123.10341613480971
 20
110.6604774325731
 30
0.0
 40
0.7999999999999546
 50
0.0000000000162844
 51
90.0
  0
ARC
  5
1DA5
  8
0
 10
115.0034161348098
 20
111.46047743257439
 30
0.0
 40
3.0
 50
180.0
 51
270.0
  0
LINE
  5
1DA6
  8
0
 10
131.1034161348129
 20
108.46047743257439
 30
0.0
 11
152.9034161348099
 21
108.46047743257439
 31
0.0
  0
LINE
  5
1DA7
  8
0
 10
115.0034161348098
 20
108.46047743257439
 30
0.0
 11
122.9034161348099
 21
108.46047743257439
 31
0.0
  0
LINE
  5
1DA8
  8
0
 10
123.9034161348099
 20
109.46047743257461
 30
0.0
 11
123.9034161348097
 21
110.6604774325733
 31
0.0
  0
ARC
  5
1DA9
  8
0
 10
122.9034161348099
 20
109.46047743257439
 30
0.0
 40
1.0
 50
270.0
 51
0.0000000000113991
  0
ARC
  5
1DAA
  8
0
 10
131.1034161348129
 20
109.46047743257439
 30
0.0
 40
1.0
 50
180.0
 51
270.0
  0
LINE
  5
1DAB
  8
0
 10
130.1034161348129
 20
110.660477432576
 30
0.0
 11
130.1034161348129
 21
109.46047743257439
 31
0.0
  0
ARC
  5
1DAC
  8
0
 10
152.9034161348099
 20
109.46047743257439
 30
0.0
 40
1.0
 50
270.0
 51
0.0
  0
LINE
  5
1DAD
  8
0
 10
161.1034161348129
 20
108.46047743257439
 30
0.0
 11
169.00341613480981
 21
108.46047743257439
 31
0.0
  0
LINE
  5
1DAE
  8
0
 10
153.9034161348099
 20
109.46047743257439
 30
0.0
 11
153.9034161348099
 21
110.6604774325731
 31
0.0
  0
ARC
  5
1DAF
  8
0
 10
161.1034161348129
 20
109.46047743257439
 30
0.0
 40
1.0
 50
180.0
 51
270.0
  0
LINE
  5
1DB0
  8
0
 10
160.1034161348129
 20
110.660477432576
 30
0.0
 11
160.1034161348129
 21
109.46047743257439
 31
0.0
  0
LINE
  5
1DB1
  8
0
 10
130.6866593086217
 20
148.3569240419825
 30
0.0
 11
132.10696952540451
 21
149.7772342587655
 31
0.0
  0
LINE
  5
1DB2
  8
0
 10
132.10696952540451
 20
127.14372060637869
 30
0.0
 11
130.686659308614
 21
128.56403082316911
 31
0.0
  0
LINE
  5
1DB3
  8
0
 10
134.1850395164069
 20
111.4604774325763
 30
0.0
 11
130.90341613481289
 21
111.460477432576
 31
0.0
  0
LINE
  5
1DB4
  8
0
 10
130.72793273522001
 20
117.3317977761359
 30
0.0
 11
134.8921462975934
 21
113.16758421376289
 31
0.0
  0
LINE
  5
1DB5
  8
0
 10
135.17498901006681
 20
163.75337065139101
 30
0.0
 11
131.01077544769029
 21
159.58915708901469
 31
0.0
  0
LINE
  5
1DB6
  8
0
 10
130.90341613481431
 20
165.46047743257751
 30
0.0
 11
134.46788222888009
 21
165.46047743257759
 31
0.0
  0
LINE
  5
1DB7
  8
0
 10
152.90341613481129
 20
168.46047743257441
 30
0.0
 11
131.1034161348143
 21
168.46047743257441
 31
0.0
  0
ARC
  5
1DB8
  8
0
 10
122.89286056507061
 20
138.46047745935749
 30
0.0
 40
6.0000000000000284
 50
134.99999991247091
 51
224.99999991247131
  0
LINE
  5
1DB9
  8
0
 10
112.0034161348098
 20
149.36047743257581
 30
0.0
 11
112.0034161348098
 21
127.56047743257891
 31
0.0
  0
ARC
  5
1DBA
  8
0
 10
118.7534161348113
 20
125.3465164018878
 30
0.0
 40
2.9999999999999232
 50
359.99999999999892
 51
44.999999999997293
  0
LINE
  5
1DBB
  8
0
 10
119.1146859720409
 20
113.1675842137595
 30
0.0
 11
123.27889953441409
 21
117.3317977761326
 31
0.0
  0
LINE
  5
1DBC
  8
0
 10
123.10341613480971
 20
111.4604774325731
 30
0.0
 11
119.8217927532273
 21
111.4604774325729
 31
0.0
  0
LINE
  5
1DBD
  8
0
 10
120.87473647837071
 20
119.7359608321695
 30
0.0
 11
116.7105229159978
 21
115.5717472697967
 31
0.0
  0
LINE
  5
1DBE
  8
0
 10
112.0034161348098
 20
119.3604774325744
 30
0.0
 11
112.0034161348098
 21
111.46047743257439
 31
0.0
  0
LINE
  5
1DBF
  8
0
 10
115.0034161348112
 20
116.2788540509832
 30
0.0
 11
115.0034161348113
 21
119.5604774325744
 31
0.0
  0
ARC
  5
1DC0
  8
0
 10
116.0034161348112
 20
116.2788540509832
 30
0.0
 40
1.0000000000000071
 50
180.0
 51
315.0
  0
ARC
  5
1DC1
  8
0
 10
119.8217927532274
 20
112.4604774325729
 30
0.0
 40
0.9999999999999715
 50
134.9999999999965
 51
269.99999999999682
  0
ARC
  5
1DC2
  8
0
 10
113.0034161348098
 20
119.3604774325744
 30
0.0
 40
1.0
 50
90.0
 51
180.0
  0
LINE
  5
1DC3
  8
0
 10
114.20341613481131
 20
120.3604774325744
 30
0.0
 11
113.0034161348098
 21
120.3604774325744
 31
0.0
  0
ARC
  5
1DC4
  8
0
 10
114.20341613481141
 20
119.5604774325744
 30
0.0
 40
0.7999999999999546
 50
0.0
 51
90.000000000008129
  0
LINE
  5
1DC5
  8
0
 10
125.4002198779708
 20
118.2104774325729
 30
0.0
 11
128.60661239165751
 21
118.2104774325762
 31
0.0
  0
ARC
  5
1DC6
  8
0
 10
125.4002198779737
 20
115.2104774325729
 30
0.0
 40
3.0000000000000639
 50
90.000000000056446
 51
134.9999999999992
  0
ARC
  5
1DC7
  8
0
 10
128.60661239166049
 20
115.2104774325765
 30
0.0
 40
2.9999999999997722
 50
44.999999999998458
 51
90.000000000056446
  0
CIRCLE
  5
1DC8
  8
0
 10
127.0034161348098
 20
123.46047743257439
 30
0.0
 40
2.5
1001
ACAD
1000
ASC_BOUNDS
1002
{
1070
    19
1002
}
  0
ARC
  5
1DC9
  8
0
 10
118.7534161348112
 20
121.8572811757293
 30
0.0
 40
3.0
 50
314.99999999999733
 51
359.99999999999841
  0
LINE
  5
1DCA
  8
0
 10
121.7534161348112
 20
125.3465164018877
 30
0.0
 11
121.7534161348112
 21
121.8572811757292
 31
0.0
  0
LINE
  5
1DCB
  8
0
 10
123.27889953160999
 20
129.5891570914745
 30
0.0
 11
118.6502198714699
 21
134.21783677871949
 31
0.0
  0
LINE
  5
1DCC
  8
0
 10
116.7105229159868
 20
131.63205030783149
 30
0.0
 11
120.87473647837101
 21
127.4678367454473
 31
0.0
  0
ARC
  5
1DCD
  8
0
 10
116.0034161348003
 20
130.92494352664491
 30
0.0
 40
1.0
 50
45.0
 51
180.0
  0
LINE
  5
1DCE
  8
0
 10
115.0034161348003
 20
127.3604774325788
 30
0.0
 11
115.0034161348003
 21
130.92494352664491
 31
0.0
  0
ARC
  5
1DCF
  8
0
 10
114.20341613480031
 20
127.3604774325788
 30
0.0
 40
0.7999999999999546
 50
270.0
 51
0.0
  0
LINE
  5
1DD0
  8
0
 10
113.0034161348098
 20
126.56047743257891
 30
0.0
 11
114.20341613480031
 21
126.56047743257891
 31
0.0
  0
ARC
  5
1DD1
  8
0
 10
113.0034161348098
 20
127.56047743257891
 30
0.0
 40
1.0
 50
180.0
 51
270.0
  0
LINE
  5
1DD2
  8
0
 10
130.33310591802069
 20
128.7104774325758
 30
0.0
 11
125.4002198776279
 21
128.7104774325758
 31
0.0
  0
ARC
  5
1DD3
  8
0
 10
125.4002198776279
 20
131.71047743257569
 30
0.0
 40
2.9999999999998859
 50
224.99999993360041
 51
269.99999999999949
  0
ARC
  5
1DD4
  8
0
 10
130.33310591802081
 20
128.21047743257569
 30
0.0
 40
0.5000000000000643
 50
45.000000000011511
 51
90.000000000009777
  0
ARC
  5
1DD5
  8
0
 10
118.75340690267041
 20
155.06368292157191
 30
0.0
 40
3.0000000000000839
 50
0.1419675017441187
 51
45.000000000001151
  0
ARC
  5
1DD6
  8
0
 10
114.20341613481121
 20
157.36047743257461
 30
0.0
 40
0.8000000000000113
 50
270.00000000000409
 51
359.99999999999591
  0
ARC
  5
1DD7
  8
0
 10
113.0034161348098
 20
157.56047743257429
 30
0.0
 40
1.0
 50
180.0
 51
270.00000000001302
  0
LINE
  5
1DD8
  8
0
 10
118.6502198844326
 20
142.7031181529581
 30
0.0
 11
123.2788995371734
 21
147.33179777859371
 31
0.0
  0
LINE
  5
1DD9
  8
0
 10
120.88265247152241
 20
149.7438768253393
 30
0.0
 11
116.71052291599
 21
145.57174726980691
 31
0.0
  0
ARC
  5
1DDA
  8
0
 10
113.0034161348098
 20
149.36047743257581
 30
0.0
 40
1.0
 50
90.0
 51
180.0
  0
LINE
  5
1DDB
  8
0
 10
115.0034161348035
 20
146.27885405099349
 30
0.0
 11
115.0034161348035
 21
149.56047743257579
 31
0.0
  0
ARC
  5
1DDC
  8
0
 10
116.0034161348035
 20
146.27885405099349
 30
0.0
 40
1.0000000000000071
 50
180.0
 51
315.0
  0
LINE
  5
1DDD
  8
0
 10
114.2034161348035
 20
150.36047743257581
 30
0.0
 11
113.0034161348098
 21
150.36047743257581
 31
0.0
  0
ARC
  5
1DDE
  8
0
 10
114.2034161348035
 20
149.56047743257579
 30
0.0
 40
0.7999999999999546
 50
0.0
 51
90.0
  0
LINE
  5
1DDF
  8
0
 10
113.0034161348101
 20
156.56047743257429
 30
0.0
 11
114.20341613481131
 21
156.5604774325746
 31
0.0
  0
LINE
  5
1DE0
  8
0
 10
125.4002198782746
 20
148.2104774325758
 30
0.0
 11
130.33310591802839
 21
148.2104774325758
 31
0.0
  0
ARC
  5
1DE1
  8
0
 10
125.4002198782747
 20
145.21047743257591
 30
0.0
 40
2.9999999999998832
 50
90.000000000002728
 51
134.9999999336043
  0
ARC
  5
1DE2
  8
0
 10
130.33310591802839
 20
148.7104774325758
 30
0.0
 40
0.500000000000057
 50
270.0000000000033
 51
315.00000000000699
  0
CIRCLE
  5
1DE3
  8
0
 10
127.0034161348098
 20
153.46047743257441
 30
0.0
 40
2.5
  0
ARC
  5
1DE4
  8
0
 10
118.761332127963
 20
151.8651971688989
 30
0.0
 40
2.9999999999998841
 50
314.99999999999733
 51
0.1419675017403284
  0
LINE
  5
1DE5
  8
0
 10
121.7533976934335
 20
155.07111631497449
 30
0.0
 11
121.7613229187258
 21
151.87263056230131
 31
0.0
  0
LINE
  5
1DE6
  8
0
 10
116.7105229159978
 20
161.34920759536399
 30
0.0
 11
120.87472724623009
 21
157.1850032651316
 31
0.0
  0
LINE
  5
1DE7
  8
0
 10
122.90341613481129
 20
168.46047743257441
 30
0.0
 11
115.0034161348098
 21
168.46047743257441
 31
0.0
  0
LINE
  5
1DE8
  8
0
 10
119.82179275322881
 20
165.46047743257441
 30
0.0
 11
123.1034161348113
 21
165.46047743257449
 31
0.0
  0
LINE
  5
1DE9
  8
0
 10
123.2788995344153
 20
159.58915708901469
 30
0.0
 11
119.1146859720422
 21
163.75337065138791
 31
0.0
  0
LINE
  5
1DEA
  8
0
 10
112.0034161348098
 20
165.46047743257441
 30
0.0
 11
112.0034161348098
 21
157.56047743257429
 31
0.0
  0
ARC
  5
1DEB
  8
0
 10
119.82179275322881
 20
164.46047743257441
 30
0.0
 40
1.000000000000028
 50
90.000000000001606
 51
224.99999999999881
  0
ARC
  5
1DEC
  8
0
 10
116.0034161348112
 20
160.64210081417741
 30
0.0
 40
1.0
 50
45.0
 51
180.0
  0
LINE
  5
1DED
  8
0
 10
115.0034161348112
 20
157.3604774325745
 30
0.0
 11
115.0034161348112
 21
160.64210081417741
 31
0.0
  0
ARC
  5
1DEE
  8
0
 10
115.0034161348098
 20
165.46047743257441
 30
0.0
 40
3.0
 50
90.0
 51
180.0
  0
LINE
  5
1DEF
  8
0
 10
128.88945510413069
 20
158.71047743257441
 30
0.0
 11
125.40021987797491
 21
158.71047743257441
 31
0.0
  0
ARC
  5
1DF0
  8
0
 10
125.40021987797491
 20
161.71047743257421
 30
0.0
 40
2.999999999999829
 50
224.9999999999992
 51
270.0
  0
ARC
  5
1DF1
  8
0
 10
128.88945510413069
 20
161.71047743257441
 30
0.0
 40
2.9999999999999432
 50
270.00000000000108
 51
315.0
  0
ARC
  5
1DF2
  8
0
 10
122.90341613481129
 20
167.46047743257441
 30
0.0
 40
1.0
 50
0.0
 51
90.0
  0
LINE
  5
1DF3
  8
0
 10
123.90341613481129
 20
166.2604774325745
 30
0.0
 11
123.90341613481129
 21
167.46047743257441
 31
0.0
  0
ARC
  5
1DF4
  8
0
 10
123.1034161348113
 20
166.2604774325745
 30
0.0
 40
0.7999999999999546
 50
270.0
 51
0.0
  0
ARC
  5
1DF5
  8
0
 10
130.90341613481431
 20
166.2604774325774
 30
0.0
 40
0.7999999999999546
 50
180.0
 51
270.0
  0
LINE
  5
1DF6
  8
0
 10
130.1034161348143
 20
167.46047743257441
 30
0.0
 11
130.1034161348143
 21
166.2604774325774
 31
0.0
  0
ARC
  5
1DF7
  8
0
 10
131.1034161348143
 20
167.46047743257441
 30
0.0
 40
1.0
 50
90.0
 51
180.0
  0
ARC
  5
1DF8
  8
0
 10
161.11397170451841
 20
138.46047740261119
 30
0.0
 40
6.0000000000000071
 50
314.9999999027599
 51
44.999999901269859
  0
ARC
  5
1DF9
  8
0
 10
153.6737263515941
 20
128.2104774325758
 30
0.0
 40
0.5
 50
89.999999999986969
 51
134.99999999999079
  0
ARC
  5
1DFA
  8
0
 10
155.40021987797371
 20
115.2104774325727
 30
0.0
 40
3.0000000000002038
 50
90.00000000005538
 51
134.99999999999801
  0
LINE
  5
1DFB
  8
0
 10
132.2534161348112
 20
121.857281175998
 30
0.0
 11
132.2534161348112
 21
126.7901672157855
 31
0.0
  0
LINE
  5
1DFC
  8
0
 10
151.7534161348112
 20
126.79016721579271
 30
0.0
 11
151.7534161348112
 21
121.85728117524189
 31
0.0
  0
ARC
  5
1DFD
  8
0
 10
142.00341610484651
 20
119.3499218628596
 30
0.0
 40
6.000000000000048
 50
224.9999999027595
 51
314.99999990127031
  0
LINE
  5
1DFE
  8
0
 10
137.7607754105268
 20
115.1072811829407
 30
0.0
 11
133.1320957893044
 21
119.73596083438539
 31
0.0
  0
ARC
  5
1DFF
  8
0
 10
134.18503951640679
 20
112.4604774325763
 30
0.0
 40
0.9999999999999879
 50
270.00000000000489
 51
45.000000000001151
  0
ARC
  5
1E00
  8
0
 10
135.2534161348112
 20
121.8572811759979
 30
0.0
 40
2.999999999999964
 50
179.99999999999889
 51
224.99999994740901
  0
LINE
  5
1E01
  8
0
 10
150.87473647471549
 20
119.7359608280269
 30
0.0
 11
146.24605678465511
 21
115.10728116842949
 31
0.0
  0
LINE
  5
1E02
  8
0
 10
149.11468597204089
 20
113.1675842137596
 30
0.0
 11
153.27889953441399
 21
117.3317977761326
 31
0.0
  0
ARC
  5
1E03
  8
0
 10
149.8217927532275
 20
112.4604774325731
 30
0.0
 40
1.000000000000028
 50
135.00000000000341
 51
270.0000000000033
  0
LINE
  5
1E04
  8
0
 10
153.10341613481
 20
111.4604774325731
 30
0.0
 11
149.8217927532275
 21
111.4604774325731
 31
0.0
  0
ARC
  5
1E05
  8
0
 10
148.7534161348112
 20
121.85728117524189
 30
0.0
 40
3.0
 50
314.9999999012706
 51
0.0000000000005428
  0
ARC
  5
1E06
  8
0
 10
131.75341613481129
 20
126.7901672157855
 30
0.0
 40
0.4999999999998864
 50
359.99999999999352
 51
44.999999999995389
  0
ARC
  5
1E07
  8
0
 10
152.25341613481109
 20
126.79016721579281
 30
0.0
 40
0.4999999999998835
 50
135.0000000000046
 51
180.00000000000651
  0
LINE
  5
1E08
  8
0
 10
153.32017296100091
 20
128.56403082316911
 30
0.0
 11
151.8998627442179
 21
127.143720606386
 31
0.0
  0
ARC
  5
1E09
  8
0
 10
165.2534161348016
 20
125.0636736894252
 30
0.0
 40
2.9999999999999432
 50
135.00000000000301
 51
180.00000000023121
  0
LINE
  5
1E0A
  8
0
 10
164.1850395164069
 20
111.4604774325763
 30
0.0
 11
160.90341613481289
 21
111.460477432576
 31
0.0
  0
LINE
  5
1E0B
  8
0
 10
160.72793273522069
 20
117.3317977761359
 30
0.0
 11
164.8921462975934
 21
113.16758421376289
 31
0.0
  0
LINE
  5
1E0C
  8
0
 10
167.296309353628
 20
115.5717472698085
 30
0.0
 11
163.13209579125461
 21
119.7359608321818
 31
0.0
  0
ARC
  5
1E0D
  8
0
 10
158.60661239166109
 20
115.2104774325761
 30
0.0
 40
3.0000000000001128
 50
45.000000000001521
 51
90.000000000058634
  0
LINE
  5
1E0E
  8
0
 10
155.40021987797081
 20
118.2104774325729
 30
0.0
 11
158.60661239165799
 21
118.2104774325762
 31
0.0
  0
CIRCLE
  5
1E0F
  8
0
 10
157.0034161348099
 20
123.46047743257439
 30
0.0
 40
2.5
  0
LINE
  5
1E10
  8
0
 10
162.25341613481439
 20
121.8572811757296
 30
0.0
 11
162.25341613480171
 21
125.06367368941309
 31
0.0
  0
ARC
  5
1E11
  8
0
 10
165.25341613481439
 20
121.85728117574131
 30
0.0
 40
3.0000000000000031
 50
180.00000000022521
 51
224.9999999999965
  0
LINE
  5
1E12
  8
0
 10
169.00341613481439
 20
119.5604774325776
 30
0.0
 11
169.00341613481439
 21
116.27885405099499
 31
0.0
  0
ARC
  5
1E13
  8
0
 10
164.18503951640679
 20
112.4604774325763
 30
0.0
 40
1.0000000000000071
 50
270.00000000000648
 51
45.0
  0
ARC
  5
1E14
  8
0
 10
168.00341613481439
 20
116.27885405099499
 30
0.0
 40
0.9999999999999431
 50
225.0000000000023
 51
0.0
  0
ARC
  5
1E15
  8
0
 10
169.80341613481431
 20
119.5604774325776
 30
0.0
 40
0.799999999999983
 50
90.000000000002046
 51
179.9999999999979
  0
LINE
  5
1E16
  8
0
 10
171.0034161348097
 20
120.3604774325777
 30
0.0
 11
169.80341613481431
 21
120.3604774325776
 31
0.0
  0
ARC
  5
1E17
  8
0
 10
171.00341613480981
 20
119.3604774325777
 30
0.0
 40
1.0
 50
0.0
 51
90.000000000006509
  0
LINE
  5
1E18
  8
0
 10
165.35661238443731
 20
134.2178367082914
 30
0.0
 11
160.72793273299251
 21
129.589157087069
 31
0.0
  0
LINE
  5
1E19
  8
0
 10
163.13209579124191
 20
127.1849940329847
 30
0.0
 11
167.29630935361519
 21
131.34920759535791
 31
0.0
  0
ARC
  5
1E1A
  8
0
 10
158.60661239137991
 20
131.7104774325758
 30
0.0
 40
3.0000000000000031
 50
269.99999999999949
 51
314.99999994740898
  0
LINE
  5
1E1B
  8
0
 10
158.60661239137991
 20
128.7104774325758
 30
0.0
 11
153.67372635159421
 21
128.7104774325758
 31
0.0
  0
ARC
  5
1E1C
  8
0
 10
169.80341613480201
 20
127.3604774325777
 30
0.0
 40
0.8000000000000682
 50
180.0000000000081
 51
270.00000000000807
  0
LINE
  5
1E1D
  8
0
 10
169.0034161348016
 20
130.6421008141715
 30
0.0
 11
169.00341613480191
 21
127.3604774325776
 31
0.0
  0
ARC
  5
1E1E
  8
0
 10
168.00341613480171
 20
130.64210081417141
 30
0.0
 40
0.9999999999999275
 50
0.0000000000032569
 51
135.0
  0
ARC
  5
1E1F
  8
0
 10
171.00341613480981
 20
127.5604774325776
 30
0.0
 40
1.0
 50
270.0
 51
0.0
  0
LINE
  5
1E20
  8
0
 10
169.80341613480209
 20
126.5604774325776
 30
0.0
 11
171.00341613480981
 21
126.5604774325776
 31
0.0
  0
ARC
  5
1E21
  8
0
 10
153.67372635158659
 20
148.7104774325758
 30
0.0
 40
0.500000000000004
 50
225.00000000000921
 51
270.00000000001302
  0
ARC
  5
1E22
  8
0
 10
152.90341613481129
 20
167.46047743257441
 30
0.0
 40
1.0
 50
0.0
 51
90.0
  0
ARC
  5
1E23
  8
0
 10
153.10341613481131
 20
166.26047743257459
 30
0.0
 40
0.7999999999999546
 50
270.0
 51
0.0
  0
ARC
  5
1E24
  8
0
 10
155.40021987797499
 20
161.71047743257441
 30
0.0
 40
3.0000000000001128
 50
225.00000000000151
 51
270.0000000000021
  0
ARC
  5
1E25
  8
0
 10
148.75341613481129
 20
155.0636736891035
 30
0.0
 40
2.9999999999998832
 50
359.99999999999619
 51
44.99999993359814
  0
ARC
  5
1E26
  8
0
 10
135.2534161348112
 20
155.06367368975009
 30
0.0
 40
3.0
 50
134.9999999336043
 51
180.0000000000027
  0
LINE
  5
1E27
  8
0
 10
132.2534161348112
 20
150.13078764935869
 30
0.0
 11
132.2534161348112
 21
155.06367368975
 31
0.0
  0
ARC
  5
1E28
  8
0
 10
131.75341613481129
 20
150.13078764935861
 30
0.0
 40
0.4999999999998633
 50
315.00000000000227
 51
0.0000000000065138
  0
LINE
  5
1E29
  8
0
 10
151.8998627442179
 20
149.7772342587578
 30
0.0
 11
153.3201729609934
 21
148.35692404198241
 31
0.0
  0
ARC
  5
1E2A
  8
0
 10
152.25341613481129
 20
150.13078764935099
 30
0.0
 40
0.500000000000057
 50
179.99999999998701
 51
224.99999999998619
  0
LINE
  5
1E2B
  8
0
 10
151.7534161348112
 20
155.0636736891033
 30
0.0
 11
151.7534161348112
 21
150.13078764935111
 31
0.0
  0
ARC
  5
1E2C
  8
0
 10
142.0034161615929
 20
157.57103300230739
 30
0.0
 40
5.9999999999998872
 50
44.999999912471097
 51
134.99999991247111
  0
ARC
  5
1E2D
  8
0
 10
134.46788222888031
 20
164.46047743257759
 30
0.0
 40
1.0
 50
315.00000000000119
 51
90.000000000004874
  0
LINE
  5
1E2E
  8
0
 10
133.13209579370979
 20
157.184994035768
 30
0.0
 11
137.76077548095509
 21
161.81367369590799
 31
0.0
  0
ARC
  5
1E2F
  8
0
 10
149.821792753229
 20
164.46047743257429
 30
0.0
 40
1.0000000000000071
 50
90.000000000006509
 51
225.0
  0
LINE
  5
1E30
  8
0
 10
146.2460568551935
 20
161.81367368294531
 30
0.0
 11
150.87473648082931
 21
157.18499403020459
 31
0.0
  0
LINE
  5
1E31
  8
0
 10
153.2788995344153
 20
159.58915708901461
 30
0.0
 11
149.11468597204251
 21
163.75337065138771
 31
0.0
  0
LINE
  5
1E32
  8
0
 10
149.82179275322889
 20
165.46047743257429
 30
0.0
 11
153.10341613481131
 21
165.46047743257461
 31
0.0
  0
ARC
  5
1E33
  8
0
 10
171.00341613480981
 20
157.5604774325775
 30
0.0
 40
1.0
 50
270.0
 51
0.0
  0
ARC
  5
1E34
  8
0
 10
169.8034161348146
 20
157.36047743257751
 30
0.0
 40
0.799999999999983
 50
180.00000000000199
 51
269.99999999999801
  0
ARC
  5
1E35
  8
0
 10
165.2534161348143
 20
155.06367368942529
 30
0.0
 40
2.9999999999999432
 50
135.00000000000301
 51
179.9999999998295
  0
LINE
  5
1E36
  8
0
 10
160.72793273935099
 20
147.33179777248009
 30
0.0
 11
165.3566123989485
 21
142.70311808241971
 31
0.0
  0
LINE
  5
1E37
  8
0
 10
167.2963093536184
 20
145.57174726980551
 30
0.0
 11
163.13209579124529
 21
149.73596083217879
 31
0.0
  0
ARC
  5
1E38
  8
0
 10
158.6066123921359
 20
145.2104774325758
 30
0.0
 40
3.0
 50
44.999999901270613
 51
90.000000000000554
  0
LINE
  5
1E39
  8
0
 10
153.67372635158671
 20
148.2104774325758
 30
0.0
 11
158.6066123921359
 21
148.2104774325758
 31
0.0
  0
CIRCLE
  5
1E3A
  8
0
 10
157.0034161348099
 20
153.46047743257441
 30
0.0
 40
2.5
  0
LINE
  5
1E3B
  8
0
 10
162.25341613480481
 20
151.8572811757474
 30
0.0
 11
162.25341613481439
 21
155.0636736894343
 31
0.0
  0
ARC
  5
1E3C
  8
0
 10
165.25341613480481
 20
151.85728117573851
 30
0.0
 40
3.000000000000024
 50
179.9999999998301
 51
225.0000000000023
  0
LINE
  5
1E3D
  8
0
 10
169.00341613480481
 20
149.5604774325742
 30
0.0
 11
169.00341613480481
 21
146.27885405099209
 31
0.0
  0
ARC
  5
1E3E
  8
0
 10
171.00341613480981
 20
149.36047743257441
 30
0.0
 40
1.0
 50
0.0
 51
90.000000000013031
  0
ARC
  5
1E3F
  8
0
 10
168.00341613480489
 20
146.27885405099209
 30
0.0
 40
0.9999999999999431
 50
225.0000000000023
 51
0.0
  0
ARC
  5
1E40
  8
0
 10
169.80341613480479
 20
149.56047743257409
 30
0.0
 40
0.8000000000000113
 50
90.000000000004064
 51
179.99999999999591
  0
LINE
  5
1E41
  8
0
 10
169.8034161348146
 20
156.5604774325775
 30
0.0
 11
171.00341613480981
 21
156.5604774325775
 31
0.0
  0
LINE
  5
1E42
  8
0
 10
171.00341613480961
 20
150.36047743257441
 30
0.0
 11
169.80341613480479
 21
150.36047743257421
 31
0.0
  0
LINE
  5
1E43
  8
0
 10
164.89214629759221
 20
163.75337065139101
 30
0.0
 11
160.72793273521569
 21
159.58915708901489
 31
0.0
  0
LINE
  5
1E44
  8
0
 10
160.90341613481451
 20
165.4604774325777
 30
0.0
 11
164.18503951640579
 21
165.46047743257759
 31
0.0
  0
LINE
  5
1E45
  8
0
 10
169.00341613480981
 20
168.46047743257441
 30
0.0
 11
161.10341613481449
 21
168.46047743257441
 31
0.0
  0
LINE
  5
1E46
  8
0
 10
163.13209579125461
 20
157.1849940329848
 30
0.0
 11
167.296309353628
 21
161.34920759535831
 31
0.0
  0
ARC
  5
1E47
  8
0
 10
158.60661239165611
 20
161.71047743257461
 30
0.0
 40
3.0000000000000839
 50
270.0000000000021
 51
314.99999999999881
  0
LINE
  5
1E48
  8
0
 10
158.6066123916562
 20
158.71047743257449
 30
0.0
 11
155.4002198779751
 21
158.71047743257429
 31
0.0
  0
LINE
  5
1E49
  8
0
 10
153.90341613481129
 20
166.26047743257459
 30
0.0
 11
153.90341613481129
 21
167.46047743257441
 31
0.0
  0
ARC
  5
1E4A
  8
0
 10
160.90341613481451
 20
166.2604774325776
 30
0.0
 40
0.7999999999999546
 50
180.0
 51
270.0
  0
LINE
  5
1E4B
  8
0
 10
160.10341613481449
 20
167.46047743257441
 30
0.0
 11
160.10341613481449
 21
166.2604774325776
 31
0.0
  0
ARC
  5
1E4C
  8
0
 10
161.10341613481449
 20
167.46047743257441
 30
0.0
 40
1.0
 50
90.0
 51
180.0
  0
ARC
  5
1E4D
  8
0
 10
164.18503951640571
 20
164.46047743257759
 30
0.0
 40
1.0
 50
314.99999999999773
 51
89.999999999996746
  0
LINE
  5
1E4E
  8
0
 10
169.00341613481439
 20
160.64210081417181
 30
0.0
 11
169.00341613481459
 21
157.36047743257751
 31
0.0
  0
ARC
  5
1E4F
  8
0
 10
168.00341613481439
 20
160.64210081417181
 30
0.0
 40
0.9999999999999275
 50
0.0000000000032569
 51
135.0
  0
ARC
  5
1E50
  8
0
 10
169.00341613480981
 20
165.46047743257441
 30
0.0
 40
3.0
 50
0.0
 51
90.0
  0
LINE
  5
1E51
  8
0
 10
172.00341613480981
 20
127.5604774325776
 30
0.0
 11
172.00341613480981
 21
149.36047743257441
 31
0.0
  0
LINE
  5
1E52
  8
0
 10
172.00341613480981
 20
111.46047743257439
 30
0.0
 11
172.00341613480981
 21
119.3604774325777
 31
0.0
  0
LINE
  5
1E53
  8
0
 10
172.00341613480981
 20
157.5604774325775
 30
0.0
 11
172.00341613480981
 21
165.46047743257441
 31
0.0
  0
TEXT
  5
1F9B
  8
0
 62
     3
 10
0.0
 20
0.0
 30
0.0
 40
10.0
  1
L6-SPH6060N
  7
STANDARD1
  0
ENDSEC
  0
EOF
