  0
SECTION
  2
HEADER
  9
$ACADVER
  1
AC1009
  9
$INSBASE
 10
7.37824081052986
 20
15.90864369846679
 30
0.0
  9
$EXTMIN
 10
0.0
 20
-2.960436562073669
 30
0.0
  9
$EXTMAX
 10
239.62847346030989
 20
167.63906910712899
 30
0.0
  9
$LIMMIN
 10
0.0
 20
0.0
  9
$LIMMAX
 10
385.0
 20
270.0
  9
$ORTHOMODE
 70
     0
  9
$REGENMODE
 70
     1
  9
$FILLMODE
 70
     1
  9
$QTEXTMODE
 70
     0
  9
$MIRRTEXT
 70
     0
  9
$DRAGMODE
 70
     2
  9
$LTSCALE
 40
10.0
  9
$OSMODE
 70
  3071
  9
$ATTMODE
 70
     1
  9
$TEXTSIZE
 40
4.0
  9
$TRACEWID
 40
0.05
  9
$TEXTSTYLE
  7
STANDARD
  9
$CLAYER
  8
0
  9
$CELTYPE
  6
BYLAYER
  9
$CECOLOR
 62
   256
  9
$DIMSCALE
 40
1.0
  9
$DIMASZ
 40
3.0
  9
$DIMEXO
 40
2.0
  9
$DIMDLI
 40
10.0
  9
$DIMRND
 40
0.0
  9
$DIMDLE
 40
0.0
  9
$DIMEXE
 40
2.0
  9
$DIMTP
 40
0.0
  9
$DIMTM
 40
0.0
  9
$DIMTXT
 40
3.0
  9
$DIMCEN
 40
0.09
  9
$DIMTSZ
 40
0.0
  9
$DIMTOL
 70
     0
  9
$DIMLIM
 70
     0
  9
$DIMTIH
 70
     0
  9
$DIMTOH
 70
     0
  9
$DIMSE1
 70
     0
  9
$DIMSE2
 70
     0
  9
$DIMTAD
 70
     1
  9
$DIMZIN
 70
     0
  9
$DIMBLK
  1

  9
$DIMASO
 70
     0
  9
$DIMSHO
 70
     0
  9
$DIMPOST
  1

  9
$DIMAPOST
  1

  9
$DIMALT
 70
     0
  9
$DIMALTD
 70
     2
  9
$DIMALTF
 40
25.399999999999999
  9
$DIMLFAC
 40
1.0
  9
$DIMTOFL
 70
     1
  9
$DIMTVP
 40
1.6000000000000001
  9
$DIMTIX
 70
     1
  9
$DIMSOXD
 70
     0
  9
$DIMSAH
 70
     0
  9
$DIMBLK1
  1

  9
$DIMBLK2
  1

  9
$DIMSTYLE
  2
STANDARD
  9
$DIMCLRD
 70
     0
  9
$DIMCLRE
 70
     0
  9
$DIMCLRT
 70
     0
  9
$DIMTFAC
 40
1.0
  9
$DIMGAP
 40
1.0
  9
$LUNITS
 70
     2
  9
$LUPREC
 70
     2
  9
$SKETCHINC
 40
0.1
  9
$FILLETRAD
 40
0.0
  9
$AUNITS
 70
     0
  9
$AUPREC
 70
     2
  9
$MENU
  1
E:\r13\win\SUPPORT\ACAD
  9
$ELEVATION
 40
0.0
  9
$PELEVATION
 40
0.0
  9
$THICKNESS
 40
0.0
  9
$LIMCHECK
 70
     0
  9
$BLIPMODE
 70
     0
  9
$CHAMFERA
 40
1.0
  9
$CHAMFERB
 40
1.0
  9
$SKPOLY
 70
     0
  9
$TDCREATE
 40
2450252.6853964119
  9
$TDUPDATE
 40
2456597.562508021
  9
$TDINDWG
 40
0.0930008796
  9
$TDUSRTIMER
 40
0.0930008796
  9
$USRTIMER
 70
     1
  9
$ANGBASE
 50
0.0
  9
$ANGDIR
 70
     0
  9
$PDMODE
 70
     0
  9
$PDSIZE
 40
0.0
  9
$PLINEWID
 40
0.0
  9
$COORDS
 70
     1
  9
$SPLFRAME
 70
     0
  9
$SPLINETYPE
 70
     6
  9
$SPLINESEGS
 70
     8
  9
$ATTDIA
 70
     0
  9
$ATTREQ
 70
     1
  9
$HANDLING
 70
     1
  9
$HANDSEED
  5
9C4
  9
$SURFTAB1
 70
     6
  9
$SURFTAB2
 70
     6
  9
$SURFTYPE
 70
     6
  9
$SURFU
 70
     6
  9
$SURFV
 70
     6
  9
$UCSNAME
  2

  9
$UCSORG
 10
0.0
 20
0.0
 30
0.0
  9
$UCSXDIR
 10
1.0
 20
0.0
 30
0.0
  9
$UCSYDIR
 10
0.0
 20
1.0
 30
0.0
  9
$PUCSNAME
  2

  9
$PUCSORG
 10
0.0
 20
0.0
 30
0.0
  9
$PUCSXDIR
 10
1.0
 20
0.0
 30
0.0
  9
$PUCSYDIR
 10
0.0
 20
1.0
 30
0.0
  9
$USERI1
 70
     3
  9
$USERI2
 70
     1
  9
$USERI3
 70
     0
  9
$USERI4
 70
     1
  9
$USERI5
 70
     0
  9
$USERR1
 40
1.0
  9
$USERR2
 40
3.0
  9
$USERR3
 40
3.0
  9
$USERR4
 40
3.0
  9
$USERR5
 40
10.0
  9
$WORLDVIEW
 70
     1
  9
$SHADEDGE
 70
     3
  9
$SHADEDIF
 70
    70
  9
$TILEMODE
 70
     1
  9
$MAXACTVP
 70
    16
  9
$PLIMCHECK
 70
     0
  9
$PEXTMIN
 10
1.0000000000000000E+020
 20
1.0000000000000000E+020
 30
1.0000000000000000E+020
  9
$PEXTMAX
 10
-1.0000000000000000E+020
 20
-1.0000000000000000E+020
 30
-1.0000000000000000E+020
  9
$PLIMMIN
 10
0.0
 20
0.0
  9
$PLIMMAX
 10
12.0
 20
9.0
  9
$UNITMODE
 70
     0
  9
$VISRETAIN
 70
     0
  9
$PLINEGEN
 70
     0
  9
$PSLTSCALE
 70
     0
  0
ENDSEC
  0
SECTION
  2
TABLES
  0
TABLE
  2
VPORT
 70
     1
  0
VPORT
  2
*ACTIVE
 70
     0
 10
0.0
 20
0.0
 11
1.0
 21
1.0
 12
192.49412581440311
 22
162.8616388594717
 13
0.0
 23
0.0
 14
5.0
 24
5.0
 15
5.0
 25
5.0
 16
0.0
 26
0.0
 36
1.0
 17
0.0
 27
0.0
 37
0.0
 40
334.81001162774987
 41
1.9089595375722539
 42
50.0
 43
0.0
 44
0.0
 50
0.0
 51
0.0
 71
     0
 72
  1000
 73
     1
 74
     0
 75
     0
 76
     0
 77
     0
 78
     1
  0
ENDTAB
  0
TABLE
  2
LTYPE
 70
     3
  0
LTYPE
  2
CONTINUOUS
 70
     0
  3
Solid Line
 72
    65
 73
     0
 40
0.0
  0
LTYPE
  2
CENTER
 70
     0
  3
____ _ ____ _ ____ _ ____ _ ____ _ ____ _ ____
 72
    65
 73
     4
 40
2.0
 49
1.25
 49
-0.25
 49
0.25
 49
-0.25
  0
LTYPE
  2
PHANTOM2
 70
     0
  3
___ _ _ ___ _ _ ___ _ _ ___ _ _
 72
    65
 73
     6
 40
1.25
 49
0.625
 49
-0.125
 49
0.125
 49
-0.125
 49
0.125
 49
-0.125
  0
ENDTAB
  0
TABLE
  2
LAYER
 70
     2
  0
LAYER
  2
0
 70
     0
 62
     7
  6
CONTINUOUS
  0
LAYER
  2
1
 70
     0
 62
     1
  6
CENTER
  0
ENDTAB
  0
TABLE
  2
STYLE
 70
     2
  0
STYLE
  2
STANDARD
 70
     0
 40
0.0
 41
1.0
 50
0.0
 71
     0
 42
4.0
  3
simplex
  4
bigfont
  0
STYLE
  2
STANDARD1
 70
     0
 40
0.0
 41
1.0
 50
0.0
 71
     0
 42
3.0
  3
txt
  4

  0
ENDTAB
  0
TABLE
  2
VIEW
 70
     0
  0
ENDTAB
  0
TABLE
  2
UCS
 70
     0
  0
ENDTAB
  0
TABLE
  2
APPID
 70
     3
  0
APPID
  2
ACAD
 70
     0
  0
APPID
  2
ACAD_MLEADERVER
 70
     0
  0
APPID
  2
ACAD_NAV_VCDISPLAY
 70
     0
  0
ENDTAB
  0
TABLE
  2
DIMSTYLE
 70
     1
  0
DIMSTYLE
  2
STANDARD
 70
     0
  3

  4

  5

  6

  7

 40
1.0
 41
0.18
 42
0.0625
 43
0.38
 44
0.18
 45
0.0
 46
0.0
 47
0.0
 48
0.0
140
0.18
141
0.09
142
0.0
143
25.399999999999999
144
1.0
145
0.0
146
1.0
147
0.09
 71
     0
 72
     0
 73
     1
 74
     1
 75
     0
 76
     0
 77
     0
 78
     0
170
     0
171
     2
172
     0
173
     0
174
     0
175
     0
176
     0
177
     0
178
     0
  0
ENDTAB
  0
ENDSEC
  0
SECTION
  2
BLOCKS
  0
BLOCK
  8
0
  2
$MODEL_SPACE
 70
     0
 10
0.0
 20
0.0
 30
0.0
  3
$MODEL_SPACE
  1

  0
ENDBLK
  5
885
  8
0
  0
BLOCK
 67
     1
  8
0
  2
$PAPER_SPACE
 70
     0
 10
0.0
 20
0.0
 30
0.0
  3
$PAPER_SPACE
  1

  0
ENDBLK
  5
883
 67
     1
  8
0
  0
ENDSEC
  0
SECTION
  2
ENTITIES
  0
ARC
  5
500
  8
0
 10
116.63907259083039
 20
135.63906910712899
 30
0.0
 40
3.0
 50
180.0
 51
270.0
  0
ARC
  5
502
  8
0
 10
114.63907259083039
 20
143.5390691071018
 30
0.0
 40
1.0
 50
90.0
 51
180.0
  0
ARC
  5
503
  8
0
 10
114.63907259083039
 20
151.73906910710181
 30
0.0
 40
1.0
 50
180.0
 51
270.0
  0
ARC
  5
504
  8
0
 10
116.63907259083039
 20
159.63906910712899
 30
0.0
 40
3.0
 50
89.999999999999915
 51
180.0
  0
ARC
  5
509
  8
0
 10
115.8390725908247
 20
143.73906910710181
 30
0.0
 40
0.8000000000000326
 50
0.0000000000040711
 51
89.999999999998494
  0
ARC
  5
50A
  8
0
 10
120.3890725908248
 20
145.0459233565887
 30
0.0
 40
3.0000000000000142
 50
314.99999999999869
 51
359.99999999999892
  0
ARC
  5
50B
  8
0
 10
136.88907259086321
 20
145.0459233565885
 30
0.0
 40
2.9999999999999032
 50
180.00000000000111
 51
225.00000000000071
  0
ARC
  5
50C
  8
0
 10
141.4390725908633
 20
143.7390691071291
 30
0.0
 40
0.8000000000000113
 50
90.0
 51
180.0
  0
ARC
  5
50D
  8
0
 10
142.63907259083041
 20
143.539069107129
 30
0.0
 40
1.0
 50
0.0
 51
90.0
  0
LINE
  5
50E
  8
0
 10
135.7890725908305
 20
134.13906910709619
 30
0.0
 11
134.53907259083039
 21
134.13906910709619
 31
0.0
  0
LINE
  5
50F
  8
0
 10
133.35353868493061
 20
141.51038945065579
 30
0.0
 11
135.91039293439019
 21
138.95353520119619
 31
0.0
  0
LINE
  5
510
  8
0
 10
137.32460649679041
 20
140.3677487635421
 30
0.0
 11
134.76775224730369
 21
142.9246030130289
 31
0.0
  0
LINE
  5
511
  8
0
 10
132.7390725908304
 20
132.63906910712899
 30
0.0
 11
140.63907259083041
 21
132.63906910712899
 31
0.0
  0
ARC
  5
514
  8
0
 10
126.04592684031719
 20
139.38906910709619
 30
0.0
 40
3.0000000000000009
 50
89.999999999999119
 51
134.9999999999996
  0
LINE
  5
515
  8
0
 10
124.7390725908304
 20
135.63906910709619
 30
0.0
 11
123.3390725908305
 21
135.63906910709619
 31
0.0
  0
LINE
  5
516
  8
0
 10
116.63907259083039
 20
132.63906910712899
 30
0.0
 11
124.5390725908305
 21
132.63906910712899
 31
0.0
  0
LINE
  5
517
  8
0
 10
115.1390725908032
 20
137.6890691071317
 30
0.0
 11
115.1390725908031
 21
135.63906910712899
 31
0.0
  0
LINE
  5
518
  8
0
 10
118.9890725908031
 20
134.43906910712909
 30
0.0
 11
118.9890725908032
 21
137.6890691071244
 31
0.0
  0
ARC
  5
519
  8
0
 10
123.4890725908031
 20
136.8322148575821
 30
0.0
 40
2.9999999999999321
 50
135.00000000000099
 51
180.00000000000111
  0
LINE
  5
51A
  8
0
 10
113.63907259083039
 20
143.5390691071018
 30
0.0
 11
113.63907259083039
 21
135.63906910712899
 31
0.0
  0
ARC
  5
51B
  8
0
 10
118.68907259080309
 20
134.43906910712909
 30
0.0
 40
0.3000000000000682
 50
269.99999999999449
 51
359.99999999998909
  0
ARC
  5
51C
  8
0
 10
116.6390725908031
 20
135.6390691071291
 30
0.0
 40
1.500000000000014
 50
180.0000000000021
 51
269.99999999999949
  0
LINE
  5
51D
  8
0
 10
116.6390725908031
 20
134.13906910712899
 30
0.0
 11
118.68907259080309
 21
134.1390691071291
 31
0.0
  0
LINE
  5
51E
  8
0
 10
120.4890725908031
 20
135.1390691070963
 30
0.0
 11
120.4890725908031
 21
136.8322148575821
 31
0.0
  0
ARC
  5
51F
  8
0
 10
121.4890725908031
 20
135.1390691070963
 30
0.0
 40
1.0
 50
180.0
 51
269.99999999999977
  0
LINE
  5
520
  8
0
 10
122.7390725908304
 20
134.13906910709611
 30
0.0
 11
121.4890725908031
 21
134.1390691070963
 31
0.0
  0
ARC
  5
521
  8
0
 10
122.7390725908304
 20
134.43906910709609
 30
0.0
 40
0.3000000000000114
 50
270.0
 51
0.0
  0
LINE
  5
522
  8
0
 10
123.0390725908305
 20
135.33906910709621
 30
0.0
 11
123.0390725908304
 21
134.43906910709609
 31
0.0
  0
ARC
  5
523
  8
0
 10
123.3390725908304
 20
135.33906910709621
 30
0.0
 40
0.3000000000000114
 50
89.999999999994586
 51
179.99999999998909
  0
ARC
  5
524
  8
0
 10
118.68907259080321
 20
137.6890691071244
 30
0.0
 40
0.3000000000000078
 50
0.0
 51
89.999999999869729
  0
ARC
  5
525
  8
0
 10
117.83221834136521
 20
142.4890691071289
 30
0.0
 40
3.0000000000000031
 50
269.99999999999949
 51
314.99999999999972
  0
ARC
  5
526
  8
0
 10
115.43907259080309
 20
137.68906910713179
 30
0.0
 40
0.3000000000000114
 50
89.999999999888047
 51
180.0000000000108
  0
LINE
  5
527
  8
0
 10
118.6890725908039
 20
137.98906910712441
 30
0.0
 11
115.4390725908037
 21
137.9890691071318
 31
0.0
  0
LINE
  5
528
  8
0
 10
115.8390725908247
 20
144.53906910710191
 30
0.0
 11
114.63907259083039
 21
144.5390691071018
 31
0.0
  0
LINE
  5
529
  8
0
 10
116.6390725908247
 20
142.33906910710181
 30
0.0
 11
116.6390725908247
 21
143.7390691071019
 31
0.0
  0
ARC
  5
52A
  8
0
 10
116.3390725908248
 20
142.33906910710181
 30
0.0
 40
0.3000000000000114
 50
269.99999999999449
 51
359.99999999998909
  0
LINE
  5
52B
  8
0
 10
115.43907259082479
 20
142.0390691071018
 30
0.0
 11
116.3390725908247
 21
142.0390691071018
 31
0.0
  0
ARC
  5
52C
  8
0
 10
115.43907259082479
 20
141.73906910710181
 30
0.0
 40
0.2999999999999829
 50
90.000000000005429
 51
180.0000000000108
  0
LINE
  5
52D
  8
0
 10
115.1390725908248
 20
140.4890691071289
 30
0.0
 11
115.1390725908248
 21
141.73906910710181
 31
0.0
  0
ARC
  5
52E
  8
0
 10
116.1390725908248
 20
140.4890691071289
 30
0.0
 40
1.0
 50
180.0
 51
270.0
  0
LINE
  5
52F
  8
0
 10
117.83221834136511
 20
139.4890691071289
 30
0.0
 11
116.1390725908248
 21
139.4890691071289
 31
0.0
  0
LINE
  5
530
  8
0
 10
121.3677522472434
 20
138.9535352011417
 30
0.0
 11
123.9246064967576
 21
141.51038945065579
 31
0.0
  0
LINE
  5
531
  8
0
 10
122.5103929343845
 20
142.9246030130289
 30
0.0
 11
119.95353868492479
 21
140.3677487635693
 31
0.0
  0
ARC
  5
532
  8
0
 10
124.7390725908304
 20
134.83906910709629
 30
0.0
 40
0.7999999999999972
 50
359.99999999999591
 51
89.999999999998977
  0
LINE
  5
533
  8
0
 10
125.5390725908305
 20
133.63906910712899
 30
0.0
 11
125.5390725908304
 21
134.83906910709621
 31
0.0
  0
ARC
  5
534
  8
0
 10
124.5390725908305
 20
133.63906910712899
 30
0.0
 40
1.0
 50
269.9999999999992
 51
0.0
  0
ARC
  5
535
  8
0
 10
132.7390725908304
 20
133.63906910712899
 30
0.0
 40
1.000000000000014
 50
180.0
 51
269.9999999999992
  0
LINE
  5
536
  8
0
 10
131.7390725908304
 20
134.83906910709621
 30
0.0
 11
131.7390725908304
 21
133.63906910712899
 31
0.0
  0
ARC
  5
537
  8
0
 10
132.53907259083039
 20
134.83906910709609
 30
0.0
 40
0.8000000000000113
 50
89.999999999998494
 51
179.99999999999591
  0
LINE
  5
538
  8
0
 10
133.93907259083039
 20
135.63906910709611
 30
0.0
 11
132.53907259083039
 21
135.63906910709619
 31
0.0
  0
ARC
  5
539
  8
0
 10
133.93907259083039
 20
135.33906910709609
 30
0.0
 40
0.3000000000000114
 50
0.0
 51
90.0
  0
LINE
  5
53A
  8
0
 10
134.2390725908304
 20
134.43906910709609
 30
0.0
 11
134.2390725908304
 21
135.33906910709609
 31
0.0
  0
ARC
  5
53B
  8
0
 10
134.53907259083039
 20
134.4390691070962
 30
0.0
 40
0.3000000000000114
 50
180.0000000000108
 51
270.00000000000409
  0
LINE
  5
53C
  8
0
 10
126.04592684031719
 20
142.38906910709619
 30
0.0
 11
131.2322183413709
 21
142.38906910709619
 31
0.0
  0
ARC
  5
53D
  8
0
 10
131.2322183413709
 20
139.38906910709619
 30
0.0
 40
3.0
 50
45.000000000000377
 51
90.000000000000256
  0
LINE
  5
53F
  8
0
 10
138.28907259083499
 20
137.6890691071024
 30
0.0
 11
138.2890725908278
 21
134.43906910710251
 31
0.0
  0
LINE
  5
540
  8
0
 10
142.13907259083041
 20
135.6390691071017
 30
0.0
 11
142.13907259083041
 21
137.68906910710169
 31
0.0
  0
ARC
  5
541
  8
0
 10
133.7890725908305
 20
136.8322148576365
 30
0.0
 40
3.0000000000000742
 50
0.0000000000010856
 51
45.000000000000568
  0
LINE
  5
542
  8
0
 10
143.63907259083041
 20
135.63906910712899
 30
0.0
 11
143.63907259083041
 21
143.539069107129
 31
0.0
  0
LINE
  5
543
  8
0
 10
138.5890725908277
 20
134.13906910710179
 30
0.0
 11
140.63907259083041
 21
134.1390691071017
 31
0.0
  0
ARC
  5
544
  8
0
 10
138.58907259082781
 20
134.43906910710169
 30
0.0
 40
0.2999999999999829
 50
179.9999999998588
 51
269.99999999999449
  0
ARC
  5
545
  8
0
 10
135.78907259083061
 20
135.13906910709619
 30
0.0
 40
1.0
 50
269.99999999999801
 51
0.0
  0
LINE
  5
546
  8
0
 10
136.78907259083061
 20
136.8322148576365
 30
0.0
 11
136.78907259083061
 21
135.13906910709619
 31
0.0
  0
ARC
  5
547
  8
0
 10
140.63907259083041
 20
135.6390691071017
 30
0.0
 40
1.5
 50
270.00000000000108
 51
0.0
  0
ARC
  5
548
  8
0
 10
140.63907259083041
 20
135.63906910712899
 30
0.0
 40
3.0
 50
270.0
 51
0.0
  0
LINE
  5
549
  8
0
 10
141.8390725908304
 20
137.98906910710181
 30
0.0
 11
138.589072590835
 21
137.98906910710181
 31
0.0
  0
LINE
  5
54A
  8
0
 10
141.13907259086341
 20
139.48906910710181
 30
0.0
 11
139.4459268403501
 21
139.48906910710181
 31
0.0
  0
ARC
  5
54B
  8
0
 10
140.93907259086339
 20
142.33906910712901
 30
0.0
 40
0.3000000000000327
 50
179.99999999998909
 51
269.99999999999318
  0
ARC
  5
54C
  8
0
 10
138.589072590835
 20
137.68906910710169
 30
0.0
 40
0.3000000000000114
 50
90.000000000005429
 51
179.9999999998806
  0
ARC
  5
54D
  8
0
 10
139.44592684035001
 20
142.4890691071017
 30
0.0
 40
2.9999999999999432
 50
225.0
 51
270.00000000000108
  0
ARC
  5
54E
  8
0
 10
141.8390725908304
 20
137.68906910710169
 30
0.0
 40
0.3000000000000327
 50
359.99999999998909
 51
89.999999999993236
  0
ARC
  5
54F
  8
0
 10
141.13907259086341
 20
140.48906910710181
 30
0.0
 40
1.000000000000014
 50
270.0000000000008
 51
0.0000000000032569
  0
LINE
  5
550
  8
0
 10
142.13907259086329
 20
141.7390691071291
 30
0.0
 11
142.13907259086341
 21
140.48906910710181
 31
0.0
  0
ARC
  5
551
  8
0
 10
141.83907259086331
 20
141.7390691071291
 30
0.0
 40
0.3000000000000114
 50
0.0
 51
90.0
  0
LINE
  5
552
  8
0
 10
140.9390725908633
 20
142.039069107129
 30
0.0
 11
141.83907259086331
 21
142.03906910712911
 31
0.0
  0
LINE
  5
553
  8
0
 10
140.63907259086329
 20
143.7390691071291
 30
0.0
 11
140.63907259086329
 21
142.33906910712909
 31
0.0
  0
LINE
  5
554
  8
0
 10
142.63907259083041
 20
144.539069107129
 30
0.0
 11
141.4390725908633
 21
144.53906910712911
 31
0.0
  0
LINE
  5
555
  8
0
 10
135.9103929344173
 20
156.3246030130619
 30
0.0
 11
133.35353868493061
 21
153.7677487635751
 31
0.0
  0
LINE
  5
556
  8
0
 10
134.5390725908577
 20
161.1390691071347
 30
0.0
 11
135.7890725908577
 21
161.1390691071347
 31
0.0
  0
LINE
  5
557
  8
0
 10
140.63907259083041
 20
162.63906910712899
 30
0.0
 11
132.73907259085769
 21
162.63906910712899
 31
0.0
  0
LINE
  5
558
  8
0
 10
134.76775224730369
 20
152.35353520120191
 30
0.0
 11
137.32460649679061
 21
154.91038945068891
 31
0.0
  0
ARC
  5
559
  8
0
 10
116.63907259083049
 20
159.63906910715639
 30
0.0
 40
1.4999999999999429
 50
90.000000000002728
 51
180.0000000000021
  0
LINE
  5
55A
  8
0
 10
118.9890725908258
 20
157.58906910715569
 30
0.0
 11
118.9890725908331
 21
160.83906910715569
 31
0.0
  0
ARC
  5
55B
  8
0
 10
124.7390725908577
 20
160.4390691071348
 30
0.0
 40
0.8000000000000113
 50
270.0
 51
0.0
  0
LINE
  5
55C
  8
0
 10
123.0390725908577
 20
160.83906910713469
 30
0.0
 11
123.0390725908578
 21
159.9390691071348
 31
0.0
  0
LINE
  5
55D
  8
0
 10
120.4890725908303
 20
158.44592335662151
 30
0.0
 11
120.4890725908303
 21
160.1390691071347
 31
0.0
  0
LINE
  5
55E
  8
0
 10
134.23907259085769
 20
159.93906910713471
 30
0.0
 11
134.23907259085769
 21
160.83906910713461
 31
0.0
  0
ARC
  5
55F
  8
0
 10
132.5390725908577
 20
160.43906910713471
 30
0.0
 40
0.8000000000000255
 50
179.99999999999591
 51
269.99999999999392
  0
LINE
  5
560
  8
0
 10
123.3390725908577
 20
159.6390691071347
 30
0.0
 11
124.7390725908577
 21
159.63906910713479
 31
0.0
  0
ARC
  5
561
  8
0
 10
126.04592684031719
 20
155.88906910713459
 30
0.0
 40
2.9999999999999432
 50
225.0
 51
269.99999999999972
  0
ARC
  5
562
  8
0
 10
120.3890725908247
 20
150.23221485764219
 30
0.0
 40
3.0000000000000542
 50
0.0000000000010856
 51
45.000000000000952
  0
LINE
  5
563
  8
0
 10
116.6390725908248
 20
151.5390691071018
 30
0.0
 11
116.6390725908248
 21
152.9390691071018
 31
0.0
  0
LINE
  5
564
  8
0
 10
113.63907259083039
 20
159.63906910712899
 30
0.0
 11
113.63907259083039
 21
151.73906910710181
 31
0.0
  0
ARC
  5
565
  8
0
 10
115.8390725908248
 20
151.5390691071018
 30
0.0
 40
0.8000000000000113
 50
270.0000000000025
 51
0.0000000000040711
  0
LINE
  5
566
  8
0
 10
114.63907259083039
 20
150.73906910710181
 30
0.0
 11
115.8390725908248
 21
150.73906910710181
 31
0.0
  0
LINE
  5
567
  8
0
 10
123.3890725908248
 20
150.2322148576423
 30
0.0
 11
123.3890725908248
 21
145.04592335658859
 31
0.0
  0
ARC
  5
568
  8
0
 10
118.6890725908258
 20
157.58906910715629
 30
0.0
 40
0.2999999999999545
 50
270.00000000000409
 51
359.99999999988057
  0
ARC
  5
569
  8
0
 10
117.83221834131059
 20
152.78906910715639
 30
0.0
 40
3.0
 50
45.000000000000519
 51
90.000000000000398
  0
ARC
  5
56A
  8
0
 10
115.43907259083041
 20
157.5890691071564
 30
0.0
 40
0.3000000000000043
 50
180.0000000000108
 51
270.00000000001222
  0
LINE
  5
56B
  8
0
 10
115.13907259083049
 20
159.6390691071563
 30
0.0
 11
115.13907259083039
 21
157.58906910715629
 31
0.0
  0
LINE
  5
56C
  8
0
 10
115.43907259083051
 20
157.28906910715639
 30
0.0
 11
118.6890725908258
 21
157.28906910715631
 31
0.0
  0
LINE
  5
56D
  8
0
 10
116.1390725908247
 20
155.78906910715631
 30
0.0
 11
117.83221834131059
 21
155.78906910715639
 31
0.0
  0
ARC
  5
56E
  8
0
 10
116.1390725908247
 20
154.78906910715639
 30
0.0
 40
0.9999999999999822
 50
89.999999999998977
 51
180.00000000000321
  0
LINE
  5
56F
  8
0
 10
115.1390725908248
 20
153.5390691071018
 30
0.0
 11
115.1390725908247
 21
154.78906910715631
 31
0.0
  0
ARC
  5
570
  8
0
 10
115.43907259082479
 20
153.5390691071018
 30
0.0
 40
0.3000000000000114
 50
179.99999999998909
 51
269.99999999999318
  0
LINE
  5
571
  8
0
 10
116.3390725908247
 20
153.23906910710181
 30
0.0
 11
115.43907259082479
 21
153.23906910710181
 31
0.0
  0
ARC
  5
572
  8
0
 10
116.3390725908248
 20
152.93906910710169
 30
0.0
 40
0.3000000000000398
 50
0.0000000000108563
 51
90.000000000005429
  0
LINE
  5
573
  8
0
 10
119.9535386848702
 20
154.91038945071611
 30
0.0
 11
122.5103929343844
 21
152.35353520120191
 31
0.0
  0
ARC
  5
574
  8
0
 10
123.3390725908578
 20
159.93906910713471
 30
0.0
 40
0.3000000000000362
 50
179.99999999998909
 51
269.99999999999318
  0
ARC
  5
575
  8
0
 10
123.4890725908302
 20
158.44592335662159
 30
0.0
 40
2.9999999999999409
 50
180.00000000000111
 51
225.0
  0
LINE
  5
576
  8
0
 10
123.9246064967576
 20
153.7677487635751
 30
0.0
 11
121.3677522472706
 21
156.32460301306199
 31
0.0
  0
ARC
  5
577
  8
0
 10
136.88907259086329
 20
150.23221485764219
 30
0.0
 40
3.0000000000000142
 50
134.99999999999861
 51
179.99999999999889
  0
CIRCLE
  5
578
  8
0
 10
128.63907259083041
 20
147.63906910712899
 30
0.0
 40
2.5
  0
LINE
  5
579
  8
0
 10
133.88907259086329
 20
145.0459233565885
 30
0.0
 11
133.88907259086329
 21
150.2322148576423
 31
0.0
  0
LINE
  5
57A
  8
0
 10
131.2322183413709
 20
152.8890691071347
 30
0.0
 11
126.04592684031709
 21
152.8890691071347
 31
0.0
  0
ARC
  5
57B
  8
0
 10
131.2322183413709
 20
155.88906910713459
 30
0.0
 40
2.9999999999999529
 50
269.99999999999949
 51
315.00000000000023
  0
ARC
  5
57C
  8
0
 10
133.93907259085771
 20
159.93906910713471
 30
0.0
 40
0.3000000000000114
 50
269.99999999999858
 51
0.0
  0
LINE
  5
57D
  8
0
 10
132.53907259085759
 20
159.6390691071347
 30
0.0
 11
133.93907259085771
 21
159.6390691071347
 31
0.0
  0
LINE
  5
57E
  8
0
 10
124.5390725908577
 20
162.63906910712899
 30
0.0
 11
116.63907259083039
 21
162.63906910712899
 31
0.0
  0
ARC
  5
57F
  8
0
 10
118.68907259083301
 20
160.83906910715629
 30
0.0
 40
0.3000000000000114
 50
359.99999999986971
 51
89.999999999997968
  0
LINE
  5
580
  8
0
 10
118.68907259083311
 20
161.13906910715639
 30
0.0
 11
116.63907259083039
 21
161.1390691071563
 31
0.0
  0
ARC
  5
581
  8
0
 10
122.7390725908577
 20
160.8390691071348
 30
0.0
 40
0.2999999999999545
 50
359.99999999998909
 51
89.999999999994586
  0
LINE
  5
582
  8
0
 10
121.4890725908303
 20
161.1390691071347
 30
0.0
 11
122.7390725908577
 21
161.1390691071347
 31
0.0
  0
ARC
  5
583
  8
0
 10
121.4890725908303
 20
160.1390691071347
 30
0.0
 40
0.9999999999999928
 50
89.999999999999588
 51
180.0
  0
ARC
  5
584
  8
0
 10
124.5390725908577
 20
161.6390691071291
 30
0.0
 40
0.9999999999999822
 50
0.0
 51
90.000000000001023
  0
LINE
  5
585
  8
0
 10
125.5390725908577
 20
160.4390691071348
 30
0.0
 11
125.5390725908577
 21
161.6390691071291
 31
0.0
  0
ARC
  5
586
  8
0
 10
134.5390725908577
 20
160.83906910713469
 30
0.0
 40
0.3000000000000327
 50
90.000000000006764
 51
180.0000000000108
  0
LINE
  5
587
  8
0
 10
131.73907259085769
 20
161.63906910712899
 30
0.0
 11
131.73907259085769
 21
160.4390691071348
 31
0.0
  0
ARC
  5
588
  8
0
 10
132.73907259085769
 20
161.63906910712899
 30
0.0
 40
1.0
 50
90.00000000000081
 51
180.0
  0
LINE
  5
589
  8
0
 10
138.2890725908577
 20
157.58906910713361
 30
0.0
 11
138.2890725908577
 21
160.83906910712909
 31
0.0
  0
ARC
  5
58A
  8
0
 10
140.63907259085769
 20
159.63906910712899
 30
0.0
 40
1.500000000000056
 50
0.0000000000021713
 51
89.999999999999446
  0
LINE
  5
58B
  8
0
 10
136.7890725908577
 20
160.1390691071347
 30
0.0
 11
136.7890725908577
 21
158.44592335662151
 31
0.0
  0
ARC
  5
58C
  8
0
 10
140.63907259083041
 20
159.63906910712899
 30
0.0
 40
3.0
 50
0.0
 51
90.0
  0
LINE
  5
58D
  8
0
 10
143.63907259083041
 20
151.73906910712901
 30
0.0
 11
143.63907259083041
 21
159.63906910712899
 31
0.0
  0
LINE
  5
58E
  8
0
 10
140.63907259086329
 20
152.93906910712909
 30
0.0
 11
140.63907259086329
 21
151.539069107129
 31
0.0
  0
ARC
  5
58F
  8
0
 10
141.4390725908633
 20
151.53906910712911
 30
0.0
 40
0.7999999999999972
 50
180.00000000000401
 51
270.0
  0
ARC
  5
590
  8
0
 10
142.63907259083041
 20
151.73906910712901
 30
0.0
 40
1.0
 50
270.0
 51
0.0
  0
LINE
  5
591
  8
0
 10
141.4390725908633
 20
150.73906910712901
 30
0.0
 11
142.63907259083041
 21
150.73906910712901
 31
0.0
  0
LINE
  5
592
  8
0
 10
141.83907259085711
 20
157.28906910712649
 30
0.0
 11
138.589072590857
 21
157.28906910713371
 31
0.0
  0
ARC
  5
593
  8
0
 10
140.9390725908633
 20
152.939069107129
 30
0.0
 40
0.3000000000000682
 50
89.999999999994586
 51
179.99999999998909
  0
LINE
  5
594
  8
0
 10
139.44592684035021
 20
155.78906910712919
 30
0.0
 11
141.13907259086329
 21
155.78906910712919
 31
0.0
  0
ARC
  5
595
  8
0
 10
138.58907259085771
 20
157.58906910713361
 30
0.0
 40
0.2999999999999545
 50
180.0
 51
269.99999999987517
  0
ARC
  5
596
  8
0
 10
133.7890725908577
 20
158.44592335662159
 30
0.0
 40
3.0000000000000071
 50
314.99999999999858
 51
359.99999999999892
  0
ARC
  5
597
  8
0
 10
139.44592684035021
 20
152.78906910712919
 30
0.0
 40
2.9999999999999991
 50
90.000000000000142
 51
134.99999999999949
  0
ARC
  5
598
  8
0
 10
141.83907259085771
 20
157.58906910712651
 30
0.0
 40
0.3000000000000043
 50
269.99999999987108
 51
0.0
  0
LINE
  5
599
  8
0
 10
142.13907259085769
 20
159.63906910712899
 30
0.0
 11
142.13907259085781
 21
157.58906910712651
 31
0.0
  0
LINE
  5
59A
  8
0
 10
141.83907259086331
 20
153.2390691071291
 30
0.0
 11
140.9390725908633
 21
153.2390691071291
 31
0.0
  0
ARC
  5
59B
  8
0
 10
141.83907259086331
 20
153.53906910712911
 30
0.0
 40
0.2999999999999758
 50
269.99999999999591
 51
359.99999999998909
  0
LINE
  5
59C
  8
0
 10
142.13907259086329
 20
154.78906910712919
 30
0.0
 11
142.13907259086329
 21
153.539069107129
 31
0.0
  0
ARC
  5
59D
  8
0
 10
141.13907259086329
 20
154.78906910712919
 30
0.0
 40
1.0
 50
0.0
 51
90.0
  0
LINE
  5
59E
  8
0
 10
138.58907259085771
 20
161.1390691071291
 30
0.0
 11
140.63907259085769
 21
161.13906910712899
 31
0.0
  0
ARC
  5
59F
  8
0
 10
138.5890725908578
 20
160.83906910712909
 30
0.0
 40
0.3000000000000327
 50
90.000000000006764
 51
180.0000000000108
  0
ARC
  5
5A0
  8
0
 10
135.7890725908577
 20
160.1390691071347
 30
0.0
 40
1.0
 50
0.0
 51
90.0
  0
LINE
  5
5A1
  8
0
 10
234.62847346030989
 20
162.63906910712899
 30
0.0
 11
234.62847346030989
 21
132.63906910712899
 31
0.0
  0
LINE
  5
5A2
  8
0
 10
184.62847346030989
 20
162.63906910712899
 30
0.0
 11
184.62847346030989
 21
132.63906910712899
 31
0.0
  0
LINE
  5
5A8
  8
0
 10
184.62847346030989
 20
132.63906910712899
 30
0.0
 11
234.62847346030989
 21
132.63906910712899
 31
0.0
  0
LINE
  5
5A9
  8
0
 10
184.62847346030989
 20
144.539069107129
 30
0.0
 11
234.62847346030989
 21
144.539069107129
 31
0.0
  0
LINE
  5
5AA
  8
0
 10
184.62847346030989
 20
150.73906910712901
 30
0.0
 11
234.62847346030989
 21
150.73906910712901
 31
0.0
  0
LINE
  5
5AC
  8
0
 10
184.62847346030989
 20
162.63906910712899
 30
0.0
 11
234.62847346030989
 21
162.63906910712899
 31
0.0
  0
LINE
  5
77A
  8
1
 10
148.63907259083041
 20
147.63906910712899
 30
0.0
 11
108.63907259083039
 21
147.63906910712899
 31
0.0
  0
LINE
  5
77B
  8
1
 10
128.63907259083041
 20
167.63906910712899
 30
0.0
 11
128.63907259083041
 21
127.639069107129
 31
0.0
  0
LINE
  5
77C
  8
1
 10
179.62847346030989
 20
147.63906910712899
 30
0.0
 11
239.62847346030989
 21
147.63906910712899
 31
0.0
  0
TEXT
  5
936
  8
0
 62
     3
 10
0.0
 20
0.0
 30
0.0
 40
10.0
  1
L6-SPL3030N-3M
  7
STANDARD1
  0
ENDSEC
  0
EOF
