  0
SECTION
  2
HEADER
  9
$ACADVER
  1
AC1009
  9
$INSBASE
 10
0.0
 20
0.0
 30
0.0
  9
$EXTMIN
 10
0.0
 20
-2.960436562073669
 30
0.0
  9
$EXTMAX
 10
277.95493236815747
 20
201.02142503683339
 30
0.0
  9
$LIMMIN
 10
0.0
 20
0.0
  9
$LIMMAX
 10
375.0
 20
278.0
  9
$ORTHOMODE
 70
     1
  9
$REGENMODE
 70
     1
  9
$FILLMODE
 70
     1
  9
$QTEXTMODE
 70
     0
  9
$MIRRTEXT
 70
     0
  9
$DRAGMODE
 70
     2
  9
$LTSCALE
 40
10.0
  9
$OSMODE
 70
  3071
  9
$ATTMODE
 70
     1
  9
$TEXTSIZE
 40
0.2
  9
$TRACEWID
 40
0.05
  9
$TEXTSTYLE
  7
STANDARD
  9
$CLAYER
  8
0
  9
$CELTYPE
  6
BYLAYER
  9
$CECOLOR
 62
   256
  9
$DIMSCALE
 40
1.0
  9
$DIMASZ
 40
3.0
  9
$DIMEXO
 40
1.0
  9
$DIMDLI
 40
6.0
  9
$DIMRND
 40
0.0
  9
$DIMDLE
 40
0.0
  9
$DIMEXE
 40
1.0
  9
$DIMTP
 40
495.0
  9
$DIMTM
 40
0.0
  9
$DIMTXT
 40
3.0
  9
$DIMCEN
 40
0.0
  9
$DIMTSZ
 40
0.0
  9
$DIMTOL
 70
     0
  9
$DIMLIM
 70
     0
  9
$DIMTIH
 70
     0
  9
$DIMTOH
 70
     0
  9
$DIMSE1
 70
     0
  9
$DIMSE2
 70
     0
  9
$DIMTAD
 70
     1
  9
$DIMZIN
 70
     0
  9
$DIMBLK
  1

  9
$DIMASO
 70
     0
  9
$DIMSHO
 70
     0
  9
$DIMPOST
  1

  9
$DIMAPOST
  1

  9
$DIMALT
 70
     0
  9
$DIMALTD
 70
     2
  9
$DIMALTF
 40
25.399999999999999
  9
$DIMLFAC
 40
1.0
  9
$DIMTOFL
 70
     1
  9
$DIMTVP
 40
0.0
  9
$DIMTIX
 70
     1
  9
$DIMSOXD
 70
     0
  9
$DIMSAH
 70
     0
  9
$DIMBLK1
  1

  9
$DIMBLK2
  1

  9
$DIMSTYLE
  2
STANDARD
  9
$DIMCLRD
 70
     0
  9
$DIMCLRE
 70
     0
  9
$DIMCLRT
 70
     4
  9
$DIMTFAC
 40
1.0
  9
$DIMGAP
 40
1.0
  9
$LUNITS
 70
     2
  9
$LUPREC
 70
     4
  9
$SKETCHINC
 40
0.1
  9
$FILLETRAD
 40
0.0
  9
$AUNITS
 70
     0
  9
$AUPREC
 70
     0
  9
$MENU
  1
C:\R13\WIN\SUPPORT\ACAD-I
  9
$ELEVATION
 40
0.0
  9
$PELEVATION
 40
0.0
  9
$THICKNESS
 40
0.0
  9
$LIMCHECK
 70
     0
  9
$BLIPMODE
 70
     0
  9
$CHAMFERA
 40
0.0
  9
$CHAMFERB
 40
0.0
  9
$SKPOLY
 70
     0
  9
$TDCREATE
 40
2450834.4199027782
  9
$TDUPDATE
 40
2456597.562515683
  9
$TDINDWG
 40
0.0273304167
  9
$TDUSRTIMER
 40
0.0273304167
  9
$USRTIMER
 70
     1
  9
$ANGBASE
 50
0.0
  9
$ANGDIR
 70
     0
  9
$PDMODE
 70
     0
  9
$PDSIZE
 40
0.0
  9
$PLINEWID
 40
0.0
  9
$COORDS
 70
     1
  9
$SPLFRAME
 70
     0
  9
$SPLINETYPE
 70
     6
  9
$SPLINESEGS
 70
     8
  9
$ATTDIA
 70
     0
  9
$ATTREQ
 70
     1
  9
$HANDLING
 70
     1
  9
$HANDSEED
  5
4C3
  9
$SURFTAB1
 70
     6
  9
$SURFTAB2
 70
     6
  9
$SURFTYPE
 70
     6
  9
$SURFU
 70
     6
  9
$SURFV
 70
     6
  9
$UCSNAME
  2

  9
$UCSORG
 10
0.0
 20
0.0
 30
0.0
  9
$UCSXDIR
 10
1.0
 20
0.0
 30
0.0
  9
$UCSYDIR
 10
0.0
 20
1.0
 30
0.0
  9
$PUCSNAME
  2

  9
$PUCSORG
 10
0.0
 20
0.0
 30
0.0
  9
$PUCSXDIR
 10
1.0
 20
0.0
 30
0.0
  9
$PUCSYDIR
 10
0.0
 20
1.0
 30
0.0
  9
$USERI1
 70
     4
  9
$USERI2
 70
     1
  9
$USERI3
 70
     0
  9
$USERI4
 70
     0
  9
$USERI5
 70
     0
  9
$USERR1
 40
1.0
  9
$USERR2
 40
3.0
  9
$USERR3
 40
3.0
  9
$USERR4
 40
3.0
  9
$USERR5
 40
10.0
  9
$WORLDVIEW
 70
     1
  9
$SHADEDGE
 70
     3
  9
$SHADEDIF
 70
    70
  9
$TILEMODE
 70
     1
  9
$MAXACTVP
 70
    16
  9
$PLIMCHECK
 70
     0
  9
$PEXTMIN
 10
1.0000000000000000E+020
 20
1.0000000000000000E+020
 30
1.0000000000000000E+020
  9
$PEXTMAX
 10
-1.0000000000000000E+020
 20
-1.0000000000000000E+020
 30
-1.0000000000000000E+020
  9
$PLIMMIN
 10
0.0
 20
0.0
  9
$PLIMMAX
 10
12.0
 20
9.0
  9
$UNITMODE
 70
     0
  9
$VISRETAIN
 70
     0
  9
$PLINEGEN
 70
     0
  9
$PSLTSCALE
 70
     0
  0
ENDSEC
  0
SECTION
  2
TABLES
  0
TABLE
  2
VPORT
 70
     1
  0
VPORT
  2
*ACTIVE
 70
     0
 10
0.0
 20
0.0
 11
1.0
 21
1.0
 12
187.4942783906524
 22
167.7204668657281
 13
0.0
 23
0.0
 14
10.0
 24
10.0
 15
10.0
 25
10.0
 16
0.0
 26
0.0
 36
1.0
 17
0.0
 27
0.0
 37
0.0
 40
344.62625130655709
 41
1.9089595375722539
 42
50.0
 43
0.0
 44
0.0
 50
0.0
 51
0.0
 71
     0
 72
   100
 73
     1
 74
     0
 75
     0
 76
     0
 77
     0
 78
     0
  0
ENDTAB
  0
TABLE
  2
LTYPE
 70
     3
  0
LTYPE
  2
CONTINUOUS
 70
     0
  3
Solid Line
 72
    65
 73
     0
 40
0.0
  0
LTYPE
  2
CENTER
 70
     0
  3
____ _ ____ _ ____ _ ____ _ ____ _ ____ _ ____
 72
    65
 73
     4
 40
2.0
 49
1.25
 49
-0.25
 49
0.25
 49
-0.25
  0
LTYPE
  2
PHANTOM2
 70
     0
  3
___ _ _ ___ _ _ ___ _ _ ___ _ _
 72
    65
 73
     6
 40
1.25
 49
0.625
 49
-0.125
 49
0.125
 49
-0.125
 49
0.125
 49
-0.125
  0
ENDTAB
  0
TABLE
  2
LAYER
 70
     2
  0
LAYER
  2
0
 70
     0
 62
     7
  6
CONTINUOUS
  0
LAYER
  2
1
 70
     0
 62
     1
  6
CENTER
  0
ENDTAB
  0
TABLE
  2
STYLE
 70
     2
  0
STYLE
  2
STANDARD
 70
     0
 40
0.0
 41
1.0
 50
0.0
 71
     0
 42
0.2
  3
SIMPLEX
  4
BIGFONT
  0
STYLE
  2
STANDARD1
 70
     0
 40
0.0
 41
1.0
 50
0.0
 71
     0
 42
3.0
  3
txt
  4

  0
ENDTAB
  0
TABLE
  2
VIEW
 70
     0
  0
ENDTAB
  0
TABLE
  2
UCS
 70
     0
  0
ENDTAB
  0
TABLE
  2
APPID
 70
    26
  0
APPID
  2
ACAD
 70
     0
  0
APPID
  2
GENIUS_GENOBJ_13
 70
     0
  0
APPID
  2
GENIUS_GENODEF_13
 70
     0
  0
APPID
  2
GENIUS_GENOENT_13
 70
     0
  0
APPID
  2
GENIUS_GENOLIS_13
 70
     0
  0
APPID
  2
GENIUS_GENOREF_13
 70
     0
  0
APPID
  2
GENIUS_GENOBJ-N-TIT_13
 70
     0
  0
APPID
  2
GENIUS_GENTITLE_13
 70
     0
  0
APPID
  2
GENIUS_GENZVEED_13
 70
     0
  0
APPID
  2
GENIUS_GENOBJ-N-FIL_13
 70
     0
  0
APPID
  2
GENIUS_GENOBJ-N-CRS_13
 70
     0
  0
APPID
  2
GENIUS_GEFINERT_13
 70
     0
  0
APPID
  2
GENIUS_GENOBJ-F-INER_13
 70
     0
  0
APPID
  2
GENIUS_GENOBJ-N-ZOO_13
 70
     0
  0
APPID
  2
GENIUS_GENZOO_13
 70
     0
  0
APPID
  2
GENIUS_GENOBJ-F-TOL_13
 70
     0
  0
APPID
  2
GENIUS_GENOBJ-N-RSSYM_13
 70
     0
  0
APPID
  2
GENIUS_GENSYMENT_13
 70
     0
  0
APPID
  2
GENIUS_GENBH_13
 70
     0
  0
APPID
  2
GENIUS_GENOBJ-NBEHI-BHF_13
 70
     0
  0
APPID
  2
GENIUS_GENOBJ-NBEHI-BHB_13
 70
     0
  0
APPID
  2
GENIUS_GENOBJ-F-PART_13
 70
     0
  0
APPID
  2
GENIUS_GEFSTDP_13
 70
     0
  0
APPID
  2
GENIUS_GENOBJ-N-LEADER_13
 70
     0
  0
APPID
  2
ACAD_MLEADERVER
 70
     0
  0
APPID
  2
ACAD_NAV_VCDISPLAY
 70
     0
  0
ENDTAB
  0
TABLE
  2
DIMSTYLE
 70
     1
  0
DIMSTYLE
  2
STANDARD
 70
     0
  3

  4

  5

  6

  7

 40
1.0
 41
0.18
 42
0.0625
 43
0.38
 44
0.18
 45
0.0
 46
0.0
 47
0.0
 48
0.0
140
0.18
141
0.09
142
0.0
143
25.399999999999999
144
1.0
145
0.0
146
1.0
147
0.09
 71
     0
 72
     0
 73
     1
 74
     1
 75
     0
 76
     0
 77
     0
 78
     0
170
     0
171
     2
172
     0
173
     0
174
     0
175
     0
176
     0
177
     0
178
     0
  0
ENDTAB
  0
ENDSEC
  0
SECTION
  2
BLOCKS
  0
BLOCK
  8
0
  2
$MODEL_SPACE
 70
     0
 10
0.0
 20
0.0
 30
0.0
  3
$MODEL_SPACE
  1

  0
ENDBLK
  5
384
  8
0
  0
BLOCK
 67
     1
  8
0
  2
$PAPER_SPACE
 70
     0
 10
0.0
 20
0.0
 30
0.0
  3
$PAPER_SPACE
  1

  0
ENDBLK
  5
382
 67
     1
  8
0
  0
BLOCK
  8
0
  2
STDGX5
 70
     0
 10
0.0
 20
0.0
 30
0.0
  3
STDGX5
  1

  0
ENDBLK
  5
4F
  8
0
  0
ENDSEC
  0
SECTION
  2
ENTITIES
  0
INSERT
  5
DE
  8
0
  2
STDGX5
 10
0.0
 20
0.0
 30
0.0
  0
INSERT
  5
DF
  8
0
  2
STDGX5
 10
0.0
 20
0.0
 30
0.0
  0
INSERT
  5
15C
  8
0
  2
STDGX5
 10
275.0
 20
0.0
 30
0.0
  0
INSERT
  5
15D
  8
0
  2
STDGX5
 10
275.0
 20
0.0
 30
0.0
  0
LINE
  5
271
  8
0
 10
272.95493236815747
 20
166.02142503683339
 30
0.0
 11
272.95493236815747
 21
196.02142503683339
 31
0.0
  0
LINE
  5
272
  8
0
 10
222.9549323681575
 20
166.02142503683339
 30
0.0
 11
222.9549323681575
 21
196.02142503683339
 31
0.0
  0
ARC
  5
273
  8
0
 10
166.46484634166541
 20
183.61457078737391
 30
0.0
 40
2.9999999999999658
 50
134.9999999999996
 51
180.0
  0
ARC
  5
274
  8
0
 10
171.0148463416655
 20
184.9214250368606
 30
0.0
 40
0.8
 50
180.00000000000171
 51
270.0
1001
GENIUS_GENODEF_13
1002
{
1000
HIER
1070
     0
1002
}
1002
{
1000
MANEDIT
1070
     0
1002
}
1002
{
1000
NOSEL
1070
     0
1002
}
1002
{
1000
BEHIND
1070
     0
1002
}
1002
{
1000
REACTOR
1002
}
1001
GENIUS_GENOBJ-N-FIL_13
1002
{
1000
OWNER
1000
GEN
1002
}
  0
LINE
  5
275
  8
0
 10
166.90038024759269
 20
188.29274538042031
 30
0.0
 11
164.3435259981058
 21
185.73589113093351
 31
0.0
  0
ARC
  5
276
  8
0
 10
171.41484634166551
 20
186.92142503686071
 30
0.0
 40
0.3000000000000398
 50
269.99999999999318
 51
359.99999999999193
  0
ARC
  5
277
  8
0
 10
170.71484634166549
 20
188.1714250368606
 30
0.0
 40
1.0
 50
0.0
 51
90.0
  0
LINE
  5
278
  8
0
 10
171.71484634166549
 20
186.9214250368606
 30
0.0
 11
171.71484634166549
 21
188.1714250368606
 31
0.0
  0
ARC
  5
279
  8
0
 10
169.0217005911523
 20
186.17142503686071
 30
0.0
 40
3.0
 50
90.000000000000398
 51
135.00000000000099
  0
LINE
  5
27A
  8
0
 10
170.71484634166549
 20
189.1714250368606
 30
0.0
 11
169.0217005911523
 21
189.17142503686071
 31
0.0
  0
ARC
  5
27B
  8
0
 10
170.51484634166539
 20
186.32142503686069
 30
0.0
 40
0.3000000000000007
 50
90.000000000000625
 51
180.0000000000027
  0
LINE
  5
27C
  8
0
 10
170.21484634166549
 20
184.9214250368606
 30
0.0
 11
170.21484634166541
 21
186.32142503686069
 31
0.0
  0
LINE
  5
27D
  8
0
 10
170.51484634166539
 20
186.62142503686059
 30
0.0
 11
171.4148463416654
 21
186.62142503686059
 31
0.0
  0
LINE
  5
27E
  8
0
 10
222.9549323681575
 20
196.02142503683339
 30
0.0
 11
272.95493236815747
 21
196.02142503683339
 31
0.0
  0
LINE
  5
27F
  8
0
 10
173.21484634165981
 20
75.164282481439017
 30
0.0
 11
143.21484634165981
 21
75.164282481439017
 31
0.0
  0
LINE
  5
280
  8
0
 10
173.21484634165981
 20
125.164282481439
 30
0.0
 11
143.21484634165981
 21
125.164282481439
 31
0.0
  0
LINE
  5
281
  8
0
 10
164.3435259981058
 20
176.3069589427605
 30
0.0
 11
166.90038024759281
 21
173.7501046932735
 31
0.0
  0
LINE
  5
282
  8
0
 10
170.21484634166549
 20
175.72142503686069
 30
0.0
 11
170.21484634166549
 21
177.12142503686059
 31
0.0
  0
LINE
  5
283
  8
0
 10
171.01484634166559
 20
177.9214250368606
 30
0.0
 11
172.11446547364869
 21
177.9214250368606
 31
0.0
  0
LINE
  5
284
  8
0
 10
172.11446547364869
 20
184.12142503686059
 30
0.0
 11
171.0148463416655
 21
184.12142503686059
 31
0.0
  0
LINE
  5
285
  8
0
 10
172.21446547364869
 20
178.02142503686059
 30
0.0
 11
172.21446547364869
 21
184.02142503686059
 31
0.0
  0
ARC
  5
286
  8
0
 10
172.11446547364869
 20
184.02142503686059
 30
0.0
 40
0.1
 50
0.0
 51
90.0
1001
GENIUS_GENODEF_13
1002
{
1000
HIER
1070
     0
1002
}
1002
{
1000
MANEDIT
1070
     0
1002
}
1002
{
1000
NOSEL
1070
     0
1002
}
1002
{
1000
BEHIND
1070
     0
1002
}
1002
{
1000
REACTOR
1002
}
1001
GENIUS_GENOBJ-N-FIL_13
1002
{
1000
OWNER
1000
GEN
1002
}
  0
ARC
  5
287
  8
0
 10
172.11446547364869
 20
178.02142503686059
 30
0.0
 40
0.1
 50
270.0
 51
0.0
1001
GENIUS_GENODEF_13
1002
{
1000
HIER
1070
     0
1002
}
1002
{
1000
MANEDIT
1070
     0
1002
}
1002
{
1000
NOSEL
1070
     0
1002
}
1002
{
1000
BEHIND
1070
     0
1002
}
1002
{
1000
REACTOR
1002
}
1001
GENIUS_GENOBJ-N-FIL_13
1002
{
1000
OWNER
1000
GEN
1002
}
  0
ARC
  5
288
  8
0
 10
171.01484634166559
 20
177.12142503686059
 30
0.0
 40
0.8
 50
89.999999999996845
 51
179.9999999999971
1001
GENIUS_GENODEF_13
1002
{
1000
HIER
1070
     0
1002
}
1002
{
1000
MANEDIT
1070
     0
1002
}
1002
{
1000
NOSEL
1070
     0
1002
}
1002
{
1000
BEHIND
1070
     0
1002
}
1002
{
1000
REACTOR
1002
}
1001
GENIUS_GENOBJ-N-FIL_13
1002
{
1000
OWNER
1000
GEN
1002
}
  0
ARC
  5
289
  8
0
 10
171.41484634166551
 20
175.12142503686059
 30
0.0
 40
0.2999999999999758
 50
0.0000000000040711
 51
90.000000000004064
  0
ARC
  5
28A
  8
0
 10
170.71484634166549
 20
173.8714250368333
 30
0.0
 40
1.0
 50
269.99999999999937
 51
0.0
  0
LINE
  5
28B
  8
0
 10
171.71484634166549
 20
173.8714250368333
 30
0.0
 11
171.71484634166561
 21
175.12142503686059
 31
0.0
  0
LINE
  5
28C
  8
0
 10
169.0217005911523
 20
172.8714250368333
 30
0.0
 11
170.71484634166549
 21
172.8714250368333
 31
0.0
  0
ARC
  5
28D
  8
0
 10
170.5148463416655
 20
175.72142503686069
 30
0.0
 40
0.3000000000000327
 50
180.00000000000679
 51
270.00000000000682
  0
ARC
  5
28E
  8
0
 10
169.02170059115241
 20
175.8714250368331
 30
0.0
 40
2.9999999999999081
 50
224.99999999999989
 51
269.99999999999898
  0
LINE
  5
28F
  8
0
 10
171.41484634166551
 20
175.4214250368606
 30
0.0
 11
170.51484634166559
 21
175.42142503686071
 31
0.0
  0
LINE
  5
290
  8
0
 10
173.21484634165981
 20
125.164282481439
 30
0.0
 11
173.21484634165981
 21
75.164282481439017
 31
0.0
  0
ARC
  5
291
  8
0
 10
166.46484634166541
 20
178.42827928632019
 30
0.0
 40
2.9999999999999361
 50
180.0000000000002
 51
225.0
  0
CIRCLE
  5
292
  8
0
 10
158.21484634165981
 20
181.02142503683339
 30
0.0
 40
2.5
  0
LINE
  5
293
  8
0
 10
163.46484634166549
 20
183.61457078737391
 30
0.0
 11
163.46484634166549
 21
178.42827928632019
 31
0.0
  0
LINE
  5
294
  8
0
 10
161.3148463416326
 20
125.164282481439
 30
0.0
 11
161.3148463416326
 21
75.164282481438988
 31
0.0
  0
LINE
  5
295
  8
0
 10
155.11484634163261
 20
125.164282481439
 30
0.0
 11
155.11484634163261
 21
75.164282481439017
 31
0.0
  0
LINE
  5
296
  8
0
 10
143.21484634165981
 20
125.164282481439
 30
0.0
 11
143.21484634165981
 21
75.164282481439017
 31
0.0
  0
LINE
  5
297
  8
0
 10
222.9549323681575
 20
166.02142503683339
 30
0.0
 11
272.95493236815747
 21
166.02142503683339
 31
0.0
  0
ARC
  5
298
  8
0
 10
155.62170059111929
 20
172.77142503682779
 30
0.0
 40
2.99999999999996
 50
89.999999999999588
 51
134.9999999999998
  0
LINE
  5
299
  8
0
 10
153.50038024755969
 20
174.8927453803874
 30
0.0
 11
150.94352599810011
 21
172.33589113092779
 31
0.0
  0
ARC
  5
29A
  8
0
 10
153.06484634165969
 20
170.21457078736819
 30
0.0
 40
2.9999999999999809
 50
135.00000000000031
 51
180.0000000000002
  0
LINE
  5
29B
  8
0
 10
150.06484634165969
 20
170.21457078736819
 30
0.0
 11
150.06484634165969
 21
168.52142503682771
 31
0.0
  0
ARC
  5
29C
  8
0
 10
151.06484634165969
 20
168.52142503682771
 30
0.0
 40
1.0
 50
180.0
 51
270.0
  0
LINE
  5
29D
  8
0
 10
151.06484634165969
 20
167.52142503682771
 30
0.0
 11
152.31484634163249
 21
167.52142503682771
 31
0.0
  0
ARC
  5
29E
  8
0
 10
152.31484634163249
 20
167.82142503682769
 30
0.0
 40
0.3000000000000114
 50
269.99999999999449
 51
359.99999999999449
  0
LINE
  5
29F
  8
0
 10
152.6148463416325
 20
167.82142503682769
 30
0.0
 11
152.61484634163261
 21
168.7214250368277
 31
0.0
  0
ARC
  5
2A0
  8
0
 10
152.9148463416326
 20
168.7214250368277
 30
0.0
 40
0.2999999999999829
 50
90.0
 51
180.0
  0
LINE
  5
2A1
  8
0
 10
152.9148463416326
 20
169.02142503682771
 30
0.0
 11
154.31484634163269
 21
169.02142503682779
 31
0.0
  0
ARC
  5
2A2
  8
0
 10
154.3148463416326
 20
168.2214250368277
 30
0.0
 40
0.8000000000000468
 50
359.99999999999437
 51
89.999999999997456
  0
LINE
  5
2A3
  8
0
 10
155.1148463416327
 20
168.22142503682761
 30
0.0
 11
155.11484634163261
 21
167.02142503683339
 31
0.0
  0
ARC
  5
2A4
  8
0
 10
154.11484634163261
 20
167.02142503683351
 30
0.0
 40
1.0000000000000031
 50
270.00000000000023
 51
359.99999999999648
  0
LINE
  5
2A5
  8
0
 10
154.11484634163261
 20
166.02142503683339
 30
0.0
 11
146.21484634165981
 21
166.02142503683339
 31
0.0
  0
ARC
  5
2A6
  8
0
 10
146.21484634165981
 20
169.02142503683351
 30
0.0
 40
3.0
 50
180.0
 51
270.0
  0
LINE
  5
2A7
  8
0
 10
143.21484634165981
 20
169.02142503683351
 30
0.0
 11
143.21484634165981
 21
176.9214250368334
 31
0.0
  0
ARC
  5
2A8
  8
0
 10
144.21484634165981
 20
176.9214250368334
 30
0.0
 40
1.0
 50
89.999999999995111
 51
180.0
  0
LINE
  5
2A9
  8
0
 10
144.21484634165989
 20
177.9214250368334
 30
0.0
 11
145.414846341627
 21
177.92142503683331
 31
0.0
  0
ARC
  5
2AA
  8
0
 10
145.414846341627
 20
177.12142503683339
 30
0.0
 40
0.7999999999999936
 50
359.99999999999881
 51
89.999999999999233
  0
LINE
  5
2AB
  8
0
 10
146.21484634162701
 20
177.1214250368333
 30
0.0
 11
146.21484634162701
 21
175.72142503683349
 31
0.0
  0
ARC
  5
2AC
  8
0
 10
145.91484634162691
 20
175.72142503683341
 30
0.0
 40
0.3000000000000398
 50
270.00000000001091
 51
0.0000000000108393
  0
LINE
  5
2AD
  8
0
 10
145.914846341627
 20
175.4214250368334
 30
0.0
 11
145.01484634162691
 21
175.42142503683331
 31
0.0
  0
ARC
  5
2AE
  8
0
 10
145.01484634162691
 20
175.1214250368333
 30
0.0
 40
0.3000000000000114
 50
90.0
 51
180.0
  0
LINE
  5
2AF
  8
0
 10
144.7148463416269
 20
175.1214250368333
 30
0.0
 11
144.71484634162709
 21
173.87142503680599
 31
0.0
  0
ARC
  5
2B0
  8
0
 10
145.71484634162709
 20
173.87142503680599
 30
0.0
 40
1.0000000000000031
 50
180.0000000000002
 51
269.99999999999977
  0
LINE
  5
2B1
  8
0
 10
145.71484634162709
 20
172.87142503680599
 30
0.0
 11
147.40799209211281
 21
172.8714250368061
 31
0.0
  0
ARC
  5
2B2
  8
0
 10
147.40799209211289
 20
175.87142503680599
 30
0.0
 40
2.9999999999999178
 50
269.99999999999881
 51
314.99999999999869
  0
LINE
  5
2B3
  8
0
 10
149.52931243567241
 20
173.75010469324641
 30
0.0
 11
152.08616668518661
 21
176.3069589427605
 31
0.0
  0
ARC
  5
2B4
  8
0
 10
149.96484634162701
 20
178.42827928632011
 30
0.0
 40
2.9999999999999529
 50
315.00000000000011
 51
0.0000000000005089
  0
LINE
  5
2B5
  8
0
 10
152.96484634162701
 20
178.42827928632019
 30
0.0
 11
152.96484634162701
 21
183.61457078737399
 31
0.0
  0
ARC
  5
2B6
  8
0
 10
149.96484634162709
 20
183.61457078737399
 30
0.0
 40
2.999999999999893
 50
0.0000000000006616
 51
45.000000000000398
  0
LINE
  5
2B7
  8
0
 10
152.08616668518661
 20
185.73589113093351
 30
0.0
 11
149.52931243572689
 21
188.2927453803932
 31
0.0
  0
ARC
  5
2B8
  8
0
 10
147.40799209216729
 20
186.17142503683351
 30
0.0
 40
3.000000000000012
 50
45.000000000000547
 51
90.0
  0
LINE
  5
2B9
  8
0
 10
147.40799209216729
 20
189.17142503683351
 30
0.0
 11
145.71484634162701
 21
189.17142503683351
 31
0.0
  0
ARC
  5
2BA
  8
0
 10
145.7148463416269
 20
188.1714250368336
 30
0.0
 40
0.9999999999999751
 50
89.999999999998565
 51
180.00000000000139
  0
LINE
  5
2BB
  8
0
 10
144.71484634162701
 20
188.17142503683351
 30
0.0
 11
144.7148463416269
 21
186.92142503683331
 31
0.0
  0
ARC
  5
2BC
  8
0
 10
145.01484634162691
 20
186.92142503683331
 30
0.0
 40
0.2999999999999794
 50
179.99999999999929
 51
270.00000000000063
  0
LINE
  5
2BD
  8
0
 10
145.01484634162691
 20
186.6214250368333
 30
0.0
 11
145.91484634162691
 21
186.62142503683339
 31
0.0
  0
ARC
  5
2BE
  8
0
 10
145.91484634162691
 20
186.3214250368334
 30
0.0
 40
0.3000000000000149
 50
0.0000000000006616
 51
90.0
  0
LINE
  5
2BF
  8
0
 10
146.2148463416269
 20
186.3214250368334
 30
0.0
 11
146.2148463416269
 21
184.92142503683331
 31
0.0
  0
ARC
  5
2C0
  8
0
 10
145.414846341627
 20
184.92142503683331
 30
0.0
 40
0.7999999999999723
 50
269.99999999999721
 51
0.0000000000007633
  0
LINE
  5
2C1
  8
0
 10
145.41484634162691
 20
184.1214250368333
 30
0.0
 11
144.21484634165981
 21
184.12142503683339
 31
0.0
  0
ARC
  5
2C2
  8
0
 10
144.21484634165981
 20
185.12142503683339
 30
0.0
 40
1.0000000000000031
 50
180.0000000000002
 51
269.9999999999996
  0
LINE
  5
2C3
  8
0
 10
143.21484634165981
 20
185.12142503683339
 30
0.0
 11
143.21484634165989
 21
193.02142503683339
 31
0.0
  0
ARC
  5
2C4
  8
0
 10
146.21484634165989
 20
193.02142503683339
 30
0.0
 40
3.0
 50
90.0
 51
180.0
  0
LINE
  5
2C5
  8
0
 10
146.21484634165989
 20
196.02142503683339
 30
0.0
 11
154.11484634165981
 21
196.02142503683339
 31
0.0
  0
ARC
  5
2C6
  8
0
 10
154.11484634165981
 20
195.02142503683339
 30
0.0
 40
0.9999999999999991
 50
0.000000000003206
 51
90.0
  0
LINE
  5
2C7
  8
0
 10
155.11484634165981
 20
195.02142503683339
 30
0.0
 11
155.1148463416599
 21
193.82142503686629
 31
0.0
  0
ARC
  5
2C8
  8
0
 10
154.3148463416598
 20
193.82142503686629
 30
0.0
 40
0.7999999999999972
 50
269.99999999999898
 51
0.0000000000012213
  0
LINE
  5
2C9
  8
0
 10
154.3148463416598
 20
193.0214250368663
 30
0.0
 11
152.91484634165991
 21
193.0214250368663
 31
0.0
  0
ARC
  5
2CA
  8
0
 10
152.91484634165991
 20
193.32142503686629
 30
0.0
 40
0.3000000000000398
 50
180.0
 51
270.0
  0
LINE
  5
2CB
  8
0
 10
152.61484634165981
 20
193.32142503686629
 30
0.0
 11
152.61484634165981
 21
194.22142503686621
 31
0.0
  0
ARC
  5
2CC
  8
0
 10
152.3148463416598
 20
194.22142503686621
 30
0.0
 40
0.3000000000000114
 50
0.0000000000005089
 51
90.0
  0
LINE
  5
2CD
  8
0
 10
152.3148463416598
 20
194.52142503686619
 30
0.0
 11
151.0648463416326
 21
194.52142503686639
 31
0.0
  0
ARC
  5
2CE
  8
0
 10
151.06484634163249
 20
193.52142503686639
 30
0.0
 40
1.00000000000001
 50
89.999999999997357
 51
179.9999999999994
  0
LINE
  5
2CF
  8
0
 10
150.06484634163249
 20
193.52142503686639
 30
0.0
 11
150.06484634163249
 21
191.82827928635299
 31
0.0
  0
ARC
  5
2D0
  8
0
 10
153.0648463416324
 20
191.82827928635299
 30
0.0
 40
2.9999999999998721
 50
179.9999999999994
 51
225.0000000000006
  0
LINE
  5
2D1
  8
0
 10
150.94352599807289
 20
189.70695894279339
 30
0.0
 11
153.50038024755969
 21
187.15010469330659
 31
0.0
  0
ARC
  5
2D2
  8
0
 10
155.62170059111929
 20
189.27142503686619
 30
0.0
 40
2.9999999999998912
 50
224.9999999999996
 51
269.99999999999932
  0
LINE
  5
2D3
  8
0
 10
155.62170059111929
 20
186.2714250368663
 30
0.0
 11
160.80799209217309
 21
186.27142503686619
 31
0.0
  0
ARC
  5
2D4
  8
0
 10
160.80799209217309
 20
189.27142503686611
 30
0.0
 40
2.999999999999968
 50
270.00000000000023
 51
315.00000000000063
  0
LINE
  5
2D5
  8
0
 10
162.9293124357327
 20
187.1501046933065
 30
0.0
 11
165.4861666852197
 21
189.70695894279351
 31
0.0
  0
ARC
  5
2D6
  8
0
 10
163.36484634165981
 20
191.82827928635311
 30
0.0
 40
3.0000000000001839
 50
315.00000000000188
 51
0.000000000001374
  0
LINE
  5
2D7
  8
0
 10
166.36484634166001
 20
191.82827928635319
 30
0.0
 11
166.36484634166001
 21
193.5214250368663
 31
0.0
  0
ARC
  5
2D8
  8
0
 10
165.36484634166001
 20
193.5214250368663
 30
0.0
 40
1.0
 50
0.0
 51
90.0
  0
LINE
  5
2D9
  8
0
 10
165.36484634166001
 20
194.5214250368663
 30
0.0
 11
164.11484634165981
 21
194.5214250368663
 31
0.0
  0
ARC
  5
2DA
  8
0
 10
164.11484634165981
 20
194.22142503686621
 30
0.0
 40
0.30000000000004
 50
90.000000000010886
 51
180.0000000000108
  0
LINE
  5
2DB
  8
0
 10
163.8148463416598
 20
194.22142503686621
 30
0.0
 11
163.81484634165989
 21
193.32142503686629
 31
0.0
  0
ARC
  5
2DC
  8
0
 10
163.51484634165979
 20
193.32142503686629
 30
0.0
 40
0.3000000000000895
 50
270.00000000000949
 51
0.0000000000120607
  0
LINE
  5
2DD
  8
0
 10
163.51484634165979
 20
193.02142503686619
 30
0.0
 11
162.11484634165981
 21
193.02142503686611
 31
0.0
  0
ARC
  5
2DE
  8
0
 10
162.11484634165981
 20
193.82142503686609
 30
0.0
 40
0.8000000000000198
 50
179.9999999999965
 51
269.99999999999528
  0
LINE
  5
2DF
  8
0
 10
161.3148463416598
 20
193.8214250368662
 30
0.0
 11
161.3148463416598
 21
195.02142503683339
 31
0.0
  0
ARC
  5
2E0
  8
0
 10
162.3148463416598
 20
195.02142503683339
 30
0.0
 40
1.0
 50
90.0
 51
180.0
  0
LINE
  5
2E1
  8
0
 10
162.3148463416598
 20
196.02142503683339
 30
0.0
 11
170.21484634165981
 21
196.02142503683339
 31
0.0
  0
ARC
  5
2E2
  8
0
 10
170.21484634165981
 20
193.02142503683339
 30
0.0
 40
3.0000000000000009
 50
0.0
 51
89.999999999999943
  0
LINE
  5
2E3
  8
0
 10
173.21484634165981
 20
193.02142503683339
 30
0.0
 11
173.21484634165981
 21
169.02142503683339
 31
0.0
  0
ARC
  5
2E4
  8
0
 10
170.21484634165981
 20
169.02142503683339
 30
0.0
 40
2.9999999999999969
 50
269.99999999999989
 51
0.0
  0
LINE
  5
2E5
  8
0
 10
170.21484634165981
 20
166.02142503683339
 30
0.0
 11
162.3148463416326
 21
166.02142503683339
 31
0.0
  0
ARC
  5
2E6
  8
0
 10
162.3148463416326
 20
167.02142503683339
 30
0.0
 40
1.0000000000000071
 50
180.0000000000004
 51
269.99999999999937
  0
LINE
  5
2E7
  8
0
 10
161.3148463416326
 20
167.02142503683339
 30
0.0
 11
161.3148463416326
 21
168.22142503682781
 31
0.0
  0
ARC
  5
2E8
  8
0
 10
162.11484634163261
 20
168.22142503682781
 30
0.0
 40
0.8000000000000132
 50
90.000000000000099
 51
180.0
  0
LINE
  5
2E9
  8
0
 10
162.11484634163261
 20
169.02142503682779
 30
0.0
 11
163.51484634163259
 21
169.02142503682771
 31
0.0
  0
ARC
  5
2EA
  8
0
 10
163.51484634163259
 20
168.7214250368277
 30
0.0
 40
0.2999999999999829
 50
0.0
 51
90.0
  0
LINE
  5
2EB
  8
0
 10
163.8148463416326
 20
168.7214250368277
 30
0.0
 11
163.81484634163249
 21
167.82142503682769
 31
0.0
  0
ARC
  5
2EC
  8
0
 10
164.11484634163261
 20
167.82142503682769
 30
0.0
 40
0.300000000000038
 50
180.0
 51
270.00000000000028
  0
LINE
  5
2ED
  8
0
 10
164.11484634163261
 20
167.52142503682759
 30
0.0
 11
165.3648463416871
 21
167.52142503682771
 31
0.0
  0
ARC
  5
2EE
  8
0
 10
165.3648463416871
 20
168.52142503682759
 30
0.0
 40
0.999999999999929
 50
269.99999999999579
 51
359.9999999999975
  0
LINE
  5
2EF
  8
0
 10
166.3648463416871
 20
168.52142503682759
 30
0.0
 11
166.36484634168721
 21
170.21457078731359
 31
0.0
  0
ARC
  5
2F0
  8
0
 10
163.36484634168721
 20
170.21457078731359
 30
0.0
 40
2.999999999999992
 50
0.0000000000004071
 51
45.000000000000398
  0
LINE
  5
2F1
  8
0
 10
165.48616668524679
 20
172.33589113087319
 30
0.0
 11
162.9293124357327
 21
174.89274538038731
 31
0.0
  0
ARC
  5
2F2
  8
0
 10
160.8079920921729
 20
172.77142503682771
 30
0.0
 40
3.0000000000000848
 50
44.999999999996469
 51
89.999999999996135
  0
LINE
  5
2F3
  8
0
 10
160.80799209217309
 20
175.77142503682779
 30
0.0
 11
155.62170059111929
 21
175.77142503682771
 31
0.0
  0
LINE
  5
2F4
  8
0
 10
171.71484634165989
 20
190.97142503686069
 30
0.0
 11
171.71484634165981
 21
193.02142503686071
 31
0.0
  0
ARC
  5
2F5
  8
0
 10
170.21484634165981
 20
193.02142503686071
 30
0.0
 40
1.5000000000000151
 50
0.0000000000006107
 51
89.999999999999389
  0
LINE
  5
2F6
  8
0
 10
170.21484634165981
 20
194.52142503686071
 30
0.0
 11
168.16484634165721
 21
194.52142503686071
 31
0.0
  0
ARC
  5
2F7
  8
0
 10
168.16484634165721
 20
194.22142503686069
 30
0.0
 40
0.2999999999999825
 50
89.999999999994557
 51
180.00000000012491
  0
LINE
  5
2F8
  8
0
 10
167.8648463416572
 20
194.22142503686001
 30
0.0
 11
167.86484634166439
 21
190.9714250368599
 31
0.0
  0
ARC
  5
2F9
  8
0
 10
168.16484634166449
 20
190.97142503686061
 30
0.0
 40
0.3000000000000034
 50
180.00000000011789
 51
269.99999999999062
  0
LINE
  5
2FA
  8
0
 10
168.1648463416644
 20
190.6714250368606
 30
0.0
 11
171.41484634165991
 21
190.67142503686071
 31
0.0
  0
ARC
  5
2FB
  8
0
 10
171.41484634165991
 20
190.97142503686069
 30
0.0
 40
0.3000000000000682
 50
270.0
 51
0.0
  0
ARC
  5
2FC
  8
0
 10
146.21484634163249
 20
193.02142503683339
 30
0.0
 40
1.500000000000014
 50
90.000000000000483
 51
179.9999999999994
  0
LINE
  5
2FD
  8
0
 10
146.21484634163249
 20
194.52142503683339
 30
0.0
 11
148.26484634163251
 21
194.52142503683339
 31
0.0
  0
ARC
  5
2FE
  8
0
 10
148.26484634163251
 20
194.2214250368333
 30
0.0
 40
0.3000000000000682
 50
0.0
 51
90.0
  0
LINE
  5
2FF
  8
0
 10
148.5648463416326
 20
194.2214250368333
 30
0.0
 11
148.5648463416326
 21
190.97142503683801
 31
0.0
  0
ARC
  5
300
  8
0
 10
148.26484634163251
 20
190.97142503683801
 30
0.0
 40
0.3000000000000611
 50
270.00000000012898
 51
0.0000000000010178
  0
LINE
  5
301
  8
0
 10
148.26484634163319
 20
190.671425036838
 30
0.0
 11
145.0148463416333
 21
190.67142503683081
 31
0.0
  0
ARC
  5
302
  8
0
 10
145.01484634163259
 20
190.97142503683079
 30
0.0
 40
0.2999999999999874
 50
180.00000000000631
 51
270.00000000013432
  0
LINE
  5
303
  8
0
 10
144.71484634163261
 20
190.97142503683079
 30
0.0
 11
144.71484634163249
 21
193.02142503683339
 31
0.0
  0
ARC
  5
304
  8
0
 10
170.21484634168709
 20
169.02142503683339
 30
0.0
 40
1.5000000000000151
 50
270.00000000000063
 51
359.99999999999937
  0
LINE
  5
305
  8
0
 10
170.21484634168709
 20
167.52142503683339
 30
0.0
 11
168.16484634168719
 21
167.52142503683339
 31
0.0
  0
ARC
  5
306
  8
0
 10
168.16484634168719
 20
167.82142503683329
 30
0.0
 40
0.2999999999999474
 50
179.99999999999861
 51
270.00000000000102
  0
LINE
  5
307
  8
0
 10
167.86484634168721
 20
167.82142503683329
 30
0.0
 11
167.86484634168721
 21
171.0714250368288
 31
0.0
  0
ARC
  5
308
  8
0
 10
168.16484634168719
 20
171.0714250368288
 30
0.0
 40
0.2999999999999501
 50
90.000000000129461
 51
180.00000000000131
  0
LINE
  5
309
  8
0
 10
168.16484634168651
 20
171.37142503682881
 30
0.0
 11
171.41484634168651
 21
171.371425036836
 31
0.0
  0
ARC
  5
30A
  8
0
 10
171.41484634168719
 20
171.0714250368361
 30
0.0
 40
0.29999999999999
 50
0.0000000000067682
 51
90.000000000134861
  0
LINE
  5
30B
  8
0
 10
171.71484634168721
 20
171.0714250368361
 30
0.0
 11
171.71484634168709
 21
169.02142503683339
 31
0.0
  0
LINE
  5
30C
  8
0
 10
144.71484634165981
 20
169.02142503680611
 30
0.0
 11
144.71484634165989
 21
171.07142503680609
 31
0.0
  0
ARC
  5
30D
  8
0
 10
145.0148463416599
 20
171.071425036806
 30
0.0
 40
0.2999999999999829
 50
89.999999999994557
 51
179.99999999999449
  0
LINE
  5
30E
  8
0
 10
145.0148463416599
 20
171.37142503680599
 30
0.0
 11
148.26484634165519
 21
171.37142503680599
 31
0.0
  0
ARC
  5
30F
  8
0
 10
148.26484634165519
 20
171.071425036806
 30
0.0
 40
0.2999999999999794
 50
0.0000000001350082
 51
90.000000000006125
  0
LINE
  5
310
  8
0
 10
148.5648463416552
 20
171.07142503680669
 30
0.0
 11
148.56484634166259
 21
167.82142503680669
 31
0.0
  0
ARC
  5
311
  8
0
 10
148.26484634166249
 20
167.82142503680609
 30
0.0
 40
0.3000000000000185
 50
269.99999999999051
 51
0.0000000001180622
  0
LINE
  5
312
  8
0
 10
148.26484634166249
 20
167.52142503680611
 30
0.0
 11
146.21484634165981
 21
167.52142503680611
 31
0.0
  0
ARC
  5
313
  8
0
 10
146.21484634165981
 20
169.02142503680611
 30
0.0
 40
1.500000000000014
 50
180.0000000000006
 51
269.99999999999949
  0
INSERT
  5
314
  8
0
  2
STDGX5
 10
0.0
 20
0.0
 30
0.0
  0
INSERT
  5
315
  8
0
  2
STDGX5
 10
0.0
 20
0.0
 30
0.0
  0
INSERT
  5
316
  8
0
  2
STDGX5
 10
275.0
 20
0.0
 30
0.0
  0
INSERT
  5
317
  8
0
  2
STDGX5
 10
275.0
 20
0.0
 30
0.0
  0
LINE
  5
328
  8
1
 10
158.21484634165989
 20
201.02142503683339
 30
0.0
 11
158.21484634165969
 21
161.02142503683339
 31
0.0
  0
LINE
  5
329
  8
1
 10
178.21484634165981
 20
181.02142503683331
 30
0.0
 11
138.21484634165981
 21
181.02142503683351
 31
0.0
  0
LINE
  5
32A
  8
1
 10
217.9549323681575
 20
181.02142503683339
 30
0.0
 11
277.95493236815747
 21
181.02142503683339
 31
0.0
  0
LINE
  5
32B
  8
1
 10
158.21484634165981
 20
130.16428248143899
 30
0.0
 11
158.21484634165981
 21
70.164282481439017
 31
0.0
  0
TEXT
  5
435
  8
0
 62
     3
 10
0.0
 20
0.0
 30
0.0
 40
10.0
  1
L6-SPL3030N1
  7
STANDARD1
  0
ENDSEC
  0
EOF
