  0
SECTION
  2
HEADER
  9
$ACADVER
  1
AC1009
  9
$INSBASE
 10
0.0
 20
0.0
 30
0.0
  9
$EXTMIN
 10
0.0
 20
-2.960436562073669
 30
0.0
  9
$EXTMAX
 10
277.95493236815747
 20
201.02142503683339
 30
0.0
  9
$LIMMIN
 10
0.0
 20
0.0
  9
$LIMMAX
 10
375.0
 20
278.0
  9
$ORTHOMODE
 70
     0
  9
$REGENMODE
 70
     1
  9
$FILLMODE
 70
     1
  9
$QTEXTMODE
 70
     0
  9
$MIRRTEXT
 70
     0
  9
$DRAGMODE
 70
     2
  9
$LTSCALE
 40
10.0
  9
$OSMODE
 70
  3071
  9
$ATTMODE
 70
     1
  9
$TEXTSIZE
 40
0.2
  9
$TRACEWID
 40
0.05
  9
$TEXTSTYLE
  7
STANDARD
  9
$CLAYER
  8
0
  9
$CELTYPE
  6
BYLAYER
  9
$CECOLOR
 62
   256
  9
$DIMSCALE
 40
1.0
  9
$DIMASZ
 40
3.0
  9
$DIMEXO
 40
1.0
  9
$DIMDLI
 40
6.0
  9
$DIMRND
 40
0.0
  9
$DIMDLE
 40
0.0
  9
$DIMEXE
 40
1.0
  9
$DIMTP
 40
495.0
  9
$DIMTM
 40
0.0
  9
$DIMTXT
 40
3.0
  9
$DIMCEN
 40
0.0
  9
$DIMTSZ
 40
0.0
  9
$DIMTOL
 70
     0
  9
$DIMLIM
 70
     0
  9
$DIMTIH
 70
     0
  9
$DIMTOH
 70
     0
  9
$DIMSE1
 70
     0
  9
$DIMSE2
 70
     0
  9
$DIMTAD
 70
     1
  9
$DIMZIN
 70
     0
  9
$DIMBLK
  1

  9
$DIMASO
 70
     0
  9
$DIMSHO
 70
     0
  9
$DIMPOST
  1

  9
$DIMAPOST
  1

  9
$DIMALT
 70
     0
  9
$DIMALTD
 70
     2
  9
$DIMALTF
 40
25.399999999999999
  9
$DIMLFAC
 40
1.0
  9
$DIMTOFL
 70
     1
  9
$DIMTVP
 40
0.0
  9
$DIMTIX
 70
     1
  9
$DIMSOXD
 70
     0
  9
$DIMSAH
 70
     0
  9
$DIMBLK1
  1

  9
$DIMBLK2
  1

  9
$DIMSTYLE
  2
STANDARD
  9
$DIMCLRD
 70
     0
  9
$DIMCLRE
 70
     0
  9
$DIMCLRT
 70
     4
  9
$DIMTFAC
 40
1.0
  9
$DIMGAP
 40
1.0
  9
$LUNITS
 70
     2
  9
$LUPREC
 70
     4
  9
$SKETCHINC
 40
0.1
  9
$FILLETRAD
 40
0.0
  9
$AUNITS
 70
     0
  9
$AUPREC
 70
     0
  9
$MENU
  1
C:\R13\WIN\SUPPORT\ACAD-I
  9
$ELEVATION
 40
0.0
  9
$PELEVATION
 40
0.0
  9
$THICKNESS
 40
0.0
  9
$LIMCHECK
 70
     0
  9
$BLIPMODE
 70
     0
  9
$CHAMFERA
 40
0.0
  9
$CHAMFERB
 40
0.0
  9
$SKPOLY
 70
     0
  9
$TDCREATE
 40
2450834.4199027782
  9
$TDUPDATE
 40
2456597.562553646
  9
$TDINDWG
 40
0.032854456
  9
$TDUSRTIMER
 40
0.032854456
  9
$USRTIMER
 70
     1
  9
$ANGBASE
 50
0.0
  9
$ANGDIR
 70
     0
  9
$PDMODE
 70
     0
  9
$PDSIZE
 40
0.0
  9
$PLINEWID
 40
0.0
  9
$COORDS
 70
     1
  9
$SPLFRAME
 70
     0
  9
$SPLINETYPE
 70
     6
  9
$SPLINESEGS
 70
     8
  9
$ATTDIA
 70
     0
  9
$ATTREQ
 70
     1
  9
$HANDLING
 70
     1
  9
$HANDSEED
  5
732
  9
$SURFTAB1
 70
     6
  9
$SURFTAB2
 70
     6
  9
$SURFTYPE
 70
     6
  9
$SURFU
 70
     6
  9
$SURFV
 70
     6
  9
$UCSNAME
  2

  9
$UCSORG
 10
0.0
 20
0.0
 30
0.0
  9
$UCSXDIR
 10
1.0
 20
0.0
 30
0.0
  9
$UCSYDIR
 10
0.0
 20
1.0
 30
0.0
  9
$PUCSNAME
  2

  9
$PUCSORG
 10
0.0
 20
0.0
 30
0.0
  9
$PUCSXDIR
 10
1.0
 20
0.0
 30
0.0
  9
$PUCSYDIR
 10
0.0
 20
1.0
 30
0.0
  9
$USERI1
 70
     4
  9
$USERI2
 70
     1
  9
$USERI3
 70
     0
  9
$USERI4
 70
     0
  9
$USERI5
 70
     0
  9
$USERR1
 40
1.0
  9
$USERR2
 40
3.0
  9
$USERR3
 40
3.0
  9
$USERR4
 40
3.0
  9
$USERR5
 40
10.0
  9
$WORLDVIEW
 70
     1
  9
$SHADEDGE
 70
     3
  9
$SHADEDIF
 70
    70
  9
$TILEMODE
 70
     1
  9
$MAXACTVP
 70
    16
  9
$PLIMCHECK
 70
     0
  9
$PEXTMIN
 10
1.0000000000000000E+020
 20
1.0000000000000000E+020
 30
1.0000000000000000E+020
  9
$PEXTMAX
 10
-1.0000000000000000E+020
 20
-1.0000000000000000E+020
 30
-1.0000000000000000E+020
  9
$PLIMMIN
 10
0.0
 20
0.0
  9
$PLIMMAX
 10
12.0
 20
9.0
  9
$UNITMODE
 70
     0
  9
$VISRETAIN
 70
     0
  9
$PLINEGEN
 70
     0
  9
$PSLTSCALE
 70
     0
  0
ENDSEC
  0
SECTION
  2
TABLES
  0
TABLE
  2
VPORT
 70
     1
  0
VPORT
  2
*ACTIVE
 70
     0
 10
0.0
 20
0.0
 11
1.0
 21
1.0
 12
-20.592039911587388
 22
11.964000182751899
 13
0.0
 23
0.0
 14
10.0
 24
10.0
 15
10.0
 25
10.0
 16
0.0
 26
0.0
 36
1.0
 17
208.0863183022397
 27
155.7564666829762
 37
0.0
 40
344.62625130655709
 41
1.9089595375722539
 42
50.0
 43
0.0
 44
0.0
 50
0.0
 51
0.0
 71
     0
 72
   100
 73
     1
 74
     0
 75
     0
 76
     0
 77
     0
 78
     0
  0
ENDTAB
  0
TABLE
  2
LTYPE
 70
     8
  0
LTYPE
  2
CONTINUOUS
 70
     0
  3
Solid Line
 72
    65
 73
     0
 40
0.0
  0
LTYPE
  2
CENTER
 70
     0
  3
____ _ ____ _ ____ _ ____ _ ____ _ ____ _ ____
 72
    65
 73
     4
 40
2.0
 49
1.25
 49
-0.25
 49
0.25
 49
-0.25
  0
LTYPE
  2
HIDDEN
 70
     0
  3
Hidden __ __ __ __ __ __ __ __ __ __ __ __ __ _
 72
    65
 73
     2
 40
0.375
 49
0.25
 49
-0.125
  0
LTYPE
  2
PHANTOM2
 70
     0
  3
Phantom (.5x) ___ _ _ ___ _ _ ___ _ _ ___ _ _
 72
    65
 73
     6
 40
1.25
 49
0.625
 49
-0.125
 49
0.125
 49
-0.125
 49
0.125
 49
-0.125
  0
LTYPE
  2
AMCONSTR
 70
     0
  3
_______________________
 72
    65
 73
     2
 40
9999.0
 49
9999.0
 49
0.0
  0
LTYPE
  2
CENTER2
 70
     0
  3
Center (.5x) ___ _ ___ _ ___ _ ___ _ ___ _ ___
 72
    65
 73
     4
 40
1.125
 49
0.75
 49
-0.125
 49
0.125
 49
-0.125
  0
LTYPE
  2
HIDDEN2
 70
     0
  3
Hidden (.5x) _ _ _ _ _ _ _ _ _ _ _ _ _ _ _ _ _
 72
    65
 73
     2
 40
0.1875
 49
0.125
 49
-0.0625
  0
LTYPE
  2
AMZIGZAG2
 70
     0
  3
/\/-/\/-/\/-/\/-/\/-/\/
 72
    65
 73
     2
 40
0.4401
 49
0.0001
 49
-0.4400000000000001
  0
ENDTAB
  0
TABLE
  2
LAYER
 70
     2
  0
LAYER
  2
0
 70
     0
 62
     7
  6
CONTINUOUS
  0
LAYER
  2
1
 70
     0
 62
     1
  6
CENTER
  0
ENDTAB
  0
TABLE
  2
STYLE
 70
     3
  0
STYLE
  2
STANDARD
 70
     0
 40
0.0
 41
1.0
 50
0.0
 71
     0
 42
0.2
  3
SIMPLEX
  4
BIGFONT
  0
STYLE
  2

 70
     1
 40
0.0
 41
1.0
 50
0.0
 71
     0
 42
0.2
  3
ltypeshp.shx
  4

  0
STYLE
  2
STANDARD1
 70
     0
 40
0.0
 41
1.0
 50
0.0
 71
     0
 42
3.0
  3
txt
  4

  0
ENDTAB
  0
TABLE
  2
VIEW
 70
     0
  0
ENDTAB
  0
TABLE
  2
UCS
 70
     0
  0
ENDTAB
  0
TABLE
  2
APPID
 70
    37
  0
APPID
  2
ACAD
 70
     0
  0
APPID
  2
GENIUS_GENOBJ_13
 70
     0
  0
APPID
  2
GENIUS_GENODEF_13
 70
     0
  0
APPID
  2
GENIUS_GENOENT_13
 70
     0
  0
APPID
  2
GENIUS_GENOLIS_13
 70
     0
  0
APPID
  2
GENIUS_GENOREF_13
 70
     0
  0
APPID
  2
GENIUS_GENOBJ-N-TIT_13
 70
     0
  0
APPID
  2
GENIUS_GENTITLE_13
 70
     0
  0
APPID
  2
GENIUS_GENZVEED_13
 70
     0
  0
APPID
  2
GENIUS_GENOBJ-N-FIL_13
 70
     0
  0
APPID
  2
GENIUS_GENOBJ-N-CRS_13
 70
     0
  0
APPID
  2
GENIUS_GEFINERT_13
 70
     0
  0
APPID
  2
GENIUS_GENOBJ-F-INER_13
 70
     0
  0
APPID
  2
GENIUS_GENOBJ-N-ZOO_13
 70
     0
  0
APPID
  2
GENIUS_GENZOO_13
 70
     0
  0
APPID
  2
GENIUS_GENOBJ-F-TOL_13
 70
     0
  0
APPID
  2
GENIUS_GENOBJ-N-RSSYM_13
 70
     0
  0
APPID
  2
GENIUS_GENSYMENT_13
 70
     0
  0
APPID
  2
GENIUS_GENBH_13
 70
     0
  0
APPID
  2
GENIUS_GENOBJ-NBEHI-BHF_13
 70
     0
  0
APPID
  2
GENIUS_GENOBJ-NBEHI-BHB_13
 70
     0
  0
APPID
  2
GENIUS_GENOBJ-F-PART_13
 70
     0
  0
APPID
  2
GENIUS_GEFSTDP_13
 70
     0
  0
APPID
  2
GENIUS_GENOBJ-N-LEADER_13
 70
     0
  0
APPID
  2
GENIUS_GENDIM_13
 70
     0
  0
APPID
  2
GENIUS_GENDTOL_13
 70
     0
  0
APPID
  2
GENIUS_GE3DTOL_13
 70
     0
  0
APPID
  2
MCAD_NO_VIS
 70
     0
  0
APPID
  2
ACAD_TEMP_GRAPHIC
 70
     0
  0
APPID
  2
AD_DRAW
 70
     0
  0
APPID
  2
ACATTRIBSERVICES
 70
     0
  0
APPID
  2
ASURF_PCURVE_APPNAME
 70
     0
  0
APPID
  2
DESIGNERASSEMBLIES
 70
     0
  0
APPID
  2
ACADM_DIM_EDIT
 70
     0
  0
APPID
  2
AMDT_DM_ADJ
 70
     0
  0
APPID
  2
ACAD_MLEADERVER
 70
     0
  0
APPID
  2
ACAD_NAV_VCDISPLAY
 70
     0
  0
ENDTAB
  0
TABLE
  2
DIMSTYLE
 70
     1
  0
DIMSTYLE
  2
STANDARD
 70
     0
  3

  4

  5

  6

  7

 40
1.0
 41
0.18
 42
0.0625
 43
0.38
 44
0.18
 45
0.0
 46
0.0
 47
0.0
 48
0.0
140
0.18
141
0.09
142
0.0
143
25.399999999999999
144
1.0
145
0.0
146
1.0
147
0.09
 71
     0
 72
     0
 73
     1
 74
     1
 75
     0
 76
     0
 77
     0
 78
     0
170
     0
171
     2
172
     0
173
     0
174
     0
175
     0
176
     0
177
     0
178
     0
  0
ENDTAB
  0
ENDSEC
  0
SECTION
  2
BLOCKS
  0
BLOCK
  8
0
  2
$MODEL_SPACE
 70
     0
 10
0.0
 20
0.0
 30
0.0
  3
$MODEL_SPACE
  1

  0
ENDBLK
  5
4DC
  8
0
  0
BLOCK
 67
     1
  8
0
  2
$PAPER_SPACE
 70
     0
 10
0.0
 20
0.0
 30
0.0
  3
$PAPER_SPACE
  1

  0
ENDBLK
  5
4DA
 67
     1
  8
0
  0
BLOCK
  8
0
  2
STDGX5
 70
     0
 10
0.0
 20
0.0
 30
0.0
  3
STDGX5
  1

  0
ENDBLK
  5
4F
  8
0
  0
BLOCK
  8
0
  2
*U1
 70
     1
 10
0.0
 20
0.0
 30
0.0
  3
*U1
  1

  0
ENDBLK
  5
59E
  8
0
  0
ENDSEC
  0
SECTION
  2
ENTITIES
  0
INSERT
  5
DE
  8
0
  2
STDGX5
 10
0.0
 20
0.0
 30
0.0
  0
INSERT
  5
DF
  8
0
  2
STDGX5
 10
0.0
 20
0.0
 30
0.0
  0
INSERT
  5
15C
  8
0
  2
STDGX5
 10
275.0
 20
0.0
 30
0.0
  0
INSERT
  5
15D
  8
0
  2
STDGX5
 10
275.0
 20
0.0
 30
0.0
  0
LINE
  5
271
  8
0
 10
272.95493236815747
 20
166.02142503683339
 30
0.0
 11
272.95493236815747
 21
196.02142503683339
 31
0.0
  0
LINE
  5
272
  8
0
 10
222.9549323681575
 20
166.02142503683339
 30
0.0
 11
222.9549323681575
 21
196.02142503683339
 31
0.0
  0
LINE
  5
27E
  8
0
 10
222.9549323681575
 20
196.02142503683339
 30
0.0
 11
272.95493236815747
 21
196.02142503683339
 31
0.0
  0
LINE
  5
27F
  8
0
 10
173.21484634165981
 20
75.164282481439017
 30
0.0
 11
143.21484634165981
 21
75.164282481439017
 31
0.0
  0
LINE
  5
280
  8
0
 10
173.21484634165981
 20
125.164282481439
 30
0.0
 11
143.21484634165981
 21
125.164282481439
 31
0.0
  0
LINE
  5
290
  8
0
 10
173.21484634165981
 20
125.164282481439
 30
0.0
 11
173.21484634165981
 21
75.164282481439017
 31
0.0
  0
LINE
  5
294
  8
0
 10
161.3148463416326
 20
125.164282481439
 30
0.0
 11
161.3148463416326
 21
75.164282481438988
 31
0.0
  0
LINE
  5
295
  8
0
 10
155.11484634163261
 20
125.164282481439
 30
0.0
 11
155.11484634163261
 21
75.164282481439017
 31
0.0
  0
LINE
  5
296
  8
0
 10
143.21484634165981
 20
125.164282481439
 30
0.0
 11
143.21484634165981
 21
75.164282481439017
 31
0.0
  0
LINE
  5
297
  8
0
 10
222.9549323681575
 20
166.02142503683339
 30
0.0
 11
272.95493236815747
 21
166.02142503683339
 31
0.0
  0
INSERT
  5
314
  8
0
  2
STDGX5
 10
0.0
 20
0.0
 30
0.0
  0
INSERT
  5
315
  8
0
  2
STDGX5
 10
0.0
 20
0.0
 30
0.0
  0
INSERT
  5
316
  8
0
  2
STDGX5
 10
275.0
 20
0.0
 30
0.0
  0
INSERT
  5
317
  8
0
  2
STDGX5
 10
275.0
 20
0.0
 30
0.0
  0
LINE
  5
32A
  8
1
 10
217.9549323681575
 20
181.02142503683339
 30
0.0
 11
277.95493236815747
 21
181.02142503683339
 31
0.0
  0
LINE
  5
32B
  8
1
 10
158.21484634165981
 20
130.16428248143899
 30
0.0
 11
158.21484634165981
 21
70.164282481439017
 31
0.0
  0
CIRCLE
  5
3F4
  8
0
 10
158.21484634165981
 20
181.02142503683339
 30
0.0
 40
2.5
  0
ARC
  5
3FE
  8
0
 10
170.21484634165981
 20
193.02142503683339
 30
0.0
 40
3.0
 50
0.0
 51
90.000000000000028
  0
LINE
  5
3FF
  8
0
 10
173.21484634165981
 20
193.02142503683339
 30
0.0
 11
173.21484634165981
 21
169.02142503683339
 31
0.0
  0
ARC
  5
400
  8
0
 10
170.21484634165981
 20
169.02142503683339
 30
0.0
 40
3.0
 50
270.0
 51
0.0
  0
LINE
  5
401
  8
0
 10
170.21484634165981
 20
166.02142503683339
 30
0.0
 11
162.31484634165989
 21
166.02142503683339
 31
0.0
  0
ARC
  5
402
  8
0
 10
162.31484634165989
 20
167.02142503683339
 30
0.0
 40
1.0
 50
180.0
 51
270.0
  0
LINE
  5
403
  8
0
 10
161.31484634165989
 20
167.02142503683339
 30
0.0
 11
161.31484634165989
 21
168.22142503680061
 31
0.0
  0
ARC
  5
404
  8
0
 10
162.1148463416599
 20
168.2214250368007
 30
0.0
 40
0.8000000000000149
 50
90.000000000005087
 51
180.00000000000381
  0
LINE
  5
405
  8
0
 10
162.11484634165981
 20
169.02142503680071
 30
0.0
 11
163.5148463416599
 21
169.02142503680071
 31
0.0
  0
ARC
  5
406
  8
0
 10
163.51484634165979
 20
168.72142503680061
 30
0.0
 40
0.3000000000000851
 50
359.99999999998857
 51
89.999999999990806
  0
LINE
  5
407
  8
0
 10
163.81484634165989
 20
168.7214250368005
 30
0.0
 11
163.8148463416598
 21
167.8214250368006
 31
0.0
  0
ARC
  5
408
  8
0
 10
164.11484634165981
 20
167.8214250368006
 30
0.0
 40
0.3000000000000398
 50
179.99999999999449
 51
269.99999999999358
  0
LINE
  5
409
  8
0
 10
164.11484634165981
 20
167.52142503680059
 30
0.0
 11
165.36484634166001
 21
167.52142503680059
 31
0.0
  0
ARC
  5
40A
  8
0
 10
165.36484634166001
 20
168.52142503680059
 30
0.0
 40
1.0
 50
270.0
 51
0.0
  0
LINE
  5
40B
  8
0
 10
166.36484634166001
 20
168.52142503680059
 30
0.0
 11
166.36484634166001
 21
170.21457078731359
 31
0.0
  0
ARC
  5
40C
  8
0
 10
163.3648463416599
 20
170.2145707873137
 30
0.0
 40
3.000000000000191
 50
359.99999999999892
 51
44.999999999998401
  0
LINE
  5
40D
  8
0
 10
165.4861666852197
 20
172.33589113087339
 30
0.0
 11
162.9293124357327
 21
174.89274538036031
 31
0.0
  0
ARC
  5
40E
  8
0
 10
160.80799209217309
 20
172.77142503680071
 30
0.0
 40
2.9999999999999769
 50
44.999999999999517
 51
89.999999999999844
  0
LINE
  5
40F
  8
0
 10
160.80799209217309
 20
175.77142503680071
 30
0.0
 11
155.62170059111929
 21
175.77142503680059
 31
0.0
  0
ARC
  5
410
  8
0
 10
155.62170059111929
 20
172.77142503680071
 30
0.0
 40
2.999999999999873
 50
90.000000000000398
 51
135.00000000000011
  0
LINE
  5
411
  8
0
 10
153.5003802475598
 20
174.8927453803602
 30
0.0
 11
150.94352599807289
 21
172.33589113087351
 31
0.0
  0
ARC
  5
412
  8
0
 10
153.06484634163249
 20
170.2145707873139
 30
0.0
 40
2.9999999999998779
 50
134.9999999999994
 51
180.00000000000051
  0
LINE
  5
413
  8
0
 10
150.0648463416326
 20
170.2145707873139
 30
0.0
 11
150.0648463416326
 21
168.52142503680039
 31
0.0
  0
ARC
  5
414
  8
0
 10
151.0648463416326
 20
168.52142503680039
 30
0.0
 40
1.00000000000001
 50
180.0000000000006
 51
270.00000000000267
  0
LINE
  5
415
  8
0
 10
151.0648463416326
 20
167.52142503680039
 30
0.0
 11
152.31484634165989
 21
167.52142503680059
 31
0.0
  0
ARC
  5
416
  8
0
 10
152.31484634165989
 20
167.8214250368006
 30
0.0
 40
0.3000000000000096
 50
270.00000000000068
 51
359.99999999999932
  0
LINE
  5
417
  8
0
 10
152.6148463416599
 20
167.8214250368006
 30
0.0
 11
152.61484634165981
 21
168.7214250368005
 31
0.0
  0
ARC
  5
418
  8
0
 10
152.91484634165991
 20
168.7214250368005
 30
0.0
 40
0.3000000000000398
 50
90.0
 51
180.0
  0
LINE
  5
419
  8
0
 10
152.91484634165991
 20
169.02142503680059
 30
0.0
 11
154.31484634165989
 21
169.02142503680051
 31
0.0
  0
ARC
  5
41A
  8
0
 10
154.31484634165989
 20
168.2214250368005
 30
0.0
 40
0.7999999999999888
 50
359.9999999999992
 51
90.000000000001521
  0
LINE
  5
41B
  8
0
 10
155.1148463416599
 20
168.2214250368005
 30
0.0
 11
155.11484634165981
 21
167.02142503683339
 31
0.0
  0
ARC
  5
41C
  8
0
 10
154.11484634165981
 20
167.02142503683339
 30
0.0
 40
1.0
 50
270.0
 51
359.99999999999699
  0
LINE
  5
41D
  8
0
 10
154.11484634165981
 20
166.02142503683339
 30
0.0
 11
146.21484634165981
 21
166.02142503683339
 31
0.0
  0
ARC
  5
41E
  8
0
 10
146.21484634165981
 20
169.02142503683339
 30
0.0
 40
3.0
 50
180.0
 51
270.0
  0
ARC
  5
420
  8
0
 10
146.21484634165981
 20
193.02142503683339
 30
0.0
 40
3.0
 50
90.0
 51
180.0
  0
ARC
  5
42C
  8
0
 10
153.06484634165969
 20
191.8282792862986
 30
0.0
 40
2.9999999999999751
 50
179.9999999999994
 51
224.9999999999994
  0
LINE
  5
42D
  8
0
 10
150.94352599810011
 20
189.70695894273899
 30
0.0
 11
153.5003802475598
 21
187.1501046932795
 31
0.0
  0
ARC
  5
42E
  8
0
 10
155.62170059111929
 20
189.27142503683899
 30
0.0
 40
2.9999999999999551
 50
225.00000000000011
 51
270.0000000000004
  0
LINE
  5
42F
  8
0
 10
155.62170059111941
 20
186.2714250368391
 30
0.0
 11
160.80799209217309
 21
186.2714250368391
 31
0.0
  0
ARC
  5
430
  8
0
 10
160.80799209217309
 20
189.27142503683919
 30
0.0
 40
3.0000000000000711
 50
270.00000000000011
 51
314.99999999999977
  0
LINE
  5
431
  8
0
 10
162.92931243573281
 20
187.1501046932795
 30
0.0
 11
165.4861666852469
 21
189.7069589427937
 31
0.0
  0
ARC
  5
432
  8
0
 10
163.3648463416873
 20
191.82827928635331
 30
0.0
 40
2.9999999999998721
 50
314.9999999999996
 51
359.9999999999996
  0
ARC
  5
439
  8
0
 10
149.96484634165421
 20
183.61457078734671
 30
0.0
 40
3.0000000000000071
 50
359.99999999999949
 51
44.999999999999282
  0
LINE
  5
43A
  8
0
 10
152.08616668521381
 20
185.73589113090631
 30
0.0
 11
149.52931243572689
 21
188.29274538039331
 31
0.0
  0
ARC
  5
43B
  8
0
 10
147.4079920921674
 20
186.17142503683371
 30
0.0
 40
2.9999999999998401
 50
45.000000000002949
 51
90.000000000002046
  0
ARC
  5
451
  8
0
 10
147.40799209216729
 20
175.87142503680619
 30
0.0
 40
3.0000000000000262
 50
270.00000000000028
 51
315.00000000000091
  0
LINE
  5
452
  8
0
 10
149.52931243572701
 20
173.75010469324661
 30
0.0
 11
152.08616668521381
 21
176.3069589427333
 31
0.0
  0
ARC
  5
453
  8
0
 10
149.96484634165421
 20
178.42827928629299
 30
0.0
 40
2.9999999999999991
 50
314.99999999999989
 51
0.0000000000002398
  0
LINE
  5
454
  8
0
 10
152.96484634165421
 20
178.42827928629299
 30
0.0
 11
152.96484634165421
 21
183.61457078734671
 31
0.0
  0
ARC
  5
455
  8
0
 10
172.11446547364881
 20
178.02142503680619
 30
0.0
 40
0.099999999999983
 50
269.99999999999022
 51
359.99999999998983
  0
LINE
  5
456
  8
0
 10
172.11446547364869
 20
177.9214250368062
 30
0.0
 11
171.0148463416655
 21
177.92142503680631
 31
0.0
  0
ARC
  5
457
  8
0
 10
171.0148463416655
 20
177.12142503680619
 30
0.0
 40
0.8000000000000184
 50
90.000000000000483
 51
179.99999999999869
  0
LINE
  5
458
  8
0
 10
170.21484634166549
 20
177.1214250368063
 30
0.0
 11
170.21484634166549
 21
175.72142503680621
 31
0.0
  0
ARC
  5
459
  8
0
 10
170.51484634166539
 20
175.72142503680621
 30
0.0
 40
0.2999999999999794
 50
180.00000000000199
 51
270.00000000000409
  0
LINE
  5
45A
  8
0
 10
170.5148463416655
 20
175.4214250368062
 30
0.0
 11
171.41484634166551
 21
175.4214250368062
 31
0.0
  0
ARC
  5
45B
  8
0
 10
171.41484634166551
 20
175.12142503680619
 30
0.0
 40
0.29999999999999
 50
0.0000000000122302
 51
90.000000000010857
  0
LINE
  5
45C
  8
0
 10
171.71484634166549
 20
175.1214250368063
 30
0.0
 11
171.71484634166549
 21
173.8714250368063
 31
0.0
  0
ARC
  5
45D
  8
0
 10
170.71484634166549
 20
173.8714250368063
 30
0.0
 40
1.0
 50
270.0
 51
0.0
  0
LINE
  5
45E
  8
0
 10
170.71484634166549
 20
172.8714250368063
 30
0.0
 11
169.0217005911523
 21
172.87142503680619
 31
0.0
  0
ARC
  5
45F
  8
0
 10
169.0217005911523
 20
175.8714250368061
 30
0.0
 40
2.9999999999999458
 50
225.0
 51
270.00000000000068
  0
LINE
  5
460
  8
0
 10
166.90038024759269
 20
173.7501046932465
 30
0.0
 11
164.34352599810589
 21
176.30695894273339
 31
0.0
  0
ARC
  5
461
  8
0
 10
166.46484634166549
 20
178.42827928629299
 30
0.0
 40
2.9999999999999551
 50
179.9999999999994
 51
224.9999999999998
  0
LINE
  5
462
  8
0
 10
163.46484634166549
 20
178.42827928629299
 30
0.0
 11
163.46484634166549
 21
183.61457078734671
 31
0.0
  0
ARC
  5
463
  8
0
 10
166.46484634166549
 20
183.61457078734671
 30
0.0
 40
2.999999999999952
 50
134.99999999999989
 51
179.99999999999969
  0
LINE
  5
464
  8
0
 10
164.34352599810589
 20
185.73589113090631
 30
0.0
 11
166.90038024759281
 21
188.29274538039331
 31
0.0
  0
ARC
  5
465
  8
0
 10
169.02170059115241
 20
186.17142503683371
 30
0.0
 40
2.9999999999999432
 50
90.000000000001435
 51
135.0000000000006
  0
LINE
  5
466
  8
0
 10
169.02170059115241
 20
189.17142503683371
 30
0.0
 11
170.71484634166549
 21
189.17142503683351
 31
0.0
  0
ARC
  5
467
  8
0
 10
170.71484634166549
 20
188.17142503683351
 30
0.0
 40
0.9999999999999928
 50
359.9999999999996
 51
90.000000000000327
  0
LINE
  5
468
  8
0
 10
171.71484634166549
 20
188.17142503683351
 30
0.0
 11
171.71484634166561
 21
186.9214250368062
 31
0.0
  0
ARC
  5
469
  8
0
 10
171.41484634166559
 20
186.92142503680631
 30
0.0
 40
0.3000000000000043
 50
269.9999999999946
 51
359.99999999999449
  0
LINE
  5
46A
  8
0
 10
171.41484634166551
 20
186.6214250368063
 30
0.0
 11
170.51484634166559
 21
186.62142503680619
 31
0.0
  0
ARC
  5
46B
  8
0
 10
170.51484634166559
 20
186.32142503680609
 30
0.0
 40
0.3000000000000611
 50
89.999999999994586
 51
179.99999999999449
  0
LINE
  5
46C
  8
0
 10
170.21484634166549
 20
186.32142503680609
 30
0.0
 11
170.21484634166561
 21
184.9214250368062
 31
0.0
  0
ARC
  5
46D
  8
0
 10
171.01484634166559
 20
184.92142503680631
 30
0.0
 40
0.8000000000000259
 50
180.00000000000179
 51
270.0000000000021
  0
LINE
  5
46E
  8
0
 10
171.0148463416657
 20
184.12142503680619
 30
0.0
 11
172.11446547364869
 21
184.1214250368063
 31
0.0
  0
ARC
  5
46F
  8
0
 10
172.11446547364869
 20
184.02142503680619
 30
0.0
 40
0.1000000000000121
 50
359.99999999999392
 51
89.999999999993506
  0
LINE
  5
470
  8
0
 10
172.21446547364869
 20
184.02142503680619
 30
0.0
 11
172.21446547364869
 21
178.02142503680619
 31
0.0
  0
LINE
  5
471
  8
0
 10
171.71484634166001
 20
171.07142503680609
 30
0.0
 11
171.71484634165989
 21
169.02142503680611
 31
0.0
  0
ARC
  5
472
  8
0
 10
170.21484634165981
 20
169.02142503680619
 30
0.0
 40
1.5000000000000151
 50
270.00000000000063
 51
359.99999999999937
  0
LINE
  5
473
  8
0
 10
170.21484634165981
 20
167.52142503680611
 30
0.0
 11
168.1648463416573
 21
167.52142503680611
 31
0.0
  0
ARC
  5
474
  8
0
 10
168.16484634165721
 20
167.82142503680609
 30
0.0
 40
0.2999999999999825
 50
179.999999999875
 51
270.00000000000551
  0
LINE
  5
475
  8
0
 10
167.86484634165731
 20
167.8214250368068
 30
0.0
 11
167.8648463416645
 21
171.07142503680689
 31
0.0
  0
ARC
  5
476
  8
0
 10
168.16484634166449
 20
171.07142503680629
 30
0.0
 40
0.3000000000000034
 50
90.000000000009337
 51
179.99999999988211
  0
LINE
  5
477
  8
0
 10
168.1648463416644
 20
171.3714250368063
 30
0.0
 11
171.41484634165991
 21
171.3714250368061
 31
0.0
  0
ARC
  5
478
  8
0
 10
171.41484634165991
 20
171.07142503680609
 30
0.0
 40
0.3000000000000682
 50
0.0
 51
90.0
  0
ARC
  5
479
  8
0
 10
146.21484634163249
 20
169.02142503683351
 30
0.0
 40
1.500000000000014
 50
180.0000000000006
 51
269.99999999999949
  0
LINE
  5
47A
  8
0
 10
146.21484634163249
 20
167.52142503683339
 30
0.0
 11
148.26484634163251
 21
167.52142503683339
 31
0.0
  0
ARC
  5
47B
  8
0
 10
148.26484634163251
 20
167.82142503683349
 30
0.0
 40
0.3000000000000682
 50
270.0
 51
0.0
  0
LINE
  5
47C
  8
0
 10
148.5648463416326
 20
167.82142503683349
 30
0.0
 11
148.5648463416326
 21
171.0714250368288
 31
0.0
  0
ARC
  5
47D
  8
0
 10
148.26484634163251
 20
171.0714250368288
 30
0.0
 40
0.3000000000000611
 50
359.99999999999898
 51
89.999999999871065
  0
LINE
  5
47E
  8
0
 10
148.26484634163319
 20
171.3714250368289
 30
0.0
 11
145.0148463416333
 21
171.37142503683609
 31
0.0
  0
ARC
  5
47F
  8
0
 10
145.01484634163259
 20
171.0714250368361
 30
0.0
 40
0.2999999999999874
 50
89.999999999865608
 51
179.99999999999369
  0
LINE
  5
480
  8
0
 10
144.71484634163261
 20
171.0714250368361
 30
0.0
 11
144.71484634163261
 21
169.02142503683339
 31
0.0
  0
ARC
  5
481
  8
0
 10
170.21484634168709
 20
193.02142503683339
 30
0.0
 40
1.5000000000000151
 50
0.0000000000005596
 51
89.999999999999446
  0
LINE
  5
482
  8
0
 10
170.21484634168709
 20
194.52142503683339
 30
0.0
 11
168.16484634168719
 21
194.52142503683339
 31
0.0
  0
ARC
  5
483
  8
0
 10
168.16484634168719
 20
194.22142503683349
 30
0.0
 40
0.2999999999999474
 50
89.999999999998963
 51
180.00000000000131
  0
LINE
  5
484
  8
0
 10
167.86484634168721
 20
194.22142503683349
 30
0.0
 11
167.86484634168721
 21
190.97142503683801
 31
0.0
  0
ARC
  5
485
  8
0
 10
168.16484634168719
 20
190.97142503683801
 30
0.0
 40
0.2999999999999501
 50
179.99999999999861
 51
269.99999999987051
  0
LINE
  5
486
  8
0
 10
168.16484634168651
 20
190.67142503683809
 30
0.0
 11
171.41484634168651
 21
190.67142503683081
 31
0.0
  0
ARC
  5
487
  8
0
 10
171.41484634168719
 20
190.97142503683079
 30
0.0
 40
0.29999999999999
 50
269.99999999986522
 51
359.99999999999329
  0
LINE
  5
488
  8
0
 10
171.71484634168721
 20
190.97142503683079
 30
0.0
 11
171.71484634168709
 21
193.02142503683339
 31
0.0
  0
LINE
  5
489
  8
0
 10
144.71484634165981
 20
193.02142503686071
 30
0.0
 11
144.71484634165989
 21
190.97142503686069
 31
0.0
  0
ARC
  5
48A
  8
0
 10
145.0148463416599
 20
190.97142503686081
 30
0.0
 40
0.2999999999999829
 50
180.0000000000054
 51
270.00000000000551
  0
LINE
  5
48B
  8
0
 10
145.0148463416599
 20
190.6714250368608
 30
0.0
 11
148.26484634165519
 21
190.6714250368608
 31
0.0
  0
ARC
  5
48C
  8
0
 10
148.2648463416553
 20
190.97142503686081
 30
0.0
 40
0.2999999999999794
 50
269.99999999999392
 51
359.999999999865
  0
LINE
  5
48D
  8
0
 10
148.5648463416552
 20
190.9714250368601
 30
0.0
 11
148.56484634166259
 21
194.2214250368601
 31
0.0
  0
ARC
  5
48E
  8
0
 10
148.2648463416626
 20
194.22142503686069
 30
0.0
 40
0.3000000000000185
 50
359.99999999988188
 51
90.000000000009521
  0
LINE
  5
48F
  8
0
 10
148.26484634166249
 20
194.52142503686071
 30
0.0
 11
146.21484634165981
 21
194.52142503686071
 31
0.0
  0
ARC
  5
490
  8
0
 10
146.21484634165981
 20
193.02142503686071
 30
0.0
 40
1.500000000000014
 50
90.000000000000554
 51
179.9999999999994
  0
LINE
  5
491
  8
1
 10
158.21484634165981
 20
201.02142503683339
 30
0.0
 11
158.21484634165981
 21
161.02142503683339
 31
0.0
  0
LINE
  5
492
  8
1
 10
178.21484634165981
 20
181.02142503683339
 30
0.0
 11
138.21484634165981
 21
181.02142503683339
 31
0.0
  0
LINE
  5
5CA
  8
0
 10
161.21484634163269
 20
195.02104416882219
 30
0.0
 11
155.21484634163261
 21
195.02104416882219
 31
0.0
  0
LINE
  5
5CB
  8
0
 10
154.31484634163269
 20
193.0214250368391
 30
0.0
 11
152.9148463416326
 21
193.02142503683899
 31
0.0
  0
LINE
  5
5CC
  8
0
 10
150.06484634163269
 20
193.5214250368391
 30
0.0
 11
150.0648463416326
 21
191.82827928632591
 31
0.0
  0
ARC
  5
5CD
  8
0
 10
151.0648463416328
 20
193.5214250368391
 30
0.0
 40
1.0
 50
90.0
 51
180.0
  0
LINE
  5
5CE
  8
0
 10
152.31484634163269
 20
194.5214250368391
 30
0.0
 11
151.06484634163269
 21
194.5214250368391
 31
0.0
  0
ARC
  5
5CF
  8
0
 10
152.3148463416326
 20
194.22142503683901
 30
0.0
 40
0.3000000000000647
 50
359.99999999999392
 51
89.999999999992525
  0
LINE
  5
5D0
  8
0
 10
152.61484634163261
 20
193.321425036839
 30
0.0
 11
152.6148463416327
 21
194.22142503683901
 31
0.0
  0
ARC
  5
5D1
  8
0
 10
152.9148463416326
 20
193.321425036839
 30
0.0
 40
0.2999999999999971
 50
179.9999999999979
 51
270.00000000000028
  0
ARC
  5
5D2
  8
0
 10
154.31484634163269
 20
193.821425036839
 30
0.0
 40
0.7999999999999777
 50
270.00000000000352
 51
0.0000000000015139
  0
LINE
  5
5D3
  8
0
 10
155.1148463416327
 20
194.92104416882219
 30
0.0
 11
155.1148463416327
 21
193.82142503683909
 31
0.0
  0
ARC
  5
5D4
  8
0
 10
155.21484634163269
 20
194.92104416882219
 30
0.0
 40
0.0999999999999943
 50
89.999999999997968
 51
180.0
  0
LINE
  5
5D5
  8
0
 10
165.3648463416599
 20
194.5214250368391
 30
0.0
 11
164.11484634163261
 21
194.5214250368391
 31
0.0
  0
ARC
  5
5D6
  8
0
 10
161.21484634163269
 20
194.92104416882219
 30
0.0
 40
0.0999999999999979
 50
0.0000000000020356
 51
90.000000000002046
  0
LINE
  5
5D7
  8
0
 10
161.31484634163269
 20
193.8214250368392
 30
0.0
 11
161.31484634163269
 21
194.92104416882219
 31
0.0
  0
ARC
  5
5D8
  8
0
 10
162.1148463416327
 20
193.82142503683909
 30
0.0
 40
0.7999999999999865
 50
179.99999999999491
 51
269.99999999999523
  0
LINE
  5
5D9
  8
0
 10
163.51484634163251
 20
193.0214250368391
 30
0.0
 11
162.11484634163261
 21
193.0214250368391
 31
0.0
  0
ARC
  5
5DA
  8
0
 10
163.51484634163259
 20
193.32142503683909
 30
0.0
 40
0.3000000000000398
 50
270.00000000000131
 51
0.0000000000013613
  0
LINE
  5
5DB
  8
0
 10
163.81484634163269
 20
194.22142503683909
 30
0.0
 11
163.8148463416326
 21
193.32142503683909
 31
0.0
  0
ARC
  5
5DC
  8
0
 10
164.1148463416327
 20
194.22142503683909
 30
0.0
 40
0.2999999999999545
 50
90.000000000004064
 51
180.00000000000401
  0
LINE
  5
5DD
  8
0
 10
166.3648463416599
 20
191.82827928632591
 30
0.0
 11
166.3648463416599
 21
193.5214250368391
 31
0.0
  0
ARC
  5
5DE
  8
0
 10
165.36484634166001
 20
193.5214250368391
 30
0.0
 40
1.0
 50
359.99999999999937
 51
90.0
  0
LINE
  5
5DF
  8
0
 10
146.21484634165989
 20
196.02142503683339
 30
0.0
 11
170.21484634165989
 21
196.02142503683339
 31
0.0
  0
ARC
  5
5E0
  8
0
 10
145.7148463416269
 20
188.1714250368606
 30
0.0
 40
1.00000000000001
 50
90.000000000000625
 51
180.00000000000259
  0
LINE
  5
5E1
  8
0
 10
147.40799209214029
 20
189.1714250368606
 30
0.0
 11
145.7148463416269
 21
189.1714250368606
 31
0.0
  0
ARC
  5
5E2
  8
0
 10
144.21484634165989
 20
185.12142503683339
 30
0.0
 40
1.0
 50
180.0
 51
269.99999999999699
  0
ARC
  5
5E3
  8
0
 10
145.414846341627
 20
184.92142503683331
 30
0.0
 40
0.7999999999999888
 50
269.9999999999992
 51
0.0000000000015139
  0
LINE
  5
5E4
  8
0
 10
146.21484634162701
 20
186.32142503683329
 30
0.0
 11
146.2148463416269
 21
184.92142503683331
 31
0.0
  0
ARC
  5
5E5
  8
0
 10
145.914846341627
 20
186.32142503683329
 30
0.0
 40
0.3000000000000398
 50
0.0
 51
90.0
  0
LINE
  5
5E6
  8
0
 10
145.01484634162711
 20
186.6214250368333
 30
0.0
 11
145.914846341627
 21
186.62142503683339
 31
0.0
  0
ARC
  5
5E7
  8
0
 10
145.01484634162711
 20
186.92142503683331
 30
0.0
 40
0.3000000000000096
 50
180.00000000000071
 51
269.99999999999932
  0
LINE
  5
5E8
  8
0
 10
144.7148463416269
 20
188.1714250368606
 30
0.0
 11
144.71484634162709
 21
186.92142503683331
 31
0.0
  0
LINE
  5
5E9
  8
0
 10
145.41484634162691
 20
184.1214250368333
 30
0.0
 11
144.21484634165981
 21
184.12142503683339
 31
0.0
  0
ARC
  5
5EA
  8
0
 10
145.71484634162701
 20
173.87142503683319
 30
0.0
 40
1.0
 50
180.0
 51
270.0
  0
ARC
  5
5EB
  8
0
 10
144.21484634165989
 20
176.92142503683331
 30
0.0
 40
1.0
 50
90.000000000000057
 51
180.0
  0
ARC
  5
5EC
  8
0
 10
145.4148463416272
 20
177.1214250368333
 30
0.0
 40
0.8000000000000149
 50
0.0000000000051016
 51
90.000000000003837
  0
LINE
  5
5ED
  8
0
 10
144.21484634165989
 20
177.92142503683331
 30
0.0
 11
145.41484634162711
 21
177.92142503683331
 31
0.0
  0
LINE
  5
5EE
  8
0
 10
144.71484634162701
 20
175.12142503683339
 30
0.0
 11
144.71484634162701
 21
173.87142503683319
 31
0.0
  0
ARC
  5
5EF
  8
0
 10
145.01484634162711
 20
175.12142503683339
 30
0.0
 40
0.3000000000000398
 50
89.999999999994557
 51
179.99999999999361
  0
LINE
  5
5F0
  8
0
 10
145.91484634162691
 20
175.42142503683331
 30
0.0
 11
145.01484634162711
 21
175.4214250368334
 31
0.0
  0
ARC
  5
5F1
  8
0
 10
145.914846341627
 20
175.72142503683341
 30
0.0
 40
0.3000000000000851
 50
269.99999999998857
 51
359.99999999999079
  0
LINE
  5
5F2
  8
0
 10
146.21484634162709
 20
177.12142503683339
 30
0.0
 11
146.21484634162709
 21
175.7214250368333
 31
0.0
  0
LINE
  5
5F3
  8
0
 10
145.71484634162701
 20
172.87142503683319
 30
0.0
 11
147.40799209214009
 21
172.87142503683319
 31
0.0
  0
LINE
  5
5F4
  8
0
 10
143.21484634165989
 20
169.02142503683339
 30
0.0
 11
143.21484634165989
 21
176.92142503683331
 31
0.0
  0
LINE
  5
5F5
  8
0
 10
143.21484634165989
 20
185.12142503683339
 30
0.0
 11
143.21484634165989
 21
193.02142503683339
 31
0.0
  0
TEXT
  5
6A5
  8
0
 62
     3
 10
0.0
 20
0.0
 30
0.0
 40
10.0
  1
L6-SPL3030N2
  7
STANDARD1
  0
ENDSEC
  0
EOF
