  0
SECTION
  2
HEADER
  9
$ACADVER
  1
AC1009
  9
$INSBASE
 10
7.37824081052986
 20
15.90864369846679
 30
0.0
  9
$EXTMIN
 10
0.0
 20
-2.960436562073669
 30
0.0
  9
$EXTMAX
 10
253.6451042210432
 20
212.81117099763009
 30
0.0
  9
$LIMMIN
 10
0.0
 20
0.0
  9
$LIMMAX
 10
385.0
 20
270.0
  9
$ORTHOMODE
 70
     0
  9
$REGENMODE
 70
     1
  9
$FILLMODE
 70
     1
  9
$QTEXTMODE
 70
     0
  9
$MIRRTEXT
 70
     0
  9
$DRAGMODE
 70
     2
  9
$LTSCALE
 40
10.0
  9
$OSMODE
 70
  3071
  9
$ATTMODE
 70
     1
  9
$TEXTSIZE
 40
4.0
  9
$TRACEWID
 40
0.05
  9
$TEXTSTYLE
  7
STANDARD
  9
$CLAYER
  8
0
  9
$CELTYPE
  6
BYLAYER
  9
$CECOLOR
 62
   256
  9
$DIMSCALE
 40
1.0
  9
$DIMASZ
 40
3.0
  9
$DIMEXO
 40
2.0
  9
$DIMDLI
 40
10.0
  9
$DIMRND
 40
0.0
  9
$DIMDLE
 40
0.0
  9
$DIMEXE
 40
2.0
  9
$DIMTP
 40
0.0
  9
$DIMTM
 40
0.0
  9
$DIMTXT
 40
3.0
  9
$DIMCEN
 40
0.09
  9
$DIMTSZ
 40
0.0
  9
$DIMTOL
 70
     0
  9
$DIMLIM
 70
     0
  9
$DIMTIH
 70
     0
  9
$DIMTOH
 70
     0
  9
$DIMSE1
 70
     0
  9
$DIMSE2
 70
     0
  9
$DIMTAD
 70
     1
  9
$DIMZIN
 70
     0
  9
$DIMBLK
  1

  9
$DIMASO
 70
     0
  9
$DIMSHO
 70
     0
  9
$DIMPOST
  1

  9
$DIMAPOST
  1

  9
$DIMALT
 70
     0
  9
$DIMALTD
 70
     2
  9
$DIMALTF
 40
25.399999999999999
  9
$DIMLFAC
 40
1.0
  9
$DIMTOFL
 70
     1
  9
$DIMTVP
 40
1.6000000000000001
  9
$DIMTIX
 70
     1
  9
$DIMSOXD
 70
     0
  9
$DIMSAH
 70
     0
  9
$DIMBLK1
  1

  9
$DIMBLK2
  1

  9
$DIMSTYLE
  2
STANDARD
  9
$DIMCLRD
 70
     0
  9
$DIMCLRE
 70
     0
  9
$DIMCLRT
 70
     0
  9
$DIMTFAC
 40
1.0
  9
$DIMGAP
 40
1.0
  9
$LUNITS
 70
     2
  9
$LUPREC
 70
     2
  9
$SKETCHINC
 40
0.1
  9
$FILLETRAD
 40
0.0
  9
$AUNITS
 70
     0
  9
$AUPREC
 70
     2
  9
$MENU
  1
E:\r13\win\SUPPORT\ACAD
  9
$ELEVATION
 40
0.0
  9
$PELEVATION
 40
0.0
  9
$THICKNESS
 40
0.0
  9
$LIMCHECK
 70
     0
  9
$BLIPMODE
 70
     0
  9
$CHAMFERA
 40
1.0
  9
$CHAMFERB
 40
1.0
  9
$SKPOLY
 70
     0
  9
$TDCREATE
 40
2450252.6853964119
  9
$TDUPDATE
 40
2456597.5626061228
  9
$TDINDWG
 40
0.0948575926
  9
$TDUSRTIMER
 40
0.0948575926
  9
$USRTIMER
 70
     1
  9
$ANGBASE
 50
0.0
  9
$ANGDIR
 70
     0
  9
$PDMODE
 70
     0
  9
$PDSIZE
 40
0.0
  9
$PLINEWID
 40
0.0
  9
$COORDS
 70
     1
  9
$SPLFRAME
 70
     0
  9
$SPLINETYPE
 70
     6
  9
$SPLINESEGS
 70
     8
  9
$ATTDIA
 70
     0
  9
$ATTREQ
 70
     1
  9
$HANDLING
 70
     1
  9
$HANDSEED
  5
CD6
  9
$SURFTAB1
 70
     6
  9
$SURFTAB2
 70
     6
  9
$SURFTYPE
 70
     6
  9
$SURFU
 70
     6
  9
$SURFV
 70
     6
  9
$UCSNAME
  2

  9
$UCSORG
 10
0.0
 20
0.0
 30
0.0
  9
$UCSXDIR
 10
1.0
 20
0.0
 30
0.0
  9
$UCSYDIR
 10
0.0
 20
1.0
 30
0.0
  9
$PUCSNAME
  2

  9
$PUCSORG
 10
0.0
 20
0.0
 30
0.0
  9
$PUCSXDIR
 10
1.0
 20
0.0
 30
0.0
  9
$PUCSYDIR
 10
0.0
 20
1.0
 30
0.0
  9
$USERI1
 70
     3
  9
$USERI2
 70
     1
  9
$USERI3
 70
     0
  9
$USERI4
 70
     1
  9
$USERI5
 70
     0
  9
$USERR1
 40
1.0
  9
$USERR2
 40
3.0
  9
$USERR3
 40
3.0
  9
$USERR4
 40
3.0
  9
$USERR5
 40
10.0
  9
$WORLDVIEW
 70
     1
  9
$SHADEDGE
 70
     3
  9
$SHADEDIF
 70
    70
  9
$TILEMODE
 70
     1
  9
$MAXACTVP
 70
    16
  9
$PLIMCHECK
 70
     0
  9
$PEXTMIN
 10
1.0000000000000000E+020
 20
1.0000000000000000E+020
 30
1.0000000000000000E+020
  9
$PEXTMAX
 10
-1.0000000000000000E+020
 20
-1.0000000000000000E+020
 30
-1.0000000000000000E+020
  9
$PLIMMIN
 10
0.0
 20
0.0
  9
$PLIMMAX
 10
12.0
 20
9.0
  9
$UNITMODE
 70
     0
  9
$VISRETAIN
 70
     0
  9
$PLINEGEN
 70
     0
  9
$PSLTSCALE
 70
     0
  0
ENDSEC
  0
SECTION
  2
TABLES
  0
TABLE
  2
VPORT
 70
     1
  0
VPORT
  2
*ACTIVE
 70
     0
 10
0.0
 20
0.0
 11
1.0
 21
1.0
 12
192.49412581440311
 22
162.8616388594717
 13
0.0
 23
0.0
 14
5.0
 24
5.0
 15
5.0
 25
5.0
 16
0.0
 26
0.0
 36
1.0
 17
0.0
 27
0.0
 37
0.0
 40
334.81001162774987
 41
1.9089595375722539
 42
50.0
 43
0.0
 44
0.0
 50
0.0
 51
0.0
 71
     0
 72
  1000
 73
     1
 74
     0
 75
     0
 76
     0
 77
     0
 78
     1
  0
ENDTAB
  0
TABLE
  2
LTYPE
 70
     3
  0
LTYPE
  2
CONTINUOUS
 70
     0
  3
Solid Line
 72
    65
 73
     0
 40
0.0
  0
LTYPE
  2
CENTER
 70
     0
  3
____ _ ____ _ ____ _ ____ _ ____ _ ____ _ ____
 72
    65
 73
     4
 40
2.0
 49
1.25
 49
-0.25
 49
0.25
 49
-0.25
  0
LTYPE
  2
PHANTOM2
 70
     0
  3
___ _ _ ___ _ _ ___ _ _ ___ _ _
 72
    65
 73
     6
 40
1.25
 49
0.625
 49
-0.125
 49
0.125
 49
-0.125
 49
0.125
 49
-0.125
  0
ENDTAB
  0
TABLE
  2
LAYER
 70
     2
  0
LAYER
  2
0
 70
     0
 62
     7
  6
CONTINUOUS
  0
LAYER
  2
1
 70
     0
 62
     1
  6
CENTER
  0
ENDTAB
  0
TABLE
  2
STYLE
 70
     2
  0
STYLE
  2
STANDARD
 70
     0
 40
0.0
 41
1.0
 50
0.0
 71
     0
 42
4.0
  3
simplex
  4
bigfont
  0
STYLE
  2
STANDARD1
 70
     0
 40
0.0
 41
1.0
 50
0.0
 71
     0
 42
3.0
  3
txt
  4

  0
ENDTAB
  0
TABLE
  2
VIEW
 70
     0
  0
ENDTAB
  0
TABLE
  2
UCS
 70
     0
  0
ENDTAB
  0
TABLE
  2
APPID
 70
     3
  0
APPID
  2
ACAD
 70
     0
  0
APPID
  2
ACAD_MLEADERVER
 70
     0
  0
APPID
  2
ACAD_NAV_VCDISPLAY
 70
     0
  0
ENDTAB
  0
TABLE
  2
DIMSTYLE
 70
     1
  0
DIMSTYLE
  2
STANDARD
 70
     0
  3

  4

  5

  6

  7

 40
1.0
 41
0.18
 42
0.0625
 43
0.38
 44
0.18
 45
0.0
 46
0.0
 47
0.0
 48
0.0
140
0.18
141
0.09
142
0.0
143
25.399999999999999
144
1.0
145
0.0
146
1.0
147
0.09
 71
     0
 72
     0
 73
     1
 74
     1
 75
     0
 76
     0
 77
     0
 78
     0
170
     0
171
     2
172
     0
173
     0
174
     0
175
     0
176
     0
177
     0
178
     0
  0
ENDTAB
  0
ENDSEC
  0
SECTION
  2
BLOCKS
  0
BLOCK
  8
0
  2
$MODEL_SPACE
 70
     0
 10
0.0
 20
0.0
 30
0.0
  3
$MODEL_SPACE
  1

  0
ENDBLK
  5
B8B
  8
0
  0
BLOCK
 67
     1
  8
0
  2
$PAPER_SPACE
 70
     0
 10
0.0
 20
0.0
 30
0.0
  3
$PAPER_SPACE
  1

  0
ENDBLK
  5
B89
 67
     1
  8
0
  0
ENDSEC
  0
SECTION
  2
ENTITIES
  0
LINE
  5
A04
  8
1
 10
120.91382797427841
 20
152.81117099763009
 30
0.0
 11
120.91382797427841
 21
212.81117099763009
 31
0.0
  0
LINE
  5
A05
  8
1
 10
150.91382797427829
 20
152.81117099763009
 30
0.0
 11
150.91382797427829
 21
212.81117099763009
 31
0.0
  0
LINE
  5
A06
  8
0
 10
165.91382797427829
 20
207.81117099763009
 30
0.0
 11
165.91382797427829
 21
157.81117099763009
 31
0.0
  0
LINE
  5
A07
  8
0
 10
154.01382797430639
 20
157.81117099763009
 30
0.0
 11
154.01382797430639
 21
207.81117099763009
 31
0.0
  0
LINE
  5
A08
  8
0
 10
147.81382797430541
 20
157.81117099763009
 30
0.0
 11
147.81382797430541
 21
207.81117099763009
 31
0.0
  0
LINE
  5
A09
  8
0
 10
124.01382797430649
 20
157.81117099763009
 30
0.0
 11
124.01382797430649
 21
207.81117099763009
 31
0.0
  0
LINE
  5
A0A
  8
0
 10
117.8138279743055
 20
157.81117099763009
 30
0.0
 11
117.8138279743055
 21
207.81117099763009
 31
0.0
  0
LINE
  5
A0B
  8
0
 10
105.91382797427831
 20
157.81117099763009
 30
0.0
 11
105.91382797427831
 21
207.81117099763009
 31
0.0
  0
LINE
  5
A0C
  8
0
 10
162.91382797427829
 20
130.0012296653336
 30
0.0
 11
155.01382797430639
 21
130.0012296653336
 31
0.0
  0
LINE
  5
A0D
  8
0
 10
157.04250763075149
 20
119.7156957594065
 30
0.0
 11
159.5993618802386
 21
122.2725500088935
 31
0.0
  0
LINE
  5
A0F
  8
0
 10
159.59936188023829
 20
107.7299093217468
 30
0.0
 11
157.04250763075149
 21
110.28676357123349
 31
0.0
  0
LINE
  5
A10
  8
0
 10
155.01382797427911
 20
100.0012296653336
 30
0.0
 11
162.91382797427829
 21
100.0012296653336
 31
0.0
  0
LINE
  5
A14
  8
1
 10
170.91382797427829
 20
115.0012296653336
 30
0.0
 11
100.91382797427831
 21
115.0012296653336
 31
0.0
  0
LINE
  5
A15
  8
0
 10
165.91382797427829
 20
157.81117099763009
 30
0.0
 11
105.91382797427831
 21
157.81117099763009
 31
0.0
  0
LINE
  5
A16
  8
1
 10
120.91382797427841
 20
135.0012296653336
 30
0.0
 11
120.91382797427841
 21
95.001229665333653
 31
0.0
  0
LINE
  5
A17
  8
1
 10
150.91382797427829
 20
135.0012296653336
 30
0.0
 11
150.91382797427829
 21
95.001229665333653
 31
0.0
  0
LINE
  5
A18
  8
0
 10
156.163827974311
 20
112.4080839147932
 30
0.0
 11
156.163827974311
 21
117.5943754158469
 31
0.0
  0
LINE
  5
A19
  8
0
 10
145.6638279742437
 20
117.594375415847
 30
0.0
 11
145.6638279742437
 21
112.4080839147932
 31
0.0
  0
LINE
  5
A1A
  8
0
 10
126.1638279742822
 20
112.4080839147932
 30
0.0
 11
126.1638279742822
 21
117.5943754158469
 31
0.0
  0
CIRCLE
  5
A1B
  8
0
 10
150.91382797427829
 20
115.0012296653336
 30
0.0
 40
2.5
  0
LINE
  5
A1E
  8
0
 10
115.66382797427271
 20
117.5943754158469
 30
0.0
 11
115.66382797427271
 21
112.4080839147932
 31
0.0
  0
CIRCLE
  5
A1F
  8
0
 10
120.91382797427841
 20
115.0012296653336
 30
0.0
 40
2.5
  0
ARC
  5
A20
  8
0
 10
108.41382797427271
 20
107.85122966533351
 30
0.0
 40
1.0
 50
180.0
 51
270.0
  0
LINE
  5
A21
  8
0
 10
107.7138279742726
 20
109.4012296653063
 30
0.0
 11
108.6138279742727
 21
109.4012296653064
 31
0.0
  0
ARC
  5
A22
  8
0
 10
107.91382797427271
 20
110.9012296653064
 30
0.0
 40
1.0000000000000071
 50
0.0
 51
89.999999999999588
  0
ARC
  5
A23
  8
0
 10
108.91382797425111
 20
103.0012296653336
 30
0.0
 40
1.500000000000014
 50
180.0
 51
269.99999999999949
  0
ARC
  5
A24
  8
0
 10
108.91382797427831
 20
103.0012296653336
 30
0.0
 40
3.0
 50
180.0
 51
270.0
  0
LINE
  5
A25
  8
0
 10
110.9638279742517
 20
105.351229665329
 30
0.0
 11
107.7138279742517
 21
105.35122966533631
 31
0.0
  0
LINE
  5
A26
  8
0
 10
105.91382797427831
 20
110.9012296653064
 30
0.0
 11
105.91382797427831
 21
103.0012296653336
 31
0.0
  0
ARC
  5
A29
  8
0
 10
107.713827974251
 20
105.05122966533629
 30
0.0
 40
0.3000000000000114
 50
89.999999999860208
 51
179.99999999998909
  0
LINE
  5
A2A
  8
0
 10
107.41382797425101
 20
105.05122966533629
 30
0.0
 11
107.41382797425111
 21
103.0012296653336
 31
0.0
  0
ARC
  5
A2B
  8
0
 10
106.91382797427831
 20
110.9012296653064
 30
0.0
 40
1.0
 50
90.0
 51
180.0
  0
LINE
  5
A2C
  8
0
 10
107.41382797427271
 20
107.85122966533351
 30
0.0
 11
107.41382797427271
 21
109.10122966530641
 31
0.0
  0
ARC
  5
A2D
  8
0
 10
107.7138279742726
 20
109.10122966530641
 30
0.0
 40
0.2999999999999545
 50
90.0
 51
180.0
  0
LINE
  5
A2E
  8
0
 10
107.91382797427271
 20
111.9012296653064
 30
0.0
 11
106.91382797427831
 21
111.9012296653064
 31
0.0
  0
LINE
  5
A2F
  8
0
 10
138.76382797425089
 20
102.0012296653327
 30
0.0
 11
133.06382797427941
 21
102.0012296653327
 31
0.0
  0
LINE
  5
A30
  8
0
 10
125.0138279742792
 20
100.0012296653336
 30
0.0
 11
146.8138279742781
 21
100.0012296653336
 31
0.0
  0
ARC
  5
A31
  8
0
 10
126.06382797427941
 20
104.1943754158418
 30
0.0
 40
2.9999999999999578
 50
0.0000000000032569
 51
45.000000000002771
  0
ARC
  5
A32
  8
0
 10
126.06382797427931
 20
104.19437541581119
 30
0.0
 40
5.0000000000000071
 50
0.0000000000019541
 51
45.000000000001307
  0
ARC
  5
A33
  8
0
 10
115.7638279742509
 20
104.19437541578679
 30
0.0
 40
2.99999999999996
 50
135.0000000000033
 51
180.00000000000321
  0
ARC
  5
A34
  8
0
 10
116.8138279742782
 20
101.0012296653336
 30
0.0
 40
1.0
 50
270.0
 51
0.0
  0
LINE
  5
A35
  8
0
 10
108.91382797427831
 20
100.0012296653336
 30
0.0
 11
116.8138279742782
 21
100.0012296653336
 31
0.0
  0
LINE
  5
A36
  8
0
 10
115.0138279742783
 20
101.5012296653008
 30
0.0
 11
113.763827974251
 21
101.5012296653009
 31
0.0
  0
ARC
  5
A37
  8
0
 10
110.963827974251
 20
105.051229665329
 30
0.0
 40
0.299999999999951
 50
0.0
 51
89.999999999870397
  0
ARC
  5
A38
  8
0
 10
113.763827974251
 20
102.5012296653009
 30
0.0
 40
1.0
 50
180.0
 51
269.99999999999977
  0
ARC
  5
A39
  8
0
 10
110.963827974251
 20
101.80122966533359
 30
0.0
 40
0.2999999999999545
 50
270.0
 51
0.0
  0
LINE
  5
A3A
  8
0
 10
112.763827974251
 20
102.5012296653009
 30
0.0
 11
112.763827974251
 21
104.19437541578669
 31
0.0
  0
LINE
  5
A3B
  8
0
 10
111.263827974251
 20
101.80122966533359
 30
0.0
 11
111.263827974251
 21
105.051229665329
 31
0.0
  0
LINE
  5
A3C
  8
0
 10
108.91382797425111
 20
101.5012296653336
 30
0.0
 11
110.963827974251
 21
101.5012296653336
 31
0.0
  0
LINE
  5
A3D
  8
0
 10
117.8138279742782
 20
101.0012296653336
 30
0.0
 11
117.8138279742782
 21
102.0012296653008
 31
0.0
  0
ARC
  5
A3E
  8
0
 10
116.8138279742782
 20
102.0012296653008
 30
0.0
 40
1.0000000000000071
 50
0.0
 51
89.999999999999588
  0
LINE
  5
A3F
  8
0
 10
116.8138279742782
 20
103.0012296653008
 30
0.0
 11
115.61382797427839
 21
103.0012296653008
 31
0.0
  0
ARC
  5
A40
  8
0
 10
115.61382797427839
 20
102.7012296653007
 30
0.0
 40
0.3000000000000682
 50
89.999999999999346
 51
180.0
  0
LINE
  5
A41
  8
0
 10
115.3138279742783
 20
102.7012296653007
 30
0.0
 11
115.3138279742782
 21
101.8012296653007
 31
0.0
  0
ARC
  5
A42
  8
0
 10
115.0138279742783
 20
101.8012296653007
 30
0.0
 40
0.2999999999999545
 50
270.0
 51
0.0
  0
ARC
  5
A43
  8
0
 10
125.0138279742792
 20
101.0012296653336
 30
0.0
 40
1.0
 50
180.0
 51
270.0
  0
LINE
  5
A44
  8
0
 10
128.06382797427929
 20
101.50122966530159
 30
0.0
 11
126.81382797427911
 21
101.50122966530159
 31
0.0
  0
ARC
  5
A45
  8
0
 10
126.81382797427911
 20
101.80122966530161
 30
0.0
 40
0.3000000000000114
 50
180.0000000000108
 51
270.0000000000108
  0
LINE
  5
A46
  8
0
 10
126.5138279742791
 20
101.80122966530151
 30
0.0
 11
126.5138279742792
 21
102.7012296653016
 31
0.0
  0
ARC
  5
A47
  8
0
 10
126.2138279742792
 20
102.7012296653016
 30
0.0
 40
0.2999999999999545
 50
0.0
 51
90.0
  0
ARC
  5
A48
  8
0
 10
125.0138279742792
 20
102.00122966530159
 30
0.0
 40
1.0
 50
90.0
 51
180.0
  0
LINE
  5
A49
  8
0
 10
124.0138279742792
 20
102.00122966530159
 30
0.0
 11
124.0138279742792
 21
101.0012296653336
 31
0.0
  0
LINE
  5
A4A
  8
0
 10
126.2138279742792
 20
103.00122966530159
 30
0.0
 11
125.0138279742792
 21
103.00122966530159
 31
0.0
  0
LINE
  5
A4B
  8
0
 10
131.06382797427941
 20
104.0012296653327
 30
0.0
 11
131.06382797427941
 21
104.19437541581129
 31
0.0
  0
ARC
  5
A4C
  8
0
 10
133.06382797427941
 20
104.0012296653327
 30
0.0
 40
2.0
 50
180.0
 51
270.0
  0
ARC
  5
A4D
  8
0
 10
128.06382797427929
 20
102.50122966530159
 30
0.0
 40
0.9999999999999786
 50
269.99999999999881
 51
0.0
  0
LINE
  5
A4E
  8
0
 10
129.06382797427929
 20
104.194375415842
 30
0.0
 11
129.06382797427929
 21
102.50122966530159
 31
0.0
  0
LINE
  5
A4F
  8
0
 10
118.3206822237651
 20
109.7512296653008
 30
0.0
 11
123.50697372481891
 21
109.7512296653008
 31
0.0
  0
ARC
  5
A50
  8
0
 10
112.66382797427271
 20
112.408083914793
 30
0.0
 40
2.9999999999999321
 50
315.00000000000301
 51
0.0000000000032569
  0
LINE
  5
A51
  8
0
 10
114.78514831783239
 20
110.28676357123349
 30
0.0
 11
112.2282940683727
 21
107.7299093217738
 31
0.0
  0
LINE
  5
A52
  8
0
 10
113.6425076306912
 20
106.3156957593463
 30
0.0
 11
116.1993618802053
 21
108.8725500088604
 31
0.0
  0
LINE
  5
A53
  8
0
 10
108.91382797427271
 20
109.7012296653064
 30
0.0
 11
108.91382797427271
 21
110.9012296653064
 31
0.0
  0
LINE
  5
A54
  8
0
 10
110.1069737248131
 20
106.85122966533341
 30
0.0
 11
108.41382797427271
 21
106.85122966533351
 31
0.0
  0
ARC
  5
A55
  8
0
 10
108.6138279742727
 20
109.7012296653064
 30
0.0
 40
0.2999999999999545
 50
269.99999999999932
 51
0.0
  0
ARC
  5
A56
  8
0
 10
110.1069737248131
 20
109.85122966533331
 30
0.0
 40
2.9999999999998832
 50
270.00000000000063
 51
315.0000000000004
  0
ARC
  5
A57
  8
0
 10
118.320682223765
 20
106.7512296653007
 30
0.0
 40
3.0000000000001168
 50
89.999999999998167
 51
134.99999999999869
  0
ARC
  5
A58
  8
0
 10
129.16382797428221
 20
112.408083914793
 30
0.0
 40
2.9999999999999329
 50
179.9999999999967
 51
224.9999999999971
  0
LINE
  5
A59
  8
0
 10
129.599361880212
 20
107.729909321744
 30
0.0
 11
127.0425076307224
 21
110.28676357123349
 31
0.0
  0
LINE
  5
A5A
  8
0
 10
125.6282940683794
 20
108.8725500088612
 30
0.0
 11
128.18514831783889
 21
106.31569575940161
 31
0.0
  0
ARC
  5
A5B
  8
0
 10
123.5069737248203
 20
106.7512296653002
 30
0.0
 40
3.000000000000568
 50
45.00000000002629
 51
90.000000000026319
  0
ARC
  5
A5C
  8
0
 10
156.06382797427929
 20
104.1943754158418
 30
0.0
 40
2.999999999999964
 50
0.0000000000032569
 51
45.000000000002693
  0
ARC
  5
A5D
  8
0
 10
145.76382797425089
 20
104.19437541578679
 30
0.0
 40
2.9999999999999569
 50
135.00000000000321
 51
180.00000000000321
  0
ARC
  5
A5E
  8
0
 10
145.76382797425089
 20
104.1943754158157
 30
0.0
 40
4.9999999999999201
 50
135.0000000000023
 51
180.0000000000025
  0
LINE
  5
A5F
  8
0
 10
146.8138279742781
 20
103.0012296653008
 30
0.0
 11
145.61382797427831
 21
103.0012296653008
 31
0.0
  0
ARC
  5
A60
  8
0
 10
138.76382797425089
 20
104.0012296653327
 30
0.0
 40
2.000000000000028
 50
270.0000000000008
 51
0.0000000000032569
  0
ARC
  5
A61
  8
0
 10
145.61382797427831
 20
102.7012296653007
 30
0.0
 40
0.3000000000000682
 50
90.0
 51
180.0
  0
LINE
  5
A62
  8
0
 10
145.31382797427841
 20
102.7012296653007
 30
0.0
 11
145.31382797427821
 21
101.8012296653007
 31
0.0
  0
ARC
  5
A63
  8
0
 10
145.0138279742782
 20
101.8012296653007
 30
0.0
 40
0.2999999999999545
 50
270.0
 51
0.0
  0
ARC
  5
A64
  8
0
 10
143.76382797425089
 20
102.5012296653009
 30
0.0
 40
1.0
 50
180.0
 51
270.0
  0
LINE
  5
A65
  8
0
 10
142.76382797425089
 20
102.5012296653009
 30
0.0
 11
142.76382797425089
 21
104.19437541578669
 31
0.0
  0
LINE
  5
A66
  8
0
 10
145.0138279742782
 20
101.5012296653008
 30
0.0
 11
143.76382797425089
 21
101.5012296653009
 31
0.0
  0
LINE
  5
A67
  8
0
 10
140.76382797425089
 20
104.1943754158155
 30
0.0
 11
140.76382797425089
 21
104.0012296653328
 31
0.0
  0
ARC
  5
A68
  8
0
 10
155.01382797427911
 20
101.0012296653336
 30
0.0
 40
1.0
 50
180.0
 51
270.0
  0
ARC
  5
A69
  8
0
 10
146.8138279742781
 20
101.0012296653336
 30
0.0
 40
1.0
 50
270.0
 51
0.0
  0
LINE
  5
A6A
  8
0
 10
147.81382797427821
 20
101.0012296653336
 30
0.0
 11
147.81382797427821
 21
102.0012296653008
 31
0.0
  0
ARC
  5
A6B
  8
0
 10
146.8138279742781
 20
102.0012296653008
 30
0.0
 40
1.0000000000000071
 50
0.0
 51
89.999999999999588
  0
ARC
  5
A6C
  8
0
 10
158.06382797427929
 20
102.50122966530159
 30
0.0
 40
0.9999999999999715
 50
269.99999999999841
 51
0.0
  0
ARC
  5
A6D
  8
0
 10
156.81382797427909
 20
101.80122966530161
 30
0.0
 40
0.3000000000000114
 50
180.0000000000108
 51
270.0000000000108
  0
LINE
  5
A6E
  8
0
 10
156.51382797427911
 20
101.80122966530151
 30
0.0
 11
156.51382797427911
 21
102.7012296653016
 31
0.0
  0
ARC
  5
A6F
  8
0
 10
156.21382797427921
 20
102.7012296653016
 30
0.0
 40
0.2999999999999545
 50
0.0
 51
90.0
  0
LINE
  5
A70
  8
0
 10
158.06382797427929
 20
101.50122966530159
 30
0.0
 11
156.81382797427909
 21
101.50122966530159
 31
0.0
  0
LINE
  5
A71
  8
0
 10
159.06382797427929
 20
104.194375415842
 30
0.0
 11
159.06382797427929
 21
102.50122966530159
 31
0.0
  0
ARC
  5
A72
  8
0
 10
155.01382797427911
 20
102.00122966530159
 30
0.0
 40
1.0
 50
90.0
 51
180.0
  0
LINE
  5
A73
  8
0
 10
154.01382797427911
 20
102.00122966530159
 30
0.0
 11
154.01382797427911
 21
101.0012296653336
 31
0.0
  0
LINE
  5
A74
  8
0
 10
156.21382797427921
 20
103.00122966530159
 30
0.0
 11
155.01382797427911
 21
103.00122966530159
 31
0.0
  0
ARC
  5
A75
  8
0
 10
148.320682223765
 20
106.7512296653007
 30
0.0
 40
3.000000000000115
 50
89.99999999999811
 51
134.99999999999861
  0
ARC
  5
A76
  8
0
 10
142.6638279742437
 20
112.40808391479329
 30
0.0
 40
3.0000000000000848
 50
314.99999999999812
 51
359.99999999999778
  0
LINE
  5
A77
  8
0
 10
143.64250763069111
 20
106.3156957593463
 30
0.0
 11
146.1993618802052
 21
108.8725500088604
 31
0.0
  0
LINE
  5
A78
  8
0
 10
144.7851483178033
 20
110.28676357123349
 30
0.0
 11
142.22829406831801
 21
107.72990932174829
 31
0.0
  0
ARC
  5
A79
  8
0
 10
159.16382797431129
 20
112.40808391479329
 30
0.0
 40
3.0000000000000839
 50
180.0000000000021
 51
225.0000000000019
  0
LINE
  5
A7A
  8
0
 10
148.320682223765
 20
109.7512296653008
 30
0.0
 11
153.50697372481881
 21
109.7512296653008
 31
0.0
  0
ARC
  5
A7B
  8
0
 10
153.5069737248202
 20
106.7512296653002
 30
0.0
 40
3.000000000000568
 50
45.00000000002629
 51
90.000000000026319
  0
LINE
  5
A7C
  8
0
 10
155.62829406837929
 20
108.8725500088612
 30
0.0
 11
158.18514831783889
 21
106.31569575940161
 31
0.0
  0
ARC
  5
A7E
  8
0
 10
108.41382797427271
 20
122.1512296653609
 30
0.0
 40
0.9999999999999822
 50
89.999999999998977
 51
180.0
  0
LINE
  5
A7F
  8
0
 10
108.6138279742727
 20
120.60122966530641
 30
0.0
 11
107.7138279742726
 21
120.60122966530641
 31
0.0
  0
ARC
  5
A80
  8
0
 10
107.91382797427271
 20
119.10122966530641
 30
0.0
 40
1.0
 50
270.0
 51
0.0
  0
LINE
  5
A81
  8
0
 10
107.7138279742783
 20
124.6512296653609
 30
0.0
 11
110.9638279742737
 21
124.6512296653609
 31
0.0
  0
ARC
  5
A82
  8
0
 10
108.91382797427831
 20
127.0012296653336
 30
0.0
 40
3.0
 50
90.0
 51
180.0
  0
ARC
  5
A83
  8
0
 10
108.91382797427831
 20
127.0012296653609
 30
0.0
 40
1.5
 50
90.000000000000554
 51
180.0
  0
LINE
  5
A86
  8
0
 10
107.41382797427271
 20
120.9012296653063
 30
0.0
 11
107.41382797427271
 21
122.1512296653609
 31
0.0
  0
LINE
  5
A87
  8
0
 10
105.91382797427831
 20
127.0012296653336
 30
0.0
 11
105.91382797427831
 21
119.10122966530641
 31
0.0
  0
ARC
  5
A88
  8
0
 10
107.7138279742726
 20
120.9012296653063
 30
0.0
 40
0.2999999999999545
 50
180.0
 51
270.0
  0
ARC
  5
A89
  8
0
 10
106.91382797427831
 20
119.10122966530641
 30
0.0
 40
1.0
 50
180.0
 51
270.0
  0
LINE
  5
A8A
  8
0
 10
106.91382797427831
 20
118.10122966530641
 30
0.0
 11
107.91382797427271
 21
118.10122966530641
 31
0.0
  0
ARC
  5
A8B
  8
0
 10
107.7138279742783
 20
124.951229665361
 30
0.0
 40
0.3000000000000611
 50
180.0
 51
270.00000000000131
  0
LINE
  5
A8C
  8
0
 10
107.41382797427841
 20
127.0012296653609
 30
0.0
 11
107.41382797427821
 21
124.951229665361
 31
0.0
  0
LINE
  5
A93
  8
0
 10
133.06382797430641
 20
128.0012296653328
 30
0.0
 11
138.763827974278
 21
128.0012296653328
 31
0.0
  0
LINE
  5
A94
  8
0
 10
146.81382797430541
 20
130.0012296653336
 30
0.0
 11
125.01382797430649
 21
130.0012296653336
 31
0.0
  0
ARC
  5
A95
  8
0
 10
133.06382797430641
 20
126.0012296653328
 30
0.0
 40
1.9999999999999849
 50
89.999999999999588
 51
180.0
  0
ARC
  5
A96
  8
0
 10
126.2138279743065
 20
127.3012296653401
 30
0.0
 40
0.2999999999999545
 50
270.0
 51
0.0
  0
ARC
  5
A97
  8
0
 10
125.01382797430649
 20
128.00122966534011
 30
0.0
 40
1.0000000000000071
 50
180.0
 51
269.9999999999996
  0
LINE
  5
A98
  8
0
 10
129.06382797430641
 20
127.50122966534011
 30
0.0
 11
129.06382797430641
 21
125.8080839148269
 31
0.0
  0
ARC
  5
A99
  8
0
 10
115.61382797430571
 20
127.30122966533941
 30
0.0
 40
0.3000000000000682
 50
180.0
 51
270.0
  0
ARC
  5
A9A
  8
0
 10
116.8138279743055
 20
128.00122966533931
 30
0.0
 40
1.0
 50
270.0
 51
0.0
  0
LINE
  5
A9B
  8
0
 10
112.763827974278
 20
125.8080839148261
 30
0.0
 11
112.763827974278
 21
127.5012296653392
 31
0.0
  0
LINE
  5
A9C
  8
0
 10
111.2638279742737
 20
124.9512296653603
 30
0.0
 11
111.263827974281
 21
128.2012296653603
 31
0.0
  0
LINE
  5
A9D
  8
0
 10
123.50697372481871
 20
120.2512296653393
 30
0.0
 11
118.3206822237651
 21
120.2512296653393
 31
0.0
  0
LINE
  5
A9E
  8
0
 10
116.1993618802053
 20
121.12990932177961
 30
0.0
 11
113.6425076307185
 21
123.6867635712666
 31
0.0
  0
LINE
  5
A9F
  8
0
 10
112.22829406831811
 20
122.2725500089207
 30
0.0
 11
114.7851483178322
 21
119.7156957594065
 31
0.0
  0
LINE
  5
AA0
  8
0
 10
108.91382797427271
 20
119.10122966530641
 30
0.0
 11
108.91382797427271
 21
120.30122966530639
 31
0.0
  0
ARC
  5
AA1
  8
0
 10
108.6138279742727
 20
120.30122966530639
 30
0.0
 40
0.2999999999999545
 50
0.0
 51
90.0
  0
ARC
  5
AA2
  8
0
 10
118.320682223765
 20
123.25122966533949
 30
0.0
 40
3.0000000000001701
 50
225.00000000000179
 51
270.00000000000148
  0
ARC
  5
AA3
  8
0
 10
112.66382797427261
 20
117.5943754158468
 30
0.0
 40
3.0000000000000839
 50
0.0000000000021713
 51
45.000000000001911
  0
ARC
  5
AA4
  8
0
 10
115.763827974278
 20
125.8080839148264
 30
0.0
 40
3.000000000000016
 50
180.00000000000429
 51
225.00000000000321
  0
ARC
  5
AA5
  8
0
 10
110.9638279742737
 20
124.9512296653609
 30
0.0
 40
0.3000000000000114
 50
270.00000000000949
 51
359.99999999988057
  0
LINE
  5
AA6
  8
0
 10
108.41382797427271
 20
123.1512296653609
 30
0.0
 11
110.1069737247585
 21
123.1512296653609
 31
0.0
  0
ARC
  5
AA7
  8
0
 10
110.1069737247587
 20
120.1512296653611
 30
0.0
 40
2.999999999999829
 50
45.00000000000221
 51
90.000000000002046
  0
LINE
  5
AA8
  8
0
 10
115.61382797430571
 20
127.0012296653393
 30
0.0
 11
116.8138279743055
 21
127.0012296653393
 31
0.0
  0
LINE
  5
AA9
  8
0
 10
127.0425076307227
 20
119.7156957594065
 30
0.0
 11
129.59936188023909
 21
122.27255000892301
 31
0.0
  0
LINE
  5
AAA
  8
0
 10
128.18514831786601
 20
123.68676357126731
 30
0.0
 11
125.6282940683794
 21
121.1299093217804
 31
0.0
  0
ARC
  5
AAB
  8
0
 10
123.50697372481829
 20
123.2512296653409
 30
0.0
 40
3.0000000000016009
 50
270.0000000000079
 51
315.00000000000858
  0
ARC
  5
AAC
  8
0
 10
129.1638279742823
 20
117.5943754158468
 30
0.0
 40
3.0000000000000848
 50
134.99999999999801
 51
179.99999999999781
  0
LINE
  5
AAD
  8
0
 10
125.01382797430649
 20
127.00122966534011
 30
0.0
 11
126.2138279743065
 21
127.00122966534011
 31
0.0
  0
LINE
  5
AAE
  8
0
 10
131.06382797430641
 20
125.8080839148559
 30
0.0
 11
131.06382797430641
 21
126.0012296653328
 31
0.0
  0
ARC
  5
AAF
  8
0
 10
126.06382797430631
 20
125.80808391482699
 30
0.0
 40
3.0000000000000351
 50
314.99999999999739
 51
359.99999999999778
  0
ARC
  5
AB0
  8
0
 10
126.06382797430641
 20
125.8080839148559
 30
0.0
 40
4.9999999999999902
 50
314.99999999999852
 51
0.0000000000006514
  0
LINE
  5
AB1
  8
0
 10
113.763827974278
 20
128.5012296653392
 30
0.0
 11
115.0138279743055
 21
128.5012296653392
 31
0.0
  0
LINE
  5
AB2
  8
0
 10
116.8138279743055
 20
130.0012296653336
 30
0.0
 11
108.91382797427831
 21
130.0012296653336
 31
0.0
  0
ARC
  5
AB3
  8
0
 10
113.763827974278
 20
127.5012296653392
 30
0.0
 40
0.9999999999999928
 50
89.999999999999588
 51
180.0
  0
ARC
  5
AB4
  8
0
 10
110.963827974281
 20
128.20122966536101
 30
0.0
 40
0.2999999999999616
 50
359.99999999986971
 51
89.999999999998636
  0
LINE
  5
AB5
  8
0
 10
110.963827974281
 20
128.50122966536091
 30
0.0
 11
108.91382797427831
 21
128.50122966536091
 31
0.0
  0
ARC
  5
AB6
  8
0
 10
115.0138279743055
 20
128.20122966533921
 30
0.0
 40
0.2999999999999545
 50
0.0
 51
90.0
  0
LINE
  5
AB7
  8
0
 10
115.3138279743055
 20
128.20122966533921
 30
0.0
 11
115.3138279743056
 21
127.30122966533941
 31
0.0
  0
LINE
  5
AB8
  8
0
 10
117.8138279743055
 20
128.00122966533931
 30
0.0
 11
117.8138279743055
 21
129.0012296653336
 31
0.0
  0
ARC
  5
AB9
  8
0
 10
116.8138279743055
 20
129.0012296653336
 30
0.0
 40
1.0
 50
0.0
 51
90.0
  0
LINE
  5
ABA
  8
0
 10
126.81382797430641
 20
128.50122966534011
 30
0.0
 11
128.06382797430641
 21
128.50122966534011
 31
0.0
  0
LINE
  5
ABB
  8
0
 10
126.51382797430649
 20
127.3012296653401
 30
0.0
 11
126.5138279743063
 21
128.20122966534021
 31
0.0
  0
ARC
  5
ABC
  8
0
 10
126.81382797430641
 20
128.20122966534009
 30
0.0
 40
0.3000000000000114
 50
89.999999999989143
 51
179.99999999998909
  0
ARC
  5
ABD
  8
0
 10
125.01382797430649
 20
129.0012296653336
 30
0.0
 40
1.0
 50
90.0
 51
180.0
  0
LINE
  5
ABE
  8
0
 10
124.01382797430649
 20
129.0012296653336
 30
0.0
 11
124.01382797430649
 21
128.00122966534011
 31
0.0
  0
ARC
  5
ABF
  8
0
 10
128.06382797430641
 20
127.50122966534011
 30
0.0
 40
1.0
 50
0.0
 51
90.0
  0
ARC
  5
AC0
  8
0
 10
156.2138279743065
 20
127.3012296653401
 30
0.0
 40
0.2999999999999545
 50
270.0
 51
0.0
  0
ARC
  5
AC1
  8
0
 10
155.01382797430639
 20
128.00122966534011
 30
0.0
 40
1.0000000000000071
 50
180.0
 51
269.9999999999996
  0
LINE
  5
AC2
  8
0
 10
159.06382797430641
 20
127.50122966534011
 30
0.0
 11
159.06382797430641
 21
125.8080839148269
 31
0.0
  0
ARC
  5
AC3
  8
0
 10
145.61382797430559
 20
127.30122966533941
 30
0.0
 40
0.3000000000000682
 50
180.0
 51
270.0
  0
ARC
  5
AC4
  8
0
 10
146.81382797430541
 20
128.00122966533931
 30
0.0
 40
1.0
 50
270.0
 51
0.0
  0
LINE
  5
AC5
  8
0
 10
142.763827974278
 20
125.8080839148261
 30
0.0
 11
142.763827974278
 21
127.5012296653392
 31
0.0
  0
ARC
  5
AC6
  8
0
 10
138.763827974278
 20
126.0012296653328
 30
0.0
 40
2.0
 50
0.0
 51
90.000000000000398
  0
LINE
  5
AC7
  8
0
 10
145.61382797430559
 20
127.0012296653393
 30
0.0
 11
146.81382797430541
 21
127.0012296653393
 31
0.0
  0
ARC
  5
AC8
  8
0
 10
148.320682223765
 20
123.25122966533949
 30
0.0
 40
3.0000000000001701
 50
225.00000000000179
 51
270.00000000000148
  0
LINE
  5
AC9
  8
0
 10
146.1993618802052
 20
121.12990932177961
 30
0.0
 11
143.6425076307184
 21
123.6867635712666
 31
0.0
  0
LINE
  5
ACA
  8
0
 10
142.22829406834529
 20
122.2725500088646
 30
0.0
 11
144.7851483178033
 21
119.7156957594065
 31
0.0
  0
ARC
  5
ACB
  8
0
 10
142.66382797424399
 20
117.5943754158469
 30
0.0
 40
2.9999999999998779
 50
0.0000000000021713
 51
45.000000000002771
  0
ARC
  5
ACC
  8
0
 10
145.763827974278
 20
125.8080839148264
 30
0.0
 40
3.0000000000000142
 50
180.00000000000429
 51
225.00000000000321
  0
LINE
  5
ACD
  8
0
 10
140.763827974278
 20
126.0012296653328
 30
0.0
 11
140.763827974278
 21
125.80808391479739
 31
0.0
  0
ARC
  5
ACE
  8
0
 10
145.76382797427809
 20
125.80808391479751
 30
0.0
 40
5.0000000000000417
 50
180.00000000000131
 51
225.00000000000151
  0
LINE
  5
ACF
  8
0
 10
158.1851483178659
 20
123.68676357126731
 30
0.0
 11
155.62829406837929
 21
121.1299093217804
 31
0.0
  0
LINE
  5
AD1
  8
0
 10
153.50697372481861
 20
120.2512296653393
 30
0.0
 11
148.320682223765
 21
120.2512296653393
 31
0.0
  0
ARC
  5
AD2
  8
0
 10
153.50697372481829
 20
123.2512296653409
 30
0.0
 40
3.0000000000016009
 50
270.0000000000079
 51
315.00000000000858
  0
ARC
  5
AD3
  8
0
 10
159.1638279743112
 20
117.5943754158468
 30
0.0
 40
3.0000000000000422
 50
134.9999999999975
 51
179.99999999999781
  0
ARC
  5
AD4
  8
0
 10
156.06382797430641
 20
125.80808391482699
 30
0.0
 40
3.000000000000028
 50
314.99999999999733
 51
359.99999999999778
  0
LINE
  5
AD5
  8
0
 10
155.01382797430639
 20
127.00122966534011
 30
0.0
 11
156.2138279743065
 21
127.00122966534011
 31
0.0
  0
ARC
  5
AD6
  8
0
 10
145.01382797430551
 20
128.20122966533921
 30
0.0
 40
0.2999999999999545
 50
0.0
 51
90.0
  0
LINE
  5
AD7
  8
0
 10
145.31382797430541
 20
128.20122966533921
 30
0.0
 11
145.3138279743057
 21
127.30122966533941
 31
0.0
  0
ARC
  5
AD8
  8
0
 10
143.763827974278
 20
127.5012296653392
 30
0.0
 40
1.0
 50
90.0
 51
180.0
  0
LINE
  5
AD9
  8
0
 10
143.763827974278
 20
128.5012296653392
 30
0.0
 11
145.01382797430551
 21
128.5012296653392
 31
0.0
  0
LINE
  5
ADA
  8
0
 10
147.81382797430541
 20
128.00122966533931
 30
0.0
 11
147.81382797430541
 21
129.0012296653336
 31
0.0
  0
ARC
  5
ADB
  8
0
 10
146.81382797430541
 20
129.0012296653336
 30
0.0
 40
1.0
 50
0.0
 51
90.0
  0
ARC
  5
ADC
  8
0
 10
158.06382797430629
 20
127.50122966534011
 30
0.0
 40
1.0
 50
0.0
 51
90.0
  0
LINE
  5
ADD
  8
0
 10
156.51382797430639
 20
127.3012296653401
 30
0.0
 11
156.51382797430639
 21
128.20122966534021
 31
0.0
  0
ARC
  5
ADE
  8
0
 10
156.81382797430641
 20
128.20122966534009
 30
0.0
 40
0.3000000000000114
 50
89.999999999989143
 51
179.99999999998909
  0
LINE
  5
ADF
  8
0
 10
156.81382797430641
 20
128.50122966534011
 30
0.0
 11
158.06382797430629
 21
128.50122966534011
 31
0.0
  0
ARC
  5
AE0
  8
0
 10
155.01382797430639
 20
129.0012296653336
 30
0.0
 40
1.0
 50
90.0
 51
180.0
  0
LINE
  5
AE1
  8
0
 10
154.01382797430639
 20
129.0012296653336
 30
0.0
 11
154.01382797430639
 21
128.00122966534011
 31
0.0
  0
LINE
  5
AE5
  8
0
 10
248.64510422104311
 20
130.0012296653336
 30
0.0
 11
248.64510422104311
 21
100.0012296653336
 31
0.0
  0
LINE
  5
AE6
  8
0
 10
198.64510422104311
 20
130.0012296653336
 30
0.0
 11
198.64510422104311
 21
100.0012296653336
 31
0.0
  0
LINE
  5
AE7
  8
1
 10
193.645104221043
 20
115.0012296653336
 30
0.0
 11
253.6451042210432
 21
115.0012296653336
 31
0.0
  0
LINE
  5
AE8
  8
0
 10
198.64510422104311
 20
111.9012296653336
 30
0.0
 11
248.64510422104311
 21
111.9012296653336
 31
0.0
  0
LINE
  5
AE9
  8
0
 10
198.64510422104311
 20
100.0012296653336
 30
0.0
 11
248.64510422104311
 21
100.0012296653336
 31
0.0
  0
LINE
  5
AED
  8
0
 10
165.91382797427829
 20
103.0012296653336
 30
0.0
 11
165.91382797427829
 21
110.9012296653336
 31
0.0
  0
ARC
  5
AEE
  8
0
 10
162.91382797427829
 20
103.0012296653336
 30
0.0
 40
3.0
 50
270.0
 51
0.0
  0
ARC
  5
AEF
  8
0
 10
164.11382797427819
 20
105.0512296653062
 30
0.0
 40
0.3000000000000114
 50
0.0000000000108563
 51
90.000000000010857
  0
LINE
  5
AF0
  8
0
 10
164.41382797427829
 20
103.0012296653063
 30
0.0
 11
164.41382797427829
 21
105.05122966530629
 31
0.0
  0
ARC
  5
AF1
  8
0
 10
160.86382797428291
 20
105.0512296653062
 30
0.0
 40
0.3000000000000114
 50
89.999999999989143
 51
179.9999999998588
  0
LINE
  5
AF2
  8
0
 10
160.86382797427561
 20
101.5012296653063
 30
0.0
 11
162.91382797427829
 21
101.5012296653063
 31
0.0
  0
ARC
  5
AF3
  8
0
 10
160.86382797427561
 20
101.80122966530629
 30
0.0
 40
0.2999999999999545
 50
179.99999999986969
 51
270.0
  0
LINE
  5
AF4
  8
0
 10
160.5638279742829
 20
105.05122966530701
 30
0.0
 11
160.56382797427571
 21
101.80122966530701
 31
0.0
  0
LINE
  5
AF5
  8
0
 10
164.11382797427811
 20
105.35122966530631
 30
0.0
 11
160.86382797428291
 21
105.35122966530631
 31
0.0
  0
ARC
  5
AF6
  8
0
 10
162.91382797427829
 20
103.0012296653063
 30
0.0
 40
1.5
 50
270.00000000000063
 51
0.0
  0
ARC
  5
AF7
  8
0
 10
164.91382797427829
 20
110.9012296653336
 30
0.0
 40
1.0
 50
0.0
 51
90.0
  0
ARC
  5
AF8
  8
0
 10
163.913827974311
 20
110.9012296653336
 30
0.0
 40
1.0
 50
90.0
 51
180.0
  0
ARC
  5
AF9
  8
0
 10
164.11382797431119
 20
109.10122966533361
 30
0.0
 40
0.3000000000000114
 50
0.0000000000108563
 51
90.000000000010857
  0
LINE
  5
AFA
  8
0
 10
164.41382797431129
 20
109.1012296653337
 30
0.0
 11
164.41382797431129
 21
107.85122966530641
 31
0.0
  0
LINE
  5
AFB
  8
0
 10
162.913827974311
 20
110.9012296653336
 30
0.0
 11
162.913827974311
 21
109.7012296653337
 31
0.0
  0
ARC
  5
AFC
  8
0
 10
163.21382797431119
 20
109.7012296653338
 30
0.0
 40
0.3000000000000682
 50
180.00000000002171
 51
270.00000000002171
  0
LINE
  5
AFD
  8
0
 10
163.41382797431129
 20
106.85122966530631
 30
0.0
 11
161.72068222379789
 21
106.85122966530631
 31
0.0
  0
ARC
  5
AFE
  8
0
 10
161.72068222379821
 20
109.85122966530609
 30
0.0
 40
2.9999999999998859
 50
224.99999999999329
 51
269.99999999999488
  0
LINE
  5
AFF
  8
0
 10
163.21382797431119
 20
109.4012296653337
 30
0.0
 11
164.11382797431111
 21
109.4012296653336
 31
0.0
  0
ARC
  5
B00
  8
0
 10
163.41382797431129
 20
107.85122966530621
 30
0.0
 40
1.000000000000042
 50
270.0000000000025
 51
0.0000000000065138
  0
LINE
  5
B01
  8
0
 10
164.91382797427829
 20
111.9012296653336
 30
0.0
 11
163.913827974311
 21
111.9012296653336
 31
0.0
  0
LINE
  5
B04
  8
0
 10
198.64510422104311
 20
130.0012296653336
 30
0.0
 11
248.64510422104311
 21
130.0012296653336
 31
0.0
  0
LINE
  5
B05
  8
0
 10
198.64510422104311
 20
118.10122966533361
 30
0.0
 11
248.64510422104311
 21
118.10122966533361
 31
0.0
  0
LINE
  5
B09
  8
0
 10
160.56382797430541
 20
128.2012296653337
 30
0.0
 11
160.56382797430541
 21
124.9512296653382
 31
0.0
  0
ARC
  5
B0A
  8
0
 10
162.91382797427829
 20
127.0012296653336
 30
0.0
 40
3.0
 50
0.0
 51
90.0
  0
ARC
  5
B0B
  8
0
 10
162.9138279743056
 20
127.0012296653336
 30
0.0
 40
1.500000000000014
 50
0.0
 51
89.999999999999446
  0
LINE
  5
B0C
  8
0
 10
164.413827974311
 20
122.1512296653338
 30
0.0
 11
164.41382797431129
 21
120.9012296653336
 31
0.0
  0
LINE
  5
B0D
  8
0
 10
165.91382797427829
 20
119.10122966533361
 30
0.0
 11
165.91382797427829
 21
127.0012296653336
 31
0.0
  0
ARC
  5
B0E
  8
0
 10
164.91382797427829
 20
119.10122966533361
 30
0.0
 40
1.0
 50
270.0
 51
0.0
  0
ARC
  5
B0F
  8
0
 10
164.11382797431119
 20
120.9012296653337
 30
0.0
 40
0.3000000000000114
 50
269.99999999998909
 51
359.99999999998909
  0
LINE
  5
B10
  8
0
 10
163.913827974311
 20
118.10122966533361
 30
0.0
 11
164.91382797427829
 21
118.10122966533361
 31
0.0
  0
LINE
  5
B11
  8
0
 10
162.913827974311
 20
120.30122966533369
 30
0.0
 11
162.913827974311
 21
119.10122966533361
 31
0.0
  0
ARC
  5
B12
  8
0
 10
163.21382797431119
 20
120.30122966533359
 30
0.0
 40
0.3000000000000682
 50
89.999999999978286
 51
179.99999999997829
  0
LINE
  5
B13
  8
0
 10
164.11382797431111
 20
120.6012296653337
 30
0.0
 11
163.21382797431119
 21
120.6012296653337
 31
0.0
  0
ARC
  5
B14
  8
0
 10
163.913827974311
 20
119.10122966533361
 30
0.0
 40
1.0
 50
180.0
 51
270.0
  0
ARC
  5
B15
  8
0
 10
164.11382797430559
 20
124.951229665331
 30
0.0
 40
0.3000000000000114
 50
269.99999999988057
 51
0.0000000000108563
  0
LINE
  5
B16
  8
0
 10
164.4138279743056
 20
124.951229665331
 30
0.0
 11
164.4138279743056
 21
127.0012296653336
 31
0.0
  0
ARC
  5
B17
  8
0
 10
160.86382797430551
 20
124.9512296653383
 30
0.0
 40
0.3000000000000114
 50
180.0000000000108
 51
269.99999999988057
  0
LINE
  5
B18
  8
0
 10
161.72068222379809
 20
123.1512296653338
 30
0.0
 11
163.413827974311
 21
123.1512296653338
 31
0.0
  0
ARC
  5
B19
  8
0
 10
161.72068222379809
 20
120.1512296653338
 30
0.0
 40
3.0000000000000542
 50
89.99999999999973
 51
134.99999999999901
  0
ARC
  5
B1A
  8
0
 10
163.413827974311
 20
122.1512296653338
 30
0.0
 40
1.0
 50
0.0
 51
90.0
  0
LINE
  5
B1B
  8
0
 10
160.86382797430491
 20
124.65122966533831
 30
0.0
 11
164.11382797430491
 21
124.651229665331
 31
0.0
  0
LINE
  5
B1C
  8
0
 10
162.9138279743056
 20
128.5012296653336
 30
0.0
 11
160.86382797430559
 21
128.5012296653336
 31
0.0
  0
ARC
  5
B1D
  8
0
 10
160.86382797430559
 20
128.20122966533361
 30
0.0
 40
0.3000000000000682
 50
89.999999999978286
 51
179.99999999997829
  0
LINE
  5
B2A
  8
0
 10
165.91382797427829
 20
207.81117099763009
 30
0.0
 11
105.91382797427831
 21
207.81117099763009
 31
0.0
  0
TEXT
  5
C48
  8
0
 62
     3
 10
0.0
 20
0.0
 30
0.0
 40
10.0
  1
L6-SPL6030B-3M
  7
STANDARD1
  0
ENDSEC
  0
EOF
