  0
SECTION
  2
HEADER
  9
$ACADVER
  1
AC1009
  9
$INSBASE
 10
0.0
 20
0.0
 30
0.0
  9
$EXTMIN
 10
0.0
 20
-2.960436562073669
 30
0.0
  9
$EXTMAX
 10
298.36068076840718
 20
212.13217446162651
 30
0.0
  9
$LIMMIN
 10
0.0
 20
0.0
  9
$LIMMAX
 10
375.0
 20
278.0
  9
$ORTHOMODE
 70
     1
  9
$REGENMODE
 70
     1
  9
$FILLMODE
 70
     1
  9
$QTEXTMODE
 70
     0
  9
$MIRRTEXT
 70
     0
  9
$DRAGMODE
 70
     2
  9
$LTSCALE
 40
10.0
  9
$OSMODE
 70
  3071
  9
$ATTMODE
 70
     1
  9
$TEXTSIZE
 40
0.2
  9
$TRACEWID
 40
0.05
  9
$TEXTSTYLE
  7
STANDARD
  9
$CLAYER
  8
0
  9
$CELTYPE
  6
BYLAYER
  9
$CECOLOR
 62
   256
  9
$DIMSCALE
 40
1.0
  9
$DIMASZ
 40
3.0
  9
$DIMEXO
 40
1.0
  9
$DIMDLI
 40
6.0
  9
$DIMRND
 40
0.0
  9
$DIMDLE
 40
0.0
  9
$DIMEXE
 40
1.0
  9
$DIMTP
 40
495.0
  9
$DIMTM
 40
0.0
  9
$DIMTXT
 40
3.0
  9
$DIMCEN
 40
0.0
  9
$DIMTSZ
 40
0.0
  9
$DIMTOL
 70
     0
  9
$DIMLIM
 70
     0
  9
$DIMTIH
 70
     0
  9
$DIMTOH
 70
     0
  9
$DIMSE1
 70
     0
  9
$DIMSE2
 70
     0
  9
$DIMTAD
 70
     1
  9
$DIMZIN
 70
     0
  9
$DIMBLK
  1

  9
$DIMASO
 70
     0
  9
$DIMSHO
 70
     0
  9
$DIMPOST
  1

  9
$DIMAPOST
  1

  9
$DIMALT
 70
     0
  9
$DIMALTD
 70
     2
  9
$DIMALTF
 40
25.399999999999999
  9
$DIMLFAC
 40
1.0
  9
$DIMTOFL
 70
     1
  9
$DIMTVP
 40
0.0
  9
$DIMTIX
 70
     1
  9
$DIMSOXD
 70
     0
  9
$DIMSAH
 70
     0
  9
$DIMBLK1
  1

  9
$DIMBLK2
  1

  9
$DIMSTYLE
  2
STANDARD
  9
$DIMCLRD
 70
     0
  9
$DIMCLRE
 70
     0
  9
$DIMCLRT
 70
     4
  9
$DIMTFAC
 40
1.0
  9
$DIMGAP
 40
1.0
  9
$LUNITS
 70
     2
  9
$LUPREC
 70
     4
  9
$SKETCHINC
 40
0.1
  9
$FILLETRAD
 40
0.0
  9
$AUNITS
 70
     0
  9
$AUPREC
 70
     0
  9
$MENU
  1
C:\R13\WIN\SUPPORT\ACAD-I
  9
$ELEVATION
 40
0.0
  9
$PELEVATION
 40
0.0
  9
$THICKNESS
 40
0.0
  9
$LIMCHECK
 70
     0
  9
$BLIPMODE
 70
     0
  9
$CHAMFERA
 40
0.0
  9
$CHAMFERB
 40
0.0
  9
$SKPOLY
 70
     0
  9
$TDCREATE
 40
2450834.4199027782
  9
$TDUPDATE
 40
2456597.5626389808
  9
$TDINDWG
 40
0.033658669
  9
$TDUSRTIMER
 40
0.033658669
  9
$USRTIMER
 70
     1
  9
$ANGBASE
 50
0.0
  9
$ANGDIR
 70
     0
  9
$PDMODE
 70
     0
  9
$PDSIZE
 40
0.0
  9
$PLINEWID
 40
0.0
  9
$COORDS
 70
     1
  9
$SPLFRAME
 70
     0
  9
$SPLINETYPE
 70
     6
  9
$SPLINESEGS
 70
     8
  9
$ATTDIA
 70
     0
  9
$ATTREQ
 70
     1
  9
$HANDLING
 70
     1
  9
$HANDSEED
  5
731
  9
$SURFTAB1
 70
     6
  9
$SURFTAB2
 70
     6
  9
$SURFTYPE
 70
     6
  9
$SURFU
 70
     6
  9
$SURFV
 70
     6
  9
$UCSNAME
  2

  9
$UCSORG
 10
0.0
 20
0.0
 30
0.0
  9
$UCSXDIR
 10
1.0
 20
0.0
 30
0.0
  9
$UCSYDIR
 10
0.0
 20
1.0
 30
0.0
  9
$PUCSNAME
  2

  9
$PUCSORG
 10
0.0
 20
0.0
 30
0.0
  9
$PUCSXDIR
 10
1.0
 20
0.0
 30
0.0
  9
$PUCSYDIR
 10
0.0
 20
1.0
 30
0.0
  9
$USERI1
 70
     4
  9
$USERI2
 70
     1
  9
$USERI3
 70
     0
  9
$USERI4
 70
     0
  9
$USERI5
 70
     0
  9
$USERR1
 40
1.0
  9
$USERR2
 40
3.0
  9
$USERR3
 40
3.0
  9
$USERR4
 40
3.0
  9
$USERR5
 40
10.0
  9
$WORLDVIEW
 70
     1
  9
$SHADEDGE
 70
     3
  9
$SHADEDIF
 70
    70
  9
$TILEMODE
 70
     1
  9
$MAXACTVP
 70
    16
  9
$PLIMCHECK
 70
     0
  9
$PEXTMIN
 10
1.0000000000000000E+020
 20
1.0000000000000000E+020
 30
1.0000000000000000E+020
  9
$PEXTMAX
 10
-1.0000000000000000E+020
 20
-1.0000000000000000E+020
 30
-1.0000000000000000E+020
  9
$PLIMMIN
 10
0.0
 20
0.0
  9
$PLIMMAX
 10
12.0
 20
9.0
  9
$UNITMODE
 70
     0
  9
$VISRETAIN
 70
     0
  9
$PLINEGEN
 70
     0
  9
$PSLTSCALE
 70
     0
  0
ENDSEC
  0
SECTION
  2
TABLES
  0
TABLE
  2
VPORT
 70
     1
  0
VPORT
  2
*ACTIVE
 70
     0
 10
0.0
 20
0.0
 11
1.0
 21
1.0
 12
187.4942783906524
 22
167.7204668657281
 13
0.0
 23
0.0
 14
10.0
 24
10.0
 15
10.0
 25
10.0
 16
0.0
 26
0.0
 36
1.0
 17
0.0
 27
0.0
 37
0.0
 40
344.62625130655709
 41
1.9089595375722539
 42
50.0
 43
0.0
 44
0.0
 50
0.0
 51
0.0
 71
     0
 72
   100
 73
     1
 74
     0
 75
     0
 76
     0
 77
     0
 78
     0
  0
ENDTAB
  0
TABLE
  2
LTYPE
 70
     3
  0
LTYPE
  2
CONTINUOUS
 70
     0
  3
Solid Line
 72
    65
 73
     0
 40
0.0
  0
LTYPE
  2
CENTER
 70
     0
  3
____ _ ____ _ ____ _ ____ _ ____ _ ____ _ ____
 72
    65
 73
     4
 40
2.0
 49
1.25
 49
-0.25
 49
0.25
 49
-0.25
  0
LTYPE
  2
PHANTOM2
 70
     0
  3
___ _ _ ___ _ _ ___ _ _ ___ _ _
 72
    65
 73
     6
 40
1.25
 49
0.625
 49
-0.125
 49
0.125
 49
-0.125
 49
0.125
 49
-0.125
  0
ENDTAB
  0
TABLE
  2
LAYER
 70
     2
  0
LAYER
  2
0
 70
     0
 62
     7
  6
CONTINUOUS
  0
LAYER
  2
1
 70
     0
 62
     1
  6
CENTER
  0
ENDTAB
  0
TABLE
  2
STYLE
 70
     2
  0
STYLE
  2
STANDARD
 70
     0
 40
0.0
 41
1.0
 50
0.0
 71
     0
 42
0.2
  3
SIMPLEX
  4
BIGFONT
  0
STYLE
  2
STANDARD1
 70
     0
 40
0.0
 41
1.0
 50
0.0
 71
     0
 42
3.0
  3
txt
  4

  0
ENDTAB
  0
TABLE
  2
VIEW
 70
     0
  0
ENDTAB
  0
TABLE
  2
UCS
 70
     0
  0
ENDTAB
  0
TABLE
  2
APPID
 70
    26
  0
APPID
  2
ACAD
 70
     0
  0
APPID
  2
GENIUS_GENOBJ_13
 70
     0
  0
APPID
  2
GENIUS_GENODEF_13
 70
     0
  0
APPID
  2
GENIUS_GENOENT_13
 70
     0
  0
APPID
  2
GENIUS_GENOLIS_13
 70
     0
  0
APPID
  2
GENIUS_GENOREF_13
 70
     0
  0
APPID
  2
GENIUS_GENOBJ-N-TIT_13
 70
     0
  0
APPID
  2
GENIUS_GENTITLE_13
 70
     0
  0
APPID
  2
GENIUS_GENZVEED_13
 70
     0
  0
APPID
  2
GENIUS_GENOBJ-N-FIL_13
 70
     0
  0
APPID
  2
GENIUS_GENOBJ-N-CRS_13
 70
     0
  0
APPID
  2
GENIUS_GEFINERT_13
 70
     0
  0
APPID
  2
GENIUS_GENOBJ-F-INER_13
 70
     0
  0
APPID
  2
GENIUS_GENOBJ-N-ZOO_13
 70
     0
  0
APPID
  2
GENIUS_GENZOO_13
 70
     0
  0
APPID
  2
GENIUS_GENOBJ-F-TOL_13
 70
     0
  0
APPID
  2
GENIUS_GENOBJ-N-RSSYM_13
 70
     0
  0
APPID
  2
GENIUS_GENSYMENT_13
 70
     0
  0
APPID
  2
GENIUS_GENBH_13
 70
     0
  0
APPID
  2
GENIUS_GENOBJ-NBEHI-BHF_13
 70
     0
  0
APPID
  2
GENIUS_GENOBJ-NBEHI-BHB_13
 70
     0
  0
APPID
  2
GENIUS_GENOBJ-F-PART_13
 70
     0
  0
APPID
  2
GENIUS_GEFSTDP_13
 70
     0
  0
APPID
  2
GENIUS_GENOBJ-N-LEADER_13
 70
     0
  0
APPID
  2
ACAD_MLEADERVER
 70
     0
  0
APPID
  2
ACAD_NAV_VCDISPLAY
 70
     0
  0
ENDTAB
  0
TABLE
  2
DIMSTYLE
 70
     1
  0
DIMSTYLE
  2
STANDARD
 70
     0
  3

  4

  5

  6

  7

 40
1.0
 41
0.18
 42
0.0625
 43
0.38
 44
0.18
 45
0.0
 46
0.0
 47
0.0
 48
0.0
140
0.18
141
0.09
142
0.0
143
25.399999999999999
144
1.0
145
0.0
146
1.0
147
0.09
 71
     0
 72
     0
 73
     1
 74
     1
 75
     0
 76
     0
 77
     0
 78
     0
170
     0
171
     2
172
     0
173
     0
174
     0
175
     0
176
     0
177
     0
178
     0
  0
ENDTAB
  0
ENDSEC
  0
SECTION
  2
BLOCKS
  0
BLOCK
  8
0
  2
$MODEL_SPACE
 70
     0
 10
0.0
 20
0.0
 30
0.0
  3
$MODEL_SPACE
  1

  0
ENDBLK
  5
5F2
  8
0
  0
BLOCK
 67
     1
  8
0
  2
$PAPER_SPACE
 70
     0
 10
0.0
 20
0.0
 30
0.0
  3
$PAPER_SPACE
  1

  0
ENDBLK
  5
5F0
 67
     1
  8
0
  0
BLOCK
  8
0
  2
STDGX5
 70
     0
 10
0.0
 20
0.0
 30
0.0
  3
STDGX5
  1

  0
ENDBLK
  5
4F
  8
0
  0
ENDSEC
  0
SECTION
  2
ENTITIES
  0
INSERT
  5
DE
  8
0
  2
STDGX5
 10
0.0
 20
0.0
 30
0.0
  0
INSERT
  5
DF
  8
0
  2
STDGX5
 10
0.0
 20
0.0
 30
0.0
  0
INSERT
  5
15C
  8
0
  2
STDGX5
 10
275.0
 20
0.0
 30
0.0
  0
INSERT
  5
15D
  8
0
  2
STDGX5
 10
275.0
 20
0.0
 30
0.0
  0
LINE
  5
271
  8
0
 10
293.36068076840712
 20
147.13217446162651
 30
0.0
 11
293.36068076840718
 21
207.13217446162631
 31
0.0
  0
LINE
  5
272
  8
0
 10
243.36068076840709
 20
147.13217446162651
 30
0.0
 11
243.36068076840721
 21
207.13217446162631
 31
0.0
  0
LINE
  5
27E
  8
0
 10
243.36068076840721
 20
207.13217446162631
 30
0.0
 11
293.36068076840718
 21
207.13217446162631
 31
0.0
  0
LINE
  5
27F
  8
0
 10
193.6205947419094
 20
64.143874156522628
 30
0.0
 11
163.62059474190951
 21
64.143874156522628
 31
0.0
  0
LINE
  5
280
  8
0
 10
193.6205947419094
 20
114.1438741565226
 30
0.0
 11
163.62059474190951
 21
114.1438741565226
 31
0.0
  0
LINE
  5
290
  8
0
 10
193.62059474190951
 20
114.1438741565226
 30
0.0
 11
193.6205947419094
 21
64.143874156522628
 31
0.0
  0
LINE
  5
294
  8
0
 10
181.72059474188219
 20
114.1438741565226
 30
0.0
 11
181.72059474188219
 21
64.1438741565226
 31
0.0
  0
LINE
  5
295
  8
0
 10
175.52059474188221
 20
114.1438741565226
 30
0.0
 11
175.52059474188221
 21
64.143874156522628
 31
0.0
  0
LINE
  5
296
  8
0
 10
163.62059474190951
 20
114.1438741565226
 30
0.0
 11
163.62059474190951
 21
64.143874156522628
 31
0.0
  0
LINE
  5
297
  8
0
 10
243.36068076840709
 20
147.13217446162651
 30
0.0
 11
293.36068076840712
 21
147.13217446162651
 31
0.0
  0
INSERT
  5
314
  8
0
  2
STDGX5
 10
0.0
 20
0.0
 30
0.0
  0
INSERT
  5
315
  8
0
  2
STDGX5
 10
0.0
 20
0.0
 30
0.0
  0
INSERT
  5
316
  8
0
  2
STDGX5
 10
275.0
 20
0.0
 30
0.0
  0
INSERT
  5
317
  8
0
  2
STDGX5
 10
275.0
 20
0.0
 30
0.0
  0
LINE
  5
32A
  8
1
 10
238.36068076840709
 20
162.13217446162651
 30
0.0
 11
298.36068076840712
 21
162.13217446162651
 31
0.0
  0
LINE
  5
32B
  8
1
 10
178.62059474190951
 20
119.1438741565226
 30
0.0
 11
178.62059474190951
 21
59.143874156522628
 31
0.0
  0
CIRCLE
  5
49D
  8
0
 10
178.62059474190951
 20
192.13217446162651
 30
0.0
 40
2.5
  0
CIRCLE
  5
4A5
  8
0
 10
178.62059474190951
 20
162.13217446162651
 30
0.0
 40
2.5
  0
ARC
  5
4AD
  8
0
 10
191.42059474191589
 20
188.23217446159839
 30
0.0
 40
0.7999999999999794
 50
89.999999999998494
 51
179.99999999999841
  0
LINE
  5
4AE
  8
0
 10
191.42059474191589
 20
189.0321744615984
 30
0.0
 11
192.52021387389831
 21
189.0321744615984
 31
0.0
  0
ARC
  5
4AF
  8
0
 10
192.52021387389831
 20
189.1321744615984
 30
0.0
 40
0.1000000000000156
 50
269.99999999999392
 51
359.99999999999193
  0
LINE
  5
4B0
  8
0
 10
192.62021387389831
 20
189.1321744615984
 30
0.0
 11
192.62021387389831
 21
195.13217446159931
 31
0.0
  0
ARC
  5
4B1
  8
0
 10
192.52021387389831
 20
195.13217446159931
 30
0.0
 40
0.1000000000000121
 50
359.99999999999193
 51
89.999999999993875
  0
LINE
  5
4B2
  8
0
 10
192.52021387389831
 20
195.2321744615993
 30
0.0
 11
191.42059474191521
 21
195.2321744615993
 31
0.0
  0
ARC
  5
4B3
  8
0
 10
191.42059474191521
 20
196.03217446159931
 30
0.0
 40
0.8000000000000042
 50
180.00000000000051
 51
270.00000000000051
  0
LINE
  5
4B4
  8
0
 10
190.62059474191511
 20
196.03217446159931
 30
0.0
 11
190.62059474191511
 21
197.43217446159909
 31
0.0
  0
ARC
  5
4B5
  8
0
 10
190.92059474191529
 20
197.4321744615992
 30
0.0
 40
0.300000000000125
 50
90.000000000010857
 51
180.0000000000108
  0
LINE
  5
4B6
  8
0
 10
190.92059474191521
 20
197.7321744615993
 30
0.0
 11
191.8205947419151
 21
197.7321744615993
 31
0.0
  0
ARC
  5
4B7
  8
0
 10
191.8205947419151
 20
198.03217446159931
 30
0.0
 40
0.2999999999999545
 50
270.0
 51
0.0
  0
LINE
  5
4B8
  8
0
 10
192.120594741915
 20
198.03217446159931
 30
0.0
 11
192.120594741915
 21
199.28217446162679
 31
0.0
  0
ARC
  5
4B9
  8
0
 10
191.120594741915
 20
199.28217446162679
 30
0.0
 40
0.9999999999999965
 50
359.9999999999996
 51
90.000000000000185
  0
LINE
  5
4BA
  8
0
 10
191.120594741915
 20
200.28217446162679
 30
0.0
 11
189.427448991402
 21
200.28217446162679
 31
0.0
  0
ARC
  5
4BB
  8
0
 10
189.4274489914022
 20
197.28217446162679
 30
0.0
 40
3.0000000000000142
 50
90.000000000003652
 51
135.0000000000027
  0
LINE
  5
4BC
  8
0
 10
187.3061286478424
 20
199.40349480518631
 30
0.0
 11
184.74927439835551
 21
196.84664055569951
 31
0.0
  0
ARC
  5
4BD
  8
0
 10
186.87059474191531
 20
194.72532021213979
 30
0.0
 40
3.0000000000001319
 50
135.00000000000151
 51
180.00000000000111
  0
LINE
  5
4BE
  8
0
 10
183.8705947419152
 20
194.72532021213979
 30
0.0
 11
183.8705947419152
 21
189.53902871108619
 31
0.0
  0
ARC
  5
4BF
  8
0
 10
186.8705947419167
 20
189.53902871108659
 30
0.0
 40
3.0000000000015561
 50
180.00000000000759
 51
225.00000000000799
  0
LINE
  5
4C0
  8
0
 10
184.74927439835631
 20
187.41770836752551
 30
0.0
 11
187.30612864784311
 21
184.8608541180389
 31
0.0
  0
ARC
  5
4C1
  8
0
 10
189.42744899140291
 20
186.9821744615985
 30
0.0
 40
3.0000000000000688
 50
224.99999999999719
 51
269.99999999999778
  0
LINE
  5
4C2
  8
0
 10
189.4274489914028
 20
183.98217446159839
 30
0.0
 11
191.12059474191591
 21
183.98217446159839
 31
0.0
  0
ARC
  5
4C3
  8
0
 10
191.12059474191591
 20
184.98217446159839
 30
0.0
 40
1.0
 50
270.0
 51
0.0
  0
LINE
  5
4C4
  8
0
 10
192.12059474191591
 20
184.98217446159839
 30
0.0
 11
192.12059474191591
 21
186.23217446159839
 31
0.0
  0
ARC
  5
4C5
  8
0
 10
191.82059474191601
 20
186.23217446159839
 30
0.0
 40
0.2999999999999829
 50
359.99999999999449
 51
89.999999999994586
  0
LINE
  5
4C6
  8
0
 10
191.82059474191601
 20
186.5321744615984
 30
0.0
 11
190.92059474191589
 21
186.5321744615984
 31
0.0
  0
ARC
  5
4C7
  8
0
 10
190.92059474191589
 20
186.8321744615983
 30
0.0
 40
0.2999999999999545
 50
180.0
 51
270.0
  0
LINE
  5
4C8
  8
0
 10
190.62059474191591
 20
186.8321744615983
 30
0.0
 11
190.62059474191591
 21
188.23217446159839
 31
0.0
  0
LINE
  5
4C9
  8
0
 10
181.72059474188219
 20
204.93217446163209
 30
0.0
 11
181.72059474188231
 21
206.13217446162651
 31
0.0
  0
ARC
  5
4CA
  8
0
 10
182.72059474188231
 20
206.13217446162651
 30
0.0
 40
1.0
 50
90.0
 51
179.9999999999992
  0
LINE
  5
4CB
  8
0
 10
182.72059474188231
 20
207.13217446162651
 30
0.0
 11
190.62059474190951
 21
207.13217446162651
 31
0.0
  0
ARC
  5
4CC
  8
0
 10
190.62059474190951
 20
204.13217446162651
 30
0.0
 40
3.0
 50
0.0
 51
89.999999999999915
  0
LINE
  5
4CD
  8
0
 10
193.62059474190951
 20
204.13217446162651
 30
0.0
 11
193.62059474190951
 21
150.13217446162651
 31
0.0
  0
ARC
  5
4CE
  8
0
 10
190.62059474190951
 20
150.13217446162651
 30
0.0
 40
3.0
 50
269.99999999999977
 51
0.0
  0
LINE
  5
4CF
  8
0
 10
190.62059474190951
 20
147.13217446162651
 30
0.0
 11
182.72059474190951
 21
147.13217446162651
 31
0.0
  0
ARC
  5
4D0
  8
0
 10
182.72059474190951
 20
148.13217446162651
 30
0.0
 40
1.0
 50
180.00000000000071
 51
270.0
  0
LINE
  5
4D1
  8
0
 10
181.72059474190951
 20
148.13217446162651
 30
0.0
 11
181.72059474190951
 21
149.33217446159381
 31
0.0
  0
ARC
  5
4D2
  8
0
 10
182.52059474190949
 20
149.33217446159381
 30
0.0
 40
0.8000000000000042
 50
89.999999999999474
 51
179.9999999999996
  0
LINE
  5
4D3
  8
0
 10
182.52059474190949
 20
150.13217446159379
 30
0.0
 11
183.9205947419095
 21
150.13217446159371
 31
0.0
  0
ARC
  5
4D4
  8
0
 10
183.9205947419095
 20
149.8321744615937
 30
0.0
 40
0.3000000000000114
 50
359.99999999998909
 51
89.999999999989143
  0
LINE
  5
4D5
  8
0
 10
184.22059474190951
 20
149.8321744615937
 30
0.0
 11
184.22059474190951
 21
148.93217446159369
 31
0.0
  0
ARC
  5
4D6
  8
0
 10
184.52059474190949
 20
148.93217446159369
 30
0.0
 40
0.2999999999999829
 50
179.99999999999449
 51
269.99999999999449
  0
LINE
  5
4D7
  8
0
 10
184.52059474190941
 20
148.63217446159371
 30
0.0
 11
185.77059474190969
 21
148.63217446159371
 31
0.0
  0
ARC
  5
4D8
  8
0
 10
185.77059474190969
 20
149.63217446159371
 30
0.0
 40
1.0
 50
270.0
 51
0.0
  0
LINE
  5
4D9
  8
0
 10
186.77059474190969
 20
149.63217446159371
 30
0.0
 11
186.77059474190969
 21
151.3253202121067
 31
0.0
  0
ARC
  5
4DA
  8
0
 10
183.7705947419096
 20
151.3253202121067
 30
0.0
 40
3.0000000000000351
 50
0.0000000000000339
 51
44.999999999999439
  0
LINE
  5
4DB
  8
0
 10
185.89191508546929
 20
153.44664055566631
 30
0.0
 11
183.3350608359824
 21
156.00349480515331
 31
0.0
  0
ARC
  5
4DC
  8
0
 10
181.21374049242249
 20
153.88217446159371
 30
0.0
 40
3.0000000000000782
 50
44.999999999996817
 51
89.999999999997215
  0
LINE
  5
4DD
  8
0
 10
181.21374049242269
 20
156.88217446159379
 30
0.0
 11
176.027448991369
 21
156.88217446159371
 31
0.0
  0
ARC
  5
4DE
  8
0
 10
176.027448991369
 20
153.88217446159371
 30
0.0
 40
3.0000000000000422
 50
90.000000000000185
 51
134.99999999999989
  0
LINE
  5
4DF
  8
0
 10
173.9061286478094
 20
156.00349480515339
 30
0.0
 11
171.34927439832271
 21
153.44664055566639
 31
0.0
  0
ARC
  5
4E0
  8
0
 10
173.47059474188191
 20
151.32532021210659
 30
0.0
 40
2.9999999999998739
 50
134.99999999999261
 51
179.9999999999938
  0
LINE
  5
4E1
  8
0
 10
170.47059474188211
 20
151.32532021210699
 30
0.0
 11
170.47059474188211
 21
149.63217446159351
 31
0.0
  0
ARC
  5
4E2
  8
0
 10
171.47059474188211
 20
149.63217446159351
 30
0.0
 40
1.0000000000000711
 50
180.00000000000159
 51
270.0000000000033
  0
LINE
  5
4E3
  8
0
 10
171.47059474188219
 20
148.63217446159351
 30
0.0
 11
172.72059474190951
 21
148.63217446159371
 31
0.0
  0
ARC
  5
4E4
  8
0
 10
172.72059474190951
 20
148.93217446159369
 30
0.0
 40
0.2999999999999829
 50
270.00000000000551
 51
0.0000000000054281
  0
LINE
  5
4E5
  8
0
 10
173.02059474190941
 20
148.93217446159369
 30
0.0
 11
173.0205947419096
 21
149.8321744615935
 31
0.0
  0
ARC
  5
4E6
  8
0
 10
173.3205947419097
 20
149.8321744615937
 30
0.0
 40
0.300000000000125
 50
90.000000000032571
 51
180.00000000003249
  0
LINE
  5
4E7
  8
0
 10
173.3205947419095
 20
150.13217446159391
 30
0.0
 11
174.72059474190939
 21
150.13217446159371
 31
0.0
  0
ARC
  5
4E8
  8
0
 10
174.72059474190951
 20
149.33217446159381
 30
0.0
 40
0.7999999999999777
 50
0.0000000000016539
 51
90.000000000001648
  0
LINE
  5
4E9
  8
0
 10
175.52059474190941
 20
149.33217446159381
 30
0.0
 11
175.52059474190941
 21
148.13217446162651
 31
0.0
  0
ARC
  5
4EA
  8
0
 10
174.52059474190941
 20
148.13217446162651
 30
0.0
 40
1.0
 50
270.0
 51
0.0000000000007888
  0
LINE
  5
4EB
  8
0
 10
174.52059474190941
 20
147.13217446162651
 30
0.0
 11
166.62059474190951
 21
147.13217446162651
 31
0.0
  0
ARC
  5
4EC
  8
0
 10
166.62059474190951
 20
150.13217446162651
 30
0.0
 40
2.9999999999999991
 50
180.00000000000011
 51
270.0
  0
LINE
  5
4ED
  8
0
 10
163.62059474190951
 20
150.13217446162651
 30
0.0
 11
163.6205947419094
 21
158.03217446162569
 31
0.0
  0
ARC
  5
4EE
  8
0
 10
164.6205947419094
 20
158.03217446162569
 30
0.0
 40
1.0
 50
90.0
 51
180.0
  0
LINE
  5
4EF
  8
0
 10
164.6205947419094
 20
159.03217446162569
 30
0.0
 11
165.82059474187739
 21
159.03217446162569
 31
0.0
  0
ARC
  5
4F0
  8
0
 10
165.82059474187739
 20
158.2321744616257
 30
0.0
 40
0.799999999999976
 50
0.0000000000015267
 51
90.000000000001606
  0
LINE
  5
4F1
  8
0
 10
166.6205947418774
 20
158.2321744616257
 30
0.0
 11
166.6205947418774
 21
156.83217446162561
 31
0.0
  0
ARC
  5
4F2
  8
0
 10
166.3205947418775
 20
156.83217446162561
 30
0.0
 40
0.2999999999999545
 50
270.0
 51
0.0
  0
LINE
  5
4F3
  8
0
 10
166.3205947418775
 20
156.53217446162569
 30
0.0
 11
165.4205947418773
 21
156.53217446162591
 31
0.0
  0
ARC
  5
4F4
  8
0
 10
165.42059474187749
 20
156.23217446162579
 30
0.0
 40
0.3000000000000966
 50
90.000000000027143
 51
180.00000000002709
  0
LINE
  5
4F5
  8
0
 10
165.1205947418774
 20
156.23217446162559
 30
0.0
 11
165.1205947418774
 21
154.9821744616255
 31
0.0
  0
ARC
  5
4F6
  8
0
 10
166.1205947418774
 20
154.9821744616255
 30
0.0
 40
0.9999999999999754
 50
179.9999999999998
 51
270.00000000000267
  0
LINE
  5
4F7
  8
0
 10
166.1205947418774
 20
153.9821744616255
 30
0.0
 11
167.81374049241791
 21
153.9821744616255
 31
0.0
  0
ARC
  5
4F8
  8
0
 10
167.81374049241759
 20
156.9821744616255
 30
0.0
 40
2.9999999999999889
 50
270.00000000000432
 51
315.00000000000381
  0
LINE
  5
4F9
  8
0
 10
169.9350608359774
 20
154.86085411806599
 30
0.0
 11
172.49191508543711
 21
157.41770836752551
 31
0.0
  0
ARC
  5
4FA
  8
0
 10
170.370594741876
 20
159.5390287110846
 30
0.0
 40
3.0000000000006199
 50
315.00000000002632
 51
0.0000000000259533
  0
LINE
  5
4FB
  8
0
 10
173.3705947418766
 20
159.5390287110859
 30
0.0
 11
173.3705947418766
 21
164.72532021213971
 31
0.0
  0
ARC
  5
4FC
  8
0
 10
170.37059474187649
 20
164.72532021213979
 30
0.0
 40
3.000000000000139
 50
359.99999999999761
 51
44.999999999997989
  0
LINE
  5
4FD
  8
0
 10
172.49191508543629
 20
166.84664055569951
 30
0.0
 11
169.9350608359222
 21
169.4034948052136
 31
0.0
  0
ARC
  5
4FE
  8
0
 10
167.81374049236271
 20
167.28217446165391
 30
0.0
 40
2.9999999999999249
 50
45.000000000004107
 51
90.000000000004064
  0
LINE
  5
4FF
  8
0
 10
167.81374049236251
 20
170.2821744616538
 30
0.0
 11
166.12059474187669
 21
170.28217446165391
 31
0.0
  0
ARC
  5
500
  8
0
 10
166.12059474187669
 20
169.28217446165391
 30
0.0
 40
1.0000000000000031
 50
90.000000000000185
 51
179.9999999999998
  0
LINE
  5
501
  8
0
 10
165.12059474187669
 20
169.28217446165391
 30
0.0
 11
165.1205947418766
 21
168.0321744616266
 31
0.0
  0
ARC
  5
502
  8
0
 10
165.4205947418765
 20
168.0321744616266
 30
0.0
 40
0.2999999999999545
 50
180.0
 51
270.0
  0
LINE
  5
503
  8
0
 10
165.4205947418765
 20
167.73217446162661
 30
0.0
 11
166.3205947418765
 21
167.73217446162661
 31
0.0
  0
ARC
  5
504
  8
0
 10
166.3205947418765
 20
167.43217446162649
 30
0.0
 40
0.300000000000125
 50
359.99999999998909
 51
89.999999999989143
  0
LINE
  5
505
  8
0
 10
166.6205947418766
 20
167.4321744616264
 30
0.0
 11
166.6205947418766
 21
166.0321744616266
 31
0.0
  0
ARC
  5
506
  8
0
 10
165.82059474187659
 20
166.0321744616266
 30
0.0
 40
0.800000000000006
 50
269.9999999999996
 51
359.99999999999949
  0
LINE
  5
507
  8
0
 10
165.82059474187659
 20
165.23217446162661
 30
0.0
 11
164.62059474190951
 21
165.23217446162661
 31
0.0
  0
ARC
  5
508
  8
0
 10
164.62059474190951
 20
166.23217446162661
 30
0.0
 40
1.0
 50
180.0
 51
270.0
  0
LINE
  5
509
  8
0
 10
163.62059474190951
 20
166.23217446162661
 30
0.0
 11
163.6205947419094
 21
188.03217446162569
 31
0.0
  0
ARC
  5
50A
  8
0
 10
164.6205947419094
 20
188.03217446162569
 30
0.0
 40
0.9999999999999992
 50
89.999999999999957
 51
180.0
  0
LINE
  5
50B
  8
0
 10
164.6205947419094
 20
189.0321744616256
 30
0.0
 11
165.82059474187739
 21
189.0321744616256
 31
0.0
  0
ARC
  5
50C
  8
0
 10
165.82059474187739
 20
188.2321744616257
 30
0.0
 40
0.799999999999976
 50
0.0000000000015267
 51
90.000000000001606
  0
LINE
  5
50D
  8
0
 10
166.6205947418774
 20
188.2321744616257
 30
0.0
 11
166.6205947418774
 21
186.83217446162561
 31
0.0
  0
ARC
  5
50E
  8
0
 10
166.3205947418775
 20
186.83217446162561
 30
0.0
 40
0.2999999999999545
 50
270.0
 51
0.0
  0
LINE
  5
50F
  8
0
 10
166.3205947418775
 20
186.53217446162569
 30
0.0
 11
165.4205947418773
 21
186.53217446162591
 31
0.0
  0
ARC
  5
510
  8
0
 10
165.42059474187749
 20
186.23217446162579
 30
0.0
 40
0.3000000000000966
 50
90.000000000027143
 51
180.00000000002709
  0
LINE
  5
511
  8
0
 10
165.1205947418774
 20
186.2321744616257
 30
0.0
 11
165.1205947418774
 21
184.9821744616255
 31
0.0
  0
ARC
  5
512
  8
0
 10
166.1205947418774
 20
184.9821744616255
 30
0.0
 40
0.9999999999999754
 50
180.0
 51
270.00000000000267
  0
LINE
  5
513
  8
0
 10
166.1205947418774
 20
183.9821744616255
 30
0.0
 11
167.81374049241791
 21
183.9821744616255
 31
0.0
  0
ARC
  5
514
  8
0
 10
167.81374049241759
 20
186.9821744616255
 30
0.0
 40
2.9999999999999849
 50
270.00000000000432
 51
315.00000000000392
  0
LINE
  5
515
  8
0
 10
169.9350608359774
 20
184.86085411806599
 30
0.0
 11
172.49191508543711
 21
187.41770836752551
 31
0.0
  0
ARC
  5
516
  8
0
 10
170.370594741876
 20
189.5390287110846
 30
0.0
 40
3.0000000000006239
 50
315.00000000002632
 51
0.0000000000259194
  0
LINE
  5
517
  8
0
 10
173.3705947418766
 20
189.5390287110859
 30
0.0
 11
173.3705947418766
 21
194.72532021213971
 31
0.0
  0
ARC
  5
518
  8
0
 10
170.37059474187649
 20
194.72532021213979
 30
0.0
 40
3.0000000000001452
 50
359.99999999999773
 51
44.999999999998053
  0
LINE
  5
519
  8
0
 10
172.49191508543629
 20
196.84664055569951
 30
0.0
 11
169.9350608359222
 21
199.4034948052136
 31
0.0
  0
ARC
  5
51A
  8
0
 10
167.81374049236271
 20
197.28217446165391
 30
0.0
 40
2.9999999999999272
 50
45.000000000004142
 51
90.000000000004064
  0
LINE
  5
51B
  8
0
 10
167.81374049236251
 20
200.2821744616538
 30
0.0
 11
166.12059474187669
 21
200.28217446165391
 31
0.0
  0
ARC
  5
51C
  8
0
 10
166.12059474187669
 20
199.28217446165391
 30
0.0
 40
1.0000000000000071
 50
90.0
 51
179.9999999999992
  0
LINE
  5
51D
  8
0
 10
165.12059474187669
 20
199.28217446165391
 30
0.0
 11
165.1205947418766
 21
198.0321744616266
 31
0.0
  0
ARC
  5
51E
  8
0
 10
165.4205947418765
 20
198.0321744616266
 30
0.0
 40
0.2999999999999545
 50
180.0
 51
270.0
  0
LINE
  5
51F
  8
0
 10
165.4205947418765
 20
197.73217446162661
 30
0.0
 11
166.3205947418765
 21
197.73217446162661
 31
0.0
  0
ARC
  5
520
  8
0
 10
166.3205947418765
 20
197.43217446162649
 30
0.0
 40
0.300000000000125
 50
359.99999999998909
 51
89.999999999989143
  0
LINE
  5
521
  8
0
 10
166.6205947418766
 20
197.4321744616264
 30
0.0
 11
166.6205947418766
 21
196.0321744616266
 31
0.0
  0
ARC
  5
522
  8
0
 10
165.82059474187659
 20
196.0321744616266
 30
0.0
 40
0.8000000000000042
 50
269.99999999999949
 51
359.99999999999949
  0
LINE
  5
523
  8
0
 10
165.82059474187659
 20
195.23217446162661
 30
0.0
 11
164.6205947419094
 21
195.23217446162661
 31
0.0
  0
ARC
  5
524
  8
0
 10
164.6205947419094
 20
196.23217446162661
 30
0.0
 40
1.0
 50
180.0
 51
270.0
  0
LINE
  5
525
  8
0
 10
163.6205947419094
 20
196.23217446162661
 30
0.0
 11
163.6205947419094
 21
204.13217446162651
 31
0.0
  0
ARC
  5
526
  8
0
 10
166.6205947419094
 20
204.13217446162651
 30
0.0
 40
3.0
 50
89.999999999999844
 51
180.0
  0
LINE
  5
527
  8
0
 10
166.6205947419094
 20
207.13217446162651
 30
0.0
 11
174.52059474188229
 21
207.13217446162639
 31
0.0
  0
ARC
  5
528
  8
0
 10
174.52059474188229
 20
206.13217446162651
 30
0.0
 40
1.0
 50
0.0
 51
90.0
  0
LINE
  5
529
  8
0
 10
175.52059474188229
 20
206.13217446162651
 30
0.0
 11
175.52059474188229
 21
204.93217446163209
 31
0.0
  0
ARC
  5
52A
  8
0
 10
174.72059474188231
 20
204.93217446163209
 30
0.0
 40
0.8000000000000042
 50
269.99999999999949
 51
359.99999999999949
  0
LINE
  5
52B
  8
0
 10
174.72059474188231
 20
204.1321744616321
 30
0.0
 11
173.32059474188219
 21
204.13217446163219
 31
0.0
  0
ARC
  5
52C
  8
0
 10
173.32059474188219
 20
204.43217446163209
 30
0.0
 40
0.2999999999999545
 50
180.0
 51
270.0
  0
LINE
  5
52D
  8
0
 10
173.02059474188229
 20
204.43217446163209
 30
0.0
 11
173.02059474188221
 21
205.33217446163221
 31
0.0
  0
ARC
  5
52E
  8
0
 10
172.72059474188219
 20
205.33217446163221
 30
0.0
 40
0.2999999999999545
 50
0.0
 51
90.0
  0
LINE
  5
52F
  8
0
 10
172.72059474188219
 20
205.63217446163219
 30
0.0
 11
171.47059474190939
 21
205.63217446163219
 31
0.0
  0
ARC
  5
530
  8
0
 10
171.47059474190939
 20
204.63217446163219
 30
0.0
 40
1.0
 50
90.0
 51
180.0
  0
LINE
  5
531
  8
0
 10
170.47059474190939
 20
204.63217446163219
 30
0.0
 11
170.47059474190931
 21
202.93902871109171
 31
0.0
  0
ARC
  5
532
  8
0
 10
173.4705947419092
 20
202.93902871109171
 30
0.0
 40
2.9999999999999161
 50
180.00000000000051
 51
225.0000000000006
  0
LINE
  5
533
  8
0
 10
171.34927439834959
 20
200.81770836753219
 30
0.0
 11
173.9061286478094
 21
198.26085411807239
 31
0.0
  0
ARC
  5
534
  8
0
 10
176.0274489913688
 20
200.38217446163219
 30
0.0
 40
2.9999999999999001
 50
225.00000000000469
 51
270.00000000000512
  0
LINE
  5
535
  8
0
 10
176.027448991369
 20
197.38217446163219
 30
0.0
 11
181.21374049242269
 21
197.38217446163219
 31
0.0
  0
ARC
  5
536
  8
0
 10
181.2137404924226
 20
200.3821744616323
 30
0.0
 40
3.000000000000099
 50
270.0000000000029
 51
315.00000000000261
  0
LINE
  5
537
  8
0
 10
183.3350608359824
 20
198.2608541180727
 30
0.0
 11
185.89191508549649
 21
200.8177083675867
 31
0.0
  0
ARC
  5
538
  8
0
 10
183.7705947419368
 20
202.93902871114619
 30
0.0
 40
2.9999999999999378
 50
315.00000000000341
 51
0.0000000000033926
  0
LINE
  5
539
  8
0
 10
186.77059474193669
 20
202.93902871114639
 30
0.0
 11
186.77059474193669
 21
204.63217446163219
 31
0.0
  0
ARC
  5
53A
  8
0
 10
185.77059474193669
 20
204.63217446163219
 30
0.0
 40
0.9999999999999857
 50
0.0
 51
90.000000000001606
  0
LINE
  5
53B
  8
0
 10
185.77059474193669
 20
205.63217446163219
 30
0.0
 11
184.52059474188221
 21
205.63217446163219
 31
0.0
  0
ARC
  5
53C
  8
0
 10
184.52059474188221
 20
205.33217446163221
 30
0.0
 40
0.2999999999999545
 50
90.0
 51
180.0
  0
LINE
  5
53D
  8
0
 10
184.22059474188219
 20
205.33217446163221
 30
0.0
 11
184.22059474188219
 21
204.43217446163209
 31
0.0
  0
ARC
  5
53E
  8
0
 10
183.92059474188221
 20
204.43217446163209
 30
0.0
 40
0.2999999999999545
 50
270.0
 51
0.0
  0
LINE
  5
53F
  8
0
 10
183.92059474188221
 20
204.13217446163219
 30
0.0
 11
182.52059474188221
 21
204.13217446163219
 31
0.0
  0
ARC
  5
540
  8
0
 10
182.52059474188221
 20
204.9321744616322
 30
0.0
 40
0.799999999999983
 50
180.00000000000199
 51
270.0000000000021
  0
LINE
  5
541
  8
0
 10
165.1205947418822
 20
152.18217446162919
 30
0.0
 11
165.1205947418822
 21
150.13217446162651
 31
0.0
  0
ARC
  5
542
  8
0
 10
166.6205947418822
 20
150.13217446162651
 30
0.0
 40
1.5000000000000151
 50
180.0000000000006
 51
269.99999999999937
  0
LINE
  5
543
  8
0
 10
166.6205947418822
 20
148.63217446162651
 30
0.0
 11
168.6705947418821
 21
148.6321744616267
 31
0.0
  0
ARC
  5
544
  8
0
 10
168.6705947418821
 20
148.93217446162669
 30
0.0
 40
0.2999999999999545
 50
270.0
 51
0.0
  0
LINE
  5
545
  8
0
 10
168.97059474188211
 20
148.93217446162669
 30
0.0
 11
168.97059474188211
 21
152.18217446162191
 31
0.0
  0
ARC
  5
546
  8
0
 10
168.67059474188201
 20
152.182174461622
 30
0.0
 40
0.3000000000000629
 50
359.99999999997732
 51
89.999999999849024
  0
LINE
  5
547
  8
0
 10
168.67059474188281
 20
152.48217446162209
 30
0.0
 11
165.42059474188281
 21
152.48217446162911
 31
0.0
  0
ARC
  5
548
  8
0
 10
165.4205947418821
 20
152.18217446162919
 30
0.0
 40
0.299999999999959
 50
89.99999999987061
 51
179.99999999999909
  0
ARC
  5
549
  8
0
 10
167.62059474190849
 20
179.9821744616255
 30
0.0
 40
2.0
 50
90.0
 51
180.0
  0
LINE
  5
54A
  8
0
 10
167.62059474190849
 20
181.9821744616255
 30
0.0
 11
167.8137404923871
 21
181.9821744616255
 31
0.0
  0
ARC
  5
54B
  8
0
 10
167.81374049238701
 20
186.9821744616255
 30
0.0
 40
5.0000000000000071
 50
270.00000000000199
 51
315.00000000000142
  0
LINE
  5
54C
  8
0
 10
171.34927439831981
 20
183.4466405556928
 30
0.0
 11
173.9061286478094
 21
186.00349480518241
 31
0.0
  0
ARC
  5
54D
  8
0
 10
176.02744899136891
 20
183.8821744616227
 30
0.0
 40
2.9999999999999281
 50
89.999999999996604
 51
134.99999999999699
  0
LINE
  5
54E
  8
0
 10
176.027448991369
 20
186.88217446162261
 30
0.0
 11
181.21374049242269
 21
186.88217446162261
 31
0.0
  0
ARC
  5
54F
  8
0
 10
181.2137404924226
 20
183.8821744616225
 30
0.0
 40
3.0000000000000848
 50
44.999999999998082
 51
89.999999999997826
  0
LINE
  5
550
  8
0
 10
183.3350608359824
 20
186.00349480518221
 30
0.0
 11
185.89191508549891
 21
183.44664055566579
 31
0.0
  0
ARC
  5
551
  8
0
 10
189.4274489914317
 20
186.98217446159839
 30
0.0
 40
4.999999999999984
 50
224.99999999999849
 51
270.00000000000068
  0
LINE
  5
552
  8
0
 10
189.42744899143179
 20
181.98217446159839
 30
0.0
 11
189.62059474190869
 21
181.98217446159839
 31
0.0
  0
ARC
  5
553
  8
0
 10
189.62059474190869
 20
179.98217446159839
 30
0.0
 40
1.9999999999999849
 50
359.9999999999996
 51
90.000000000000398
  0
LINE
  5
554
  8
0
 10
191.62059474190869
 20
179.98217446159839
 30
0.0
 11
191.62059474190869
 21
174.28217446162679
 31
0.0
  0
ARC
  5
555
  8
0
 10
189.62059474190869
 20
174.28217446162679
 30
0.0
 40
1.9999999999999849
 50
269.9999999999996
 51
0.0000000000004071
  0
LINE
  5
556
  8
0
 10
189.62059474190869
 20
172.28217446162679
 30
0.0
 11
189.42744899137321
 21
172.28217446162679
 31
0.0
  0
ARC
  5
557
  8
0
 10
189.4274489913733
 20
167.28217446162671
 30
0.0
 40
5.0000000000000417
 50
90.000000000000867
 51
135.00000000000111
  0
LINE
  5
558
  8
0
 10
185.89191508544039
 20
170.81770836755939
 30
0.0
 11
183.3350608359824
 21
168.26085411810149
 31
0.0
  0
ARC
  5
559
  8
0
 10
181.21374049242269
 20
170.3821744616609
 30
0.0
 40
2.999999999999909
 50
270.00000000000301
 51
315.00000000000341
  0
LINE
  5
55A
  8
0
 10
181.2137404924228
 20
167.38217446166101
 30
0.0
 11
176.027448991369
 21
167.38217446166101
 31
0.0
  0
ARC
  5
55B
  8
0
 10
176.02744899136911
 20
170.38217446166109
 30
0.0
 40
3.0000000000000879
 50
224.9999999999981
 51
269.99999999999778
  0
LINE
  5
55C
  8
0
 10
173.9061286478094
 20
168.26085411810149
 30
0.0
 11
171.3492743983241
 21
170.8177083675867
 31
0.0
  0
ARC
  5
55D
  8
0
 10
167.81374049239159
 20
167.28217446165391
 30
0.0
 40
4.9999999999999432
 50
45.000000000002032
 51
90.000000000002217
  0
LINE
  5
55E
  8
0
 10
167.81374049239139
 20
172.2821744616538
 30
0.0
 11
167.62059474190869
 21
172.2821744616538
 31
0.0
  0
ARC
  5
55F
  8
0
 10
167.6205947419086
 20
174.28217446165391
 30
0.0
 40
2.0000000000000311
 50
180.00000000000091
 51
270.00000000000227
  0
LINE
  5
560
  8
0
 10
165.6205947419086
 20
174.28217446165391
 30
0.0
 11
165.6205947419086
 21
179.9821744616255
 31
0.0
  0
ARC
  5
561
  8
0
 10
191.42059474191589
 20
158.23217446159839
 30
0.0
 40
0.7999999999999794
 50
89.999999999998494
 51
179.99999999999829
  0
LINE
  5
562
  8
0
 10
191.42059474191589
 20
159.0321744615984
 30
0.0
 11
192.52021387389831
 21
159.0321744615984
 31
0.0
  0
ARC
  5
563
  8
0
 10
192.52021387389831
 20
159.1321744615984
 30
0.0
 40
0.1000000000000103
 50
269.99999999999193
 51
359.99999999999392
  0
LINE
  5
564
  8
0
 10
192.62021387389831
 20
159.1321744615984
 30
0.0
 11
192.62021387389831
 21
165.13217446159931
 31
0.0
  0
ARC
  5
565
  8
0
 10
192.52021387389831
 20
165.13217446159931
 30
0.0
 40
0.0999999999999979
 50
0.0000000000020356
 51
90.000000000002046
  0
LINE
  5
566
  8
0
 10
192.52021387389831
 20
165.2321744615993
 30
0.0
 11
191.42059474191521
 21
165.2321744615993
 31
0.0
  0
ARC
  5
567
  8
0
 10
191.42059474191521
 20
166.03217446159931
 30
0.0
 40
0.8000000000000078
 50
180.00000000000051
 51
270.00000000000051
  0
LINE
  5
568
  8
0
 10
190.62059474191511
 20
166.03217446159931
 30
0.0
 11
190.62059474191511
 21
167.43217446159909
 31
0.0
  0
ARC
  5
569
  8
0
 10
190.92059474191529
 20
167.4321744615992
 30
0.0
 40
0.300000000000125
 50
90.000000000010857
 51
180.0000000000108
  0
LINE
  5
56A
  8
0
 10
190.92059474191521
 20
167.7321744615993
 30
0.0
 11
191.8205947419151
 21
167.7321744615993
 31
0.0
  0
ARC
  5
56B
  8
0
 10
191.8205947419151
 20
168.03217446159931
 30
0.0
 40
0.2999999999999545
 50
270.0
 51
0.0
  0
LINE
  5
56C
  8
0
 10
192.120594741915
 20
168.03217446159931
 30
0.0
 11
192.120594741915
 21
169.28217446162679
 31
0.0
  0
ARC
  5
56D
  8
0
 10
191.120594741915
 20
169.28217446162679
 30
0.0
 40
0.9999999999999965
 50
0.0
 51
90.000000000000185
  0
LINE
  5
56E
  8
0
 10
191.120594741915
 20
170.28217446162679
 30
0.0
 11
189.427448991402
 21
170.28217446162679
 31
0.0
  0
ARC
  5
56F
  8
0
 10
189.4274489914022
 20
167.28217446162679
 30
0.0
 40
3.0000000000000142
 50
90.000000000003794
 51
135.0000000000029
  0
LINE
  5
570
  8
0
 10
187.3061286478424
 20
169.40349480518631
 30
0.0
 11
184.74927439835551
 21
166.84664055569951
 31
0.0
  0
ARC
  5
571
  8
0
 10
186.87059474191531
 20
164.72532021213979
 30
0.0
 40
3.0000000000001319
 50
135.00000000000159
 51
180.00000000000131
  0
LINE
  5
572
  8
0
 10
183.8705947419152
 20
164.72532021213979
 30
0.0
 11
183.8705947419152
 21
159.53902871108619
 31
0.0
  0
ARC
  5
573
  8
0
 10
186.8705947419167
 20
159.53902871108659
 30
0.0
 40
3.0000000000015561
 50
180.00000000000759
 51
225.0000000000081
  0
LINE
  5
574
  8
0
 10
184.74927439835631
 20
157.41770836752551
 30
0.0
 11
187.30612864784311
 21
154.8608541180389
 31
0.0
  0
ARC
  5
575
  8
0
 10
189.42744899140291
 20
156.9821744615985
 30
0.0
 40
3.0000000000000671
 50
224.99999999999719
 51
269.99999999999778
  0
LINE
  5
576
  8
0
 10
189.4274489914028
 20
153.98217446159839
 30
0.0
 11
191.12059474191591
 21
153.98217446159839
 31
0.0
  0
ARC
  5
577
  8
0
 10
191.12059474191591
 20
154.98217446159839
 30
0.0
 40
1.0
 50
270.0
 51
0.0
  0
LINE
  5
578
  8
0
 10
192.12059474191591
 20
154.98217446159839
 30
0.0
 11
192.12059474191591
 21
156.23217446159839
 31
0.0
  0
ARC
  5
579
  8
0
 10
191.82059474191601
 20
156.23217446159839
 30
0.0
 40
0.2999999999999829
 50
359.99999999999449
 51
89.999999999994586
  0
LINE
  5
57A
  8
0
 10
191.82059474191601
 20
156.5321744615984
 30
0.0
 11
190.92059474191589
 21
156.5321744615984
 31
0.0
  0
ARC
  5
57B
  8
0
 10
190.92059474191589
 20
156.8321744615983
 30
0.0
 40
0.2999999999999527
 50
179.9999999999996
 51
270.0
  0
LINE
  5
57C
  8
0
 10
190.62059474191591
 20
156.8321744615983
 30
0.0
 11
190.62059474191591
 21
158.23217446159839
 31
0.0
  0
ARC
  5
57D
  8
0
 10
190.62059474190951
 20
150.13217446159919
 30
0.0
 40
1.5000000000000151
 50
270.00000000000063
 51
359.99999999999937
  0
LINE
  5
57E
  8
0
 10
192.12059474190951
 20
150.13217446159919
 30
0.0
 11
192.12059474190951
 21
152.1821744615992
 31
0.0
  0
ARC
  5
57F
  8
0
 10
191.82059474190939
 20
152.18217446159929
 30
0.0
 40
0.3000000000000682
 50
359.99999999997829
 51
89.999999999978286
  0
LINE
  5
580
  8
0
 10
191.8205947419095
 20
152.4821744615993
 30
0.0
 11
188.57059474191411
 21
152.4821744615993
 31
0.0
  0
ARC
  5
581
  8
0
 10
188.57059474191411
 20
152.1821744615994
 30
0.0
 40
0.2999999999999465
 50
89.999999999998636
 51
179.99999999987119
  0
LINE
  5
582
  8
0
 10
188.2705947419141
 20
152.18217446160011
 30
0.0
 11
188.27059474190679
 21
148.9321744615998
 31
0.0
  0
ARC
  5
583
  8
0
 10
188.5705947419068
 20
148.9321744615992
 30
0.0
 40
0.3000000000000114
 50
179.99999999988049
 51
270.0000000000108
  0
LINE
  5
584
  8
0
 10
188.57059474190689
 20
148.63217446159919
 30
0.0
 11
190.62059474190951
 21
148.63217446159919
 31
0.0
  0
ARC
  5
585
  8
0
 10
166.62059474190951
 20
204.13217446165379
 30
0.0
 40
1.500000000000014
 50
90.000000000000583
 51
179.9999999999994
  0
LINE
  5
586
  8
0
 10
165.12059474190951
 20
204.13217446165379
 30
0.0
 11
165.12059474190951
 21
202.08217446165381
 31
0.0
  0
ARC
  5
587
  8
0
 10
165.42059474190941
 20
202.08217446165381
 30
0.0
 40
0.299999999999955
 50
180.0
 51
269.99999999999989
  0
LINE
  5
588
  8
0
 10
165.42059474190941
 20
201.78217446165391
 30
0.0
 11
168.67059474190489
 21
201.78217446165391
 31
0.0
  0
ARC
  5
589
  8
0
 10
168.67059474190489
 20
202.08217446165381
 30
0.0
 40
0.2999999999999545
 50
269.99999999999932
 51
359.99999999986971
  0
LINE
  5
58A
  8
0
 10
168.97059474190479
 20
202.08217446165321
 30
0.0
 11
168.97059474191209
 21
205.3321744616531
 31
0.0
  0
ARC
  5
58B
  8
0
 10
168.670594741912
 20
205.33217446165389
 30
0.0
 40
0.3000000000000726
 50
359.999999999848
 51
89.999999999977447
  0
LINE
  5
58C
  8
0
 10
168.67059474191211
 20
205.63217446165399
 30
0.0
 11
166.62059474190951
 21
205.63217446165379
 31
0.0
  0
ARC
  5
58D
  8
0
 10
190.62059474193671
 20
204.13217446162651
 30
0.0
 40
1.500000000000014
 50
0.0000000000005428
 51
89.999999999999446
  0
LINE
  5
58E
  8
0
 10
190.62059474193671
 20
205.63217446162651
 30
0.0
 11
188.57059474193679
 21
205.6321744616267
 31
0.0
  0
ARC
  5
58F
  8
0
 10
188.5705947419369
 20
205.33217446162661
 30
0.0
 40
0.300000000000125
 50
90.000000000009521
 51
180.0000000000108
  0
LINE
  5
590
  8
0
 10
188.27059474193669
 20
205.33217446162649
 30
0.0
 11
188.27059474193669
 21
202.0821744616311
 31
0.0
  0
ARC
  5
591
  8
0
 10
188.5705947419367
 20
202.0821744616311
 30
0.0
 40
0.3000000000000043
 50
180.0000000000108
 51
269.99999999988188
  0
LINE
  5
592
  8
0
 10
188.57059474193611
 20
201.78217446163109
 30
0.0
 11
191.82059474193611
 21
201.78217446162381
 31
0.0
  0
ARC
  5
593
  8
0
 10
191.82059474193679
 20
202.08217446162379
 30
0.0
 40
0.2999999999999545
 50
269.99999999987108
 51
0.0
  0
LINE
  5
594
  8
0
 10
192.12059474193671
 20
202.08217446162379
 30
0.0
 11
192.12059474193671
 21
204.13217446162651
 31
0.0
  0
LINE
  5
598
  8
1
 10
178.62059474188229
 20
212.13217446162651
 30
0.0
 11
178.62059474188229
 21
142.13217446162651
 31
0.0
  0
LINE
  5
599
  8
1
 10
198.62059474190951
 20
177.13217446162651
 30
0.0
 11
158.6205947419094
 21
177.13217446162651
 31
0.0
  0
LINE
  5
59A
  8
1
 10
198.62059474190951
 20
192.13217446162651
 30
0.0
 11
158.6205947419094
 21
192.13217446162639
 31
0.0
  0
LINE
  5
59B
  8
1
 10
198.62059474190951
 20
162.13217446162651
 30
0.0
 11
158.6205947419094
 21
162.13217446162651
 31
0.0
  0
LINE
  5
59C
  8
1
 10
238.36068076840709
 20
192.13217446162631
 30
0.0
 11
298.36068076840712
 21
192.13217446162631
 31
0.0
  0
LINE
  5
59D
  8
1
 10
238.36068076840721
 20
177.13217446162639
 30
0.0
 11
298.36068076840718
 21
177.13217446162631
 31
0.0
  0
LINE
  5
59E
  8
1
 10
118.88050871535739
 20
177.13217446162639
 30
0.0
 11
58.880508715357387
 21
177.13217446162631
 31
0.0
  0
LINE
  5
59F
  8
1
 10
118.88050871535739
 20
192.13217446162631
 30
0.0
 11
58.88050871535745
 21
192.13217446162631
 31
0.0
  0
LINE
  5
5A0
  8
0
 10
113.88050871535729
 20
207.13217446162631
 30
0.0
 11
63.880508715357337
 21
207.13217446162631
 31
0.0
  0
LINE
  5
5A1
  8
1
 10
118.88050871535739
 20
162.13217446162651
 30
0.0
 11
58.88050871535745
 21
162.13217446162651
 31
0.0
  0
LINE
  5
5A2
  8
0
 10
113.88050871535739
 20
147.13217446162651
 30
0.0
 11
63.88050871535745
 21
147.13217446162651
 31
0.0
  0
LINE
  5
5A3
  8
0
 10
113.88050871535739
 20
147.13217446162651
 30
0.0
 11
113.88050871535729
 21
207.13217446162631
 31
0.0
  0
LINE
  5
5A4
  8
0
 10
63.88050871535745
 20
147.13217446162651
 30
0.0
 11
63.880508715357337
 21
207.13217446162631
 31
0.0
  0
LINE
  5
5A5
  8
0
 10
113.88050871535729
 20
195.2321744616265
 30
0.0
 11
63.880508715357358
 21
195.23217446162641
 31
0.0
  0
LINE
  5
5A6
  8
0
 10
113.88050871535729
 20
189.0321744616256
 30
0.0
 11
63.880508715357372
 21
189.03217446162549
 31
0.0
  0
LINE
  5
5A7
  8
0
 10
113.88050871535729
 20
165.23217446162721
 30
0.0
 11
63.880508715357372
 21
165.2321744616273
 31
0.0
  0
LINE
  5
5A8
  8
0
 10
113.88050871535729
 20
159.0321744616262
 30
0.0
 11
63.880508715357358
 21
159.0321744616264
 31
0.0
  0
TEXT
  5
6A3
  8
0
 62
     3
 10
0.0
 20
0.0
 30
0.0
 40
10.0
  1
L6-SPL6030N1-3M
  7
STANDARD1
  0
ENDSEC
  0
EOF
