  0
SECTION
  2
HEADER
  9
$ACADVER
  1
AC1009
  9
$INSBASE
 10
0.0
 20
0.0
 30
0.0
  9
$EXTMIN
 10
0.0
 20
-1.4802182810368341
 30
0.0
  9
$EXTMAX
 10
97.977004943238043
 20
69.270994561875114
 30
0.0
  9
$LIMMIN
 10
0.0
 20
0.0
  9
$LIMMAX
 10
187.5
 20
135.0
  9
$ORTHOMODE
 70
     1
  9
$REGENMODE
 70
     1
  9
$FILLMODE
 70
     1
  9
$QTEXTMODE
 70
     0
  9
$MIRRTEXT
 70
     0
  9
$DRAGMODE
 70
     2
  9
$LTSCALE
 40
10.0
  9
$OSMODE
 70
  3071
  9
$ATTMODE
 70
     1
  9
$TEXTSIZE
 40
4.0
  9
$TRACEWID
 40
0.05
  9
$TEXTSTYLE
  7
STANDARD
  9
$CLAYER
  8
0
  9
$CELTYPE
  6
BYLAYER
  9
$CECOLOR
 62
   256
  9
$DIMSCALE
 40
0.5
  9
$DIMASZ
 40
3.0
  9
$DIMEXO
 40
2.0
  9
$DIMDLI
 40
0.38
  9
$DIMRND
 40
0.0
  9
$DIMDLE
 40
0.0
  9
$DIMEXE
 40
2.0
  9
$DIMTP
 40
0.0
  9
$DIMTM
 40
0.0
  9
$DIMTXT
 40
3.0
  9
$DIMCEN
 40
0.0
  9
$DIMTSZ
 40
0.0
  9
$DIMTOL
 70
     0
  9
$DIMLIM
 70
     0
  9
$DIMTIH
 70
     0
  9
$DIMTOH
 70
     0
  9
$DIMSE1
 70
     0
  9
$DIMSE2
 70
     0
  9
$DIMTAD
 70
     1
  9
$DIMZIN
 70
     0
  9
$DIMBLK
  1

  9
$DIMASO
 70
     0
  9
$DIMSHO
 70
     0
  9
$DIMPOST
  1

  9
$DIMAPOST
  1

  9
$DIMALT
 70
     0
  9
$DIMALTD
 70
     2
  9
$DIMALTF
 40
25.399999999999999
  9
$DIMLFAC
 40
1.0
  9
$DIMTOFL
 70
     0
  9
$DIMTVP
 40
1.6000000000000001
  9
$DIMTIX
 70
     1
  9
$DIMSOXD
 70
     0
  9
$DIMSAH
 70
     0
  9
$DIMBLK1
  1

  9
$DIMBLK2
  1

  9
$DIMSTYLE
  2
STANDARD
  9
$DIMCLRD
 70
     0
  9
$DIMCLRE
 70
     0
  9
$DIMCLRT
 70
     0
  9
$DIMTFAC
 40
1.0
  9
$DIMGAP
 40
0.09
  9
$LUNITS
 70
     2
  9
$LUPREC
 70
     4
  9
$SKETCHINC
 40
0.1
  9
$FILLETRAD
 40
1.0
  9
$AUNITS
 70
     0
  9
$AUPREC
 70
     0
  9
$MENU
  1
E:\r13\win\SUPPORT\ACAD
  9
$ELEVATION
 40
0.0
  9
$PELEVATION
 40
0.0
  9
$THICKNESS
 40
0.0
  9
$LIMCHECK
 70
     0
  9
$BLIPMODE
 70
     0
  9
$CHAMFERA
 40
0.0
  9
$CHAMFERB
 40
0.0
  9
$SKPOLY
 70
     0
  9
$TDCREATE
 40
2449840.6143865739
  9
$TDUPDATE
 40
2456597.571786019
  9
$TDINDWG
 40
0.3231520486
  9
$TDUSRTIMER
 40
0.3231520486
  9
$USRTIMER
 70
     1
  9
$ANGBASE
 50
0.0
  9
$ANGDIR
 70
     0
  9
$PDMODE
 70
     0
  9
$PDSIZE
 40
0.0
  9
$PLINEWID
 40
0.0
  9
$COORDS
 70
     1
  9
$SPLFRAME
 70
     0
  9
$SPLINETYPE
 70
     6
  9
$SPLINESEGS
 70
     8
  9
$ATTDIA
 70
     0
  9
$ATTREQ
 70
     1
  9
$HANDLING
 70
     1
  9
$HANDSEED
  5
167A
  9
$SURFTAB1
 70
     6
  9
$SURFTAB2
 70
     6
  9
$SURFTYPE
 70
     6
  9
$SURFU
 70
     6
  9
$SURFV
 70
     6
  9
$UCSNAME
  2

  9
$UCSORG
 10
0.0
 20
0.0
 30
0.0
  9
$UCSXDIR
 10
1.0
 20
0.0
 30
0.0
  9
$UCSYDIR
 10
0.0
 20
1.0
 30
0.0
  9
$PUCSNAME
  2

  9
$PUCSORG
 10
0.0
 20
0.0
 30
0.0
  9
$PUCSXDIR
 10
1.0
 20
0.0
 30
0.0
  9
$PUCSYDIR
 10
0.0
 20
1.0
 30
0.0
  9
$USERI1
 70
     0
  9
$USERI2
 70
     1
  9
$USERI3
 70
     1
  9
$USERI4
 70
     0
  9
$USERI5
 70
     0
  9
$USERR1
 40
0.0
  9
$USERR2
 40
0.0
  9
$USERR3
 40
0.0
  9
$USERR4
 40
0.0
  9
$USERR5
 40
0.0
  9
$WORLDVIEW
 70
     1
  9
$SHADEDGE
 70
     3
  9
$SHADEDIF
 70
    70
  9
$TILEMODE
 70
     1
  9
$MAXACTVP
 70
    16
  9
$PLIMCHECK
 70
     0
  9
$PEXTMIN
 10
1.0000000000000000E+020
 20
1.0000000000000000E+020
 30
1.0000000000000000E+020
  9
$PEXTMAX
 10
-1.0000000000000000E+020
 20
-1.0000000000000000E+020
 30
-1.0000000000000000E+020
  9
$PLIMMIN
 10
0.0
 20
0.0
  9
$PLIMMAX
 10
12.0
 20
9.0
  9
$UNITMODE
 70
     0
  9
$VISRETAIN
 70
     0
  9
$PLINEGEN
 70
     0
  9
$PSLTSCALE
 70
     0
  0
ENDSEC
  0
SECTION
  2
TABLES
  0
TABLE
  2
VPORT
 70
     1
  0
VPORT
  2
*ACTIVE
 70
     0
 10
0.0
 20
0.0
 11
1.0
 21
1.0
 12
93.74713919532617
 22
81.430819429735848
 13
0.0
 23
0.0
 14
5.0
 24
5.0
 15
5.0
 25
5.0
 16
0.0
 26
0.0
 36
1.0
 17
0.0
 27
0.0
 37
0.0
 40
167.40500581387491
 41
1.9089595375722539
 42
50.0
 43
0.0
 44
0.0
 50
0.0
 51
0.0
 71
     0
 72
   100
 73
     1
 74
     0
 75
     0
 76
     0
 77
     0
 78
     0
  0
ENDTAB
  0
TABLE
  2
LTYPE
 70
     3
  0
LTYPE
  2
CONTINUOUS
 70
     0
  3
Solid Line
 72
    65
 73
     0
 40
0.0
  0
LTYPE
  2
CENTER
 70
     0
  3
____ _ ____ _ ____ _ ____ _ ____ _ ____ _ ____
 72
    65
 73
     4
 40
2.0
 49
1.25
 49
-0.25
 49
0.25
 49
-0.25
  0
LTYPE
  2
PHANTOM2
 70
     0
  3
___ _ _ ___ _ _ ___ _ _ ___ _ _
 72
    65
 73
     6
 40
1.25
 49
0.625
 49
-0.125
 49
0.125
 49
-0.125
 49
0.125
 49
-0.125
  0
ENDTAB
  0
TABLE
  2
LAYER
 70
     3
  0
LAYER
  2
0
 70
     0
 62
     7
  6
CONTINUOUS
  0
LAYER
  2
1
 70
     0
 62
     1
  6
CENTER
  0
LAYER
  2
3
 70
     0
 62
     3
  6
CONTINUOUS
  0
ENDTAB
  0
TABLE
  2
STYLE
 70
     2
  0
STYLE
  2
STANDARD
 70
     0
 40
0.0
 41
1.0
 50
0.0
 71
     0
 42
4.0
  3
TXT
  4
BIGFONT
  0
STYLE
  2
STANDARD1
 70
     0
 40
0.0
 41
1.0
 50
0.0
 71
     0
 42
3.0
  3
txt
  4

  0
ENDTAB
  0
TABLE
  2
VIEW
 70
     1
  0
VIEW
  2
ALL
 70
     0
 40
179.66152299999999
 10
141.903918
 20
89.830760999999995
 41
0.0
 11
0.0
 21
0.0
 31
1.0
 12
0.0
 22
0.0
 32
0.0
 42
0.0
 43
0.0
 44
0.0
 50
0.0
 71
     0
  0
ENDTAB
  0
TABLE
  2
UCS
 70
     0
  0
ENDTAB
  0
TABLE
  2
APPID
 70
     5
  0
APPID
  2
ACAD
 70
     0
  0
APPID
  2
DCO15
 70
     0
  0
APPID
  2
ACAD_EXEMPT_FROM_CAD_STANDARDS
 70
     0
  0
APPID
  2
ACAD_MLEADERVER
 70
     0
  0
APPID
  2
ACAD_NAV_VCDISPLAY
 70
     0
  0
ENDTAB
  0
TABLE
  2
DIMSTYLE
 70
     1
  0
DIMSTYLE
  2
STANDARD
 70
     0
  3

  4

  5

  6

  7

 40
1.0
 41
0.18
 42
0.0625
 43
0.38
 44
0.18
 45
0.0
 46
0.0
 47
0.0
 48
0.0
140
0.18
141
0.09
142
0.0
143
25.399999999999999
144
1.0
145
0.0
146
1.0
147
0.09
 71
     0
 72
     0
 73
     1
 74
     1
 75
     0
 76
     0
 77
     0
 78
     0
170
     0
171
     2
172
     0
173
     0
174
     0
175
     0
176
     0
177
     0
178
     0
  0
ENDTAB
  0
ENDSEC
  0
SECTION
  2
BLOCKS
  0
BLOCK
  8
0
  2
$MODEL_SPACE
 70
     0
 10
0.0
 20
0.0
 30
0.0
  3
$MODEL_SPACE
  1

  0
ENDBLK
  5
1BD
  8
0
  0
BLOCK
 67
     1
  8
0
  2
$PAPER_SPACE
 70
     0
 10
0.0
 20
0.0
 30
0.0
  3
$PAPER_SPACE
  1

  0
ENDBLK
  5
1BB
 67
     1
  8
0
  0
ENDSEC
  0
SECTION
  2
ENTITIES
  0
LINE
  5
12D9
  8
1
 10
9.0955339833168392
 20
62.34279133159967
 30
0.0
 11
56.595533983316841
 21
62.342791331599621
 31
0.0
  0
LINE
  5
12DA
  8
0
 10
27.095533983316841
 20
59.342791331599642
 30
0.0
 11
27.095533983316841
 21
59.95629133159963
 31
0.0
  0
LINE
  5
12DB
  8
3
 10
44.095533983316827
 20
59.95629133159963
 30
0.0
 11
27.095533983316841
 21
59.95629133159963
 31
0.0
  0
LINE
  5
12DC
  8
0
 10
27.095533983316841
 20
65.342791331599642
 30
0.0
 11
27.095533983316841
 21
59.342791331599642
 31
0.0
  0
LINE
  5
12DD
  8
0
 10
27.095533983316841
 20
65.342791331599642
 30
0.0
 11
27.095533983316841
 21
64.729291331599654
 31
0.0
  0
LINE
  5
12DE
  8
3
 10
44.095533983316827
 20
64.729291331599654
 30
0.0
 11
27.095533983316841
 21
64.729291331599654
 31
0.0
  0
LINE
  5
12DF
  8
0
 10
12.095533983316839
 20
63.692791331599629
 30
0.0
 11
20.44553398331686
 21
63.692791331599629
 31
0.0
  0
ARC
  5
12E0
  8
0
 10
20.44553398331686
 20
62.342791331599642
 30
0.0
 40
1.349999999999993
 50
270.0
 51
90.0
  0
LINE
  5
12E1
  8
0
 10
20.44553398331686
 20
60.992791331599641
 30
0.0
 11
12.095533983316839
 21
60.992791331599641
 31
0.0
  0
LINE
  5
12E4
  8
0
 10
12.595533983316839
 20
63.692791331599629
 30
0.0
 11
12.595533983316839
 21
60.992791331599641
 31
0.0
  0
LINE
  5
12E7
  8
0
 10
44.095533983316827
 20
59.95629133159963
 30
0.0
 11
44.095533983316827
 21
64.729291331599654
 31
0.0
  0
LINE
  5
12E9
  8
0
 10
24.095533983316841
 20
65.806892946737406
 30
0.0
 11
24.095533983316841
 21
58.878689716461878
 31
0.0
  0
LINE
  5
12EA
  8
0
 10
12.095533983316839
 20
65.806892946737406
 30
0.0
 11
12.095533983316839
 21
58.878689716461878
 31
0.0
  0
LINE
  5
12EB
  8
0
 10
24.095533983316841
 20
58.878689716461878
 30
0.0
 11
12.095533983316839
 21
58.878689716461878
 31
0.0
  0
LINE
  5
12EC
  8
0
 10
24.095533983316841
 20
60.610740524030767
 30
0.0
 11
12.095533983316839
 21
60.610740524030767
 31
0.0
  0
LINE
  5
12ED
  8
0
 10
24.095533983316841
 20
65.806892946737406
 30
0.0
 11
12.095533983316839
 21
65.806892946737406
 31
0.0
  0
LINE
  5
12EE
  8
0
 10
24.095533983316841
 20
64.07484213916851
 30
0.0
 11
12.095533983316839
 21
64.07484213916851
 31
0.0
  0
LINE
  5
12F7
  8
0
 10
43.482033983316839
 20
59.342791331599642
 30
0.0
 11
44.095533983316827
 21
59.95629133159963
 31
0.0
  0
LINE
  5
12F8
  8
0
 10
44.095533983316827
 20
64.729291331599654
 30
0.0
 11
43.482033983316839
 21
65.342791331599614
 31
0.0
  0
LINE
  5
12F9
  8
0
 10
24.095533983316841
 20
59.342791331599642
 30
0.0
 11
43.482033983316853
 21
59.342791331599642
 31
0.0
  0
LINE
  5
12FA
  8
0
 10
43.482033983316853
 20
65.342791331599642
 30
0.0
 11
24.095533983316841
 21
65.342791331599642
 31
0.0
  0
LINE
  5
12FC
  8
1
 10
20.395533983316849
 20
58.192791331599629
 30
0.0
 11
20.395533983316849
 21
66.492791331599634
 31
0.0
  0
LINE
  5
12FE
  8
0
 10
53.595533983316841
 20
60.746936520032392
 30
0.0
 11
53.595533983316841
 21
63.938646143166892
 31
0.0
  0
LINE
  5
12FF
  8
0
 10
52.895533983316852
 20
60.342791331599642
 30
0.0
 11
52.895533983316852
 21
64.342791331599642
 31
0.0
  0
CIRCLE
  5
1302
  8
0
 10
20.395533983316849
 20
62.342791331599642
 30
0.0
 40
1.1499999999999979
  0
CIRCLE
  5
1303
  8
0
 10
20.395533983316849
 20
62.342791331599642
 30
0.0
 40
0.9499999999999992
  0
LINE
  5
1304
  8
0
 10
52.895533983316852
 20
60.342791331599642
 30
0.0
 11
53.595533983316841
 21
60.746936520032392
 31
0.0
  0
LINE
  5
1305
  8
0
 10
53.595533983316841
 20
63.938646143166892
 30
0.0
 11
52.895533983316852
 21
64.342791331599642
 31
0.0
  0
LINE
  5
1306
  8
0
 10
44.095533983316827
 20
60.342791331599642
 30
0.0
 11
52.895533983316852
 21
60.342791331599642
 31
0.0
  0
LINE
  5
1309
  8
0
 10
52.895533983316852
 20
64.342791331599642
 30
0.0
 11
44.095533983316827
 21
64.342791331599642
 31
0.0
  0
LINE
  5
130D
  8
0
 10
20.395533983316849
 20
61.192791331599629
 30
0.0
 11
21.151331696077079
 21
61.192791331599629
 31
0.0
  0
LINE
  5
130E
  8
0
 10
21.15133169607714
 20
63.492791331599641
 30
0.0
 11
20.395533983329639
 21
63.492791331599641
 31
0.0
  0
LINE
  5
13B7
  8
1
 10
91.977004943238057
 20
55.414588101324142
 30
0.0
 11
91.977004943238057
 21
69.270994561875114
 31
0.0
  0
LINE
  5
13B8
  8
1
 10
73.477004943238057
 20
62.342791331599699
 30
0.0
 11
97.977004943238043
 21
62.342791331599621
 31
0.0
  0
CIRCLE
  5
13BF
  8
0
 10
91.977004943238057
 20
62.342791331599642
 30
0.0
 40
3.0
  0
LINE
  5
13C1
  8
0
 10
91.977004943238057
 20
65.806892946737378
 30
0.0
 11
88.977004943238043
 21
64.074842139168538
 31
0.0
  0
LINE
  5
13C2
  8
0
 10
94.977004943238057
 20
64.074842139168538
 30
0.0
 11
91.977004943238057
 21
65.806892946737378
 31
0.0
  0
LINE
  5
13C3
  8
0
 10
94.977004943238057
 20
60.610740524030753
 30
0.0
 11
94.977004943238057
 21
64.074842139168538
 31
0.0
  0
LINE
  5
13C4
  8
0
 10
88.977004943238043
 20
60.610740524030753
 30
0.0
 11
91.977004943238057
 21
58.878689716461913
 31
0.0
  0
LINE
  5
13C5
  8
0
 10
91.977004943238057
 20
58.878689716461913
 30
0.0
 11
94.977004943238057
 21
60.610740524030753
 31
0.0
  0
CIRCLE
  5
13C9
  8
0
 10
91.977004943238057
 20
62.342791331599642
 30
0.0
 40
1.6065175308588091
  0
CIRCLE
  5
13CA
  8
0
 10
91.977004943238057
 20
62.342791331599642
 30
0.0
 40
2.0
  0
LINE
  5
13CD
  8
0
 10
76.677004943238046
 20
61.192791331599629
 30
0.0
 11
76.677004943238046
 21
63.492791331599641
 31
0.0
  0
LINE
  5
13CE
  8
0
 10
76.477004943238057
 20
61.392791331599653
 30
0.0
 11
76.477004943238057
 21
63.292791331599631
 31
0.0
  0
LINE
  5
13D0
  8
0
 10
76.677004943238046
 20
61.192791331599629
 30
0.0
 11
88.977004943238043
 21
61.192791331599629
 31
0.0
  0
LINE
  5
13D1
  8
0
 10
88.977004943238043
 20
63.492791331599641
 30
0.0
 11
76.677004943238046
 21
63.492791331599641
 31
0.0
  0
LINE
  5
13D3
  8
0
 10
76.477004943238057
 20
61.392791331599653
 30
0.0
 11
76.677004943238046
 21
61.192791331599629
 31
0.0
  0
LINE
  5
13D4
  8
0
 10
76.677004943238046
 20
63.492791331599641
 30
0.0
 11
76.477004943238057
 21
63.292791331599631
 31
0.0
  0
LINE
  5
13D7
  8
0
 10
19.245533983316811
 20
30.007428723352412
 30
0.0
 11
19.44553398331686
 21
30.20742872335239
 31
0.0
  0
LINE
  5
13D8
  8
0
 10
21.345533983316841
 20
30.20742872335239
 30
0.0
 11
21.54553398331683
 21
30.007428723352412
 31
0.0
  0
LINE
  5
13DA
  8
0
 10
19.245533983316811
 20
17.70742872335239
 30
0.0
 11
19.245533983316811
 21
30.007428723352412
 31
0.0
  0
LINE
  5
13DB
  8
0
 10
21.54553398331683
 20
30.007428723352412
 30
0.0
 11
21.54553398331683
 21
17.70742872335239
 31
0.0
  0
LINE
  5
13E1
  8
0
 10
52.895533983316852
 20
12.70742872335239
 30
0.0
 11
44.095533983316827
 21
12.70742872335239
 31
0.0
  0
LINE
  5
13E4
  8
0
 10
44.095533983316827
 20
16.70742872335239
 30
0.0
 11
52.895533983316852
 21
16.70742872335239
 31
0.0
  0
LINE
  5
13E5
  8
0
 10
53.595533983316841
 20
13.11157391178514
 30
0.0
 11
52.895533983316852
 21
12.70742872335239
 31
0.0
  0
LINE
  5
13E6
  8
0
 10
52.895533983316852
 20
16.70742872335239
 30
0.0
 11
53.595533983316841
 21
16.30328353491964
 31
0.0
  0
LINE
  5
13E7
  8
0
 10
21.345533983316841
 20
30.20742872335239
 30
0.0
 11
19.44553398331686
 21
30.20742872335239
 31
0.0
  0
LINE
  5
13E8
  8
0
 10
21.54553398331683
 20
30.007428723352412
 30
0.0
 11
19.245533983316811
 21
30.007428723352412
 31
0.0
  0
LINE
  5
13EC
  8
0
 10
52.895533983316852
 20
16.70742872335239
 30
0.0
 11
52.895533983316852
 21
12.70742872335239
 31
0.0
  0
LINE
  5
13ED
  8
0
 10
53.595533983316841
 20
16.30328353491964
 30
0.0
 11
53.595533983316841
 21
13.11157391178514
 31
0.0
  0
LINE
  5
13EE
  8
1
 10
20.395533983316849
 20
16.076394655889342
 30
0.0
 11
20.395533983316909
 21
33.2074287233524
 31
0.0
  0
LINE
  5
13EF
  8
1
 10
9.0955339833168392
 20
14.70742872335242
 30
0.0
 11
56.595533983316841
 21
14.70742872335236
 31
0.0
  0
LINE
  5
13F0
  8
0
 10
43.482033983316853
 20
11.70742872335239
 30
0.0
 11
12.095533983316839
 21
11.70742872335239
 31
0.0
  0
LINE
  5
13F1
  8
0
 10
12.095533983316839
 20
17.70742872335239
 30
0.0
 11
43.482033983316853
 21
17.70742872335239
 31
0.0
  0
LINE
  5
13F2
  8
0
 10
44.095533983316827
 20
12.320928723352379
 30
0.0
 11
43.482033983316853
 21
11.70742872335239
 31
0.0
  0
LINE
  5
13F3
  8
0
 10
43.482033983316853
 20
17.70742872335239
 30
0.0
 11
44.095533983316827
 21
17.093928723352398
 31
0.0
  0
LINE
  5
13FC
  8
0
 10
12.095533983316839
 20
11.70742872335239
 30
0.0
 11
12.095533983316839
 21
17.70742872335239
 31
0.0
  0
LINE
  5
13FE
  8
0
 10
24.095533983316841
 20
11.70742872335239
 30
0.0
 11
24.095533983316841
 21
17.70742872335239
 31
0.0
  0
LINE
  5
13FF
  8
0
 10
43.482033983316853
 20
17.70742872335239
 30
0.0
 11
43.482033983316853
 21
11.70742872335239
 31
0.0
  0
LINE
  5
1400
  8
0
 10
44.095533983316827
 20
17.093928723352398
 30
0.0
 11
44.095533983316827
 21
12.320928723352379
 31
0.0
  0
LINE
  5
140B
  8
3
 10
44.095533983316827
 20
12.320928723352379
 30
0.0
 11
27.095533983316841
 21
12.320928723352379
 31
0.0
  0
LINE
  5
140D
  8
0
 10
27.095533983316841
 20
11.70742872335239
 30
0.0
 11
27.095533983316841
 21
17.70742872335239
 31
0.0
  0
LINE
  5
140E
  8
3
 10
44.095533983316827
 20
17.093928723352398
 30
0.0
 11
27.095533983316841
 21
17.093928723352398
 31
0.0
  0
CIRCLE
  5
141E
  8
3
 10
91.977004943238057
 20
62.342791331599642
 30
0.0
 40
2.3865000000000118
  0
LINE
  5
1432
  8
0
 10
88.977004943238384
 20
64.074842139168723
 30
0.0
 11
88.977004943238043
 21
60.610740524030753
 31
0.0
  0
LINE
  5
1457
  8
0
 10
12.095533983316839
 20
14.70742872335242
 30
0.0
 11
24.095533983316791
 21
14.70742872335239
 31
0.0
  0
LINE
  5
14AD
  8
0
 10
43.482033983316853
 20
59.342791331599642
 30
0.0
 11
43.482033983316853
 21
65.342791331599642
 31
0.0
  0
TEXT
  5
1614
  8
0
 62
     3
 10
0.0
 20
0.0
 30
0.0
 40
5.0
  1
LBLT4
  7
STANDARD1
  0
ENDSEC
  0
EOF
