  0
SECTION
  2
HEADER
  9
$ACADVER
  1
AC1009
  9
$INSBASE
 10
0.0
 20
0.0
 30
0.0
  9
$EXTMIN
 10
0.0
 20
-1.4802182810368341
 30
0.0
  9
$EXTMAX
 10
68.64213016574287
 20
53.635326148574137
 30
0.0
  9
$LIMMIN
 10
0.0
 20
0.0
  9
$LIMMAX
 10
75.0
 20
54.0
  9
$ORTHOMODE
 70
     0
  9
$REGENMODE
 70
     1
  9
$FILLMODE
 70
     1
  9
$QTEXTMODE
 70
     0
  9
$MIRRTEXT
 70
     0
  9
$DRAGMODE
 70
     2
  9
$LTSCALE
 40
2.0
  9
$OSMODE
 70
  3071
  9
$ATTMODE
 70
     1
  9
$TEXTSIZE
 40
0.2
  9
$TRACEWID
 40
0.05
  9
$TEXTSTYLE
  7
STANDARD
  9
$CLAYER
  8
0
  9
$CELTYPE
  6
BYLAYER
  9
$CECOLOR
 62
   256
  9
$DIMSCALE
 40
0.2
  9
$DIMASZ
 40
3.0
  9
$DIMEXO
 40
2.0
  9
$DIMDLI
 40
10.0
  9
$DIMRND
 40
0.0
  9
$DIMDLE
 40
0.0
  9
$DIMEXE
 40
2.0
  9
$DIMTP
 40
0.0
  9
$DIMTM
 40
0.0
  9
$DIMTXT
 40
3.0
  9
$DIMCEN
 40
0.09
  9
$DIMTSZ
 40
0.0
  9
$DIMTOL
 70
     0
  9
$DIMLIM
 70
     0
  9
$DIMTIH
 70
     0
  9
$DIMTOH
 70
     0
  9
$DIMSE1
 70
     0
  9
$DIMSE2
 70
     0
  9
$DIMTAD
 70
     1
  9
$DIMZIN
 70
     0
  9
$DIMBLK
  1

  9
$DIMASO
 70
     0
  9
$DIMSHO
 70
     0
  9
$DIMPOST
  1

  9
$DIMAPOST
  1

  9
$DIMALT
 70
     0
  9
$DIMALTD
 70
     2
  9
$DIMALTF
 40
25.399999999999999
  9
$DIMLFAC
 40
1.0
  9
$DIMTOFL
 70
     1
  9
$DIMTVP
 40
1.6000000000000001
  9
$DIMTIX
 70
     1
  9
$DIMSOXD
 70
     0
  9
$DIMSAH
 70
     0
  9
$DIMBLK1
  1

  9
$DIMBLK2
  1

  9
$DIMSTYLE
  2
STANDARD
  9
$DIMCLRD
 70
     0
  9
$DIMCLRE
 70
     0
  9
$DIMCLRT
 70
     0
  9
$DIMTFAC
 40
1.0
  9
$DIMGAP
 40
0.09
  9
$LUNITS
 70
     2
  9
$LUPREC
 70
     4
  9
$SKETCHINC
 40
0.1
  9
$FILLETRAD
 40
0.0
  9
$AUNITS
 70
     0
  9
$AUPREC
 70
     0
  9
$MENU
  1
E:\r13\win\SUPPORT\ACAD
  9
$ELEVATION
 40
0.0
  9
$PELEVATION
 40
0.0
  9
$THICKNESS
 40
0.0
  9
$LIMCHECK
 70
     0
  9
$BLIPMODE
 70
     0
  9
$CHAMFERA
 40
0.0
  9
$CHAMFERB
 40
0.0
  9
$SKPOLY
 70
     0
  9
$TDCREATE
 40
2449840.618888889
  9
$TDUPDATE
 40
2456597.5722884028
  9
$TDINDWG
 40
0.1601293519
  9
$TDUSRTIMER
 40
0.1601293519
  9
$USRTIMER
 70
     1
  9
$ANGBASE
 50
0.0
  9
$ANGDIR
 70
     0
  9
$PDMODE
 70
     0
  9
$PDSIZE
 40
0.0
  9
$PLINEWID
 40
0.0
  9
$COORDS
 70
     1
  9
$SPLFRAME
 70
     0
  9
$SPLINETYPE
 70
     6
  9
$SPLINESEGS
 70
     8
  9
$ATTDIA
 70
     0
  9
$ATTREQ
 70
     1
  9
$HANDLING
 70
     1
  9
$HANDSEED
  5
6C8
  9
$SURFTAB1
 70
     6
  9
$SURFTAB2
 70
     6
  9
$SURFTYPE
 70
     6
  9
$SURFU
 70
     6
  9
$SURFV
 70
     6
  9
$UCSNAME
  2

  9
$UCSORG
 10
0.0
 20
0.0
 30
0.0
  9
$UCSXDIR
 10
1.0
 20
0.0
 30
0.0
  9
$UCSYDIR
 10
0.0
 20
1.0
 30
0.0
  9
$PUCSNAME
  2

  9
$PUCSORG
 10
0.0
 20
0.0
 30
0.0
  9
$PUCSXDIR
 10
1.0
 20
0.0
 30
0.0
  9
$PUCSYDIR
 10
0.0
 20
1.0
 30
0.0
  9
$USERI1
 70
     0
  9
$USERI2
 70
     1
  9
$USERI3
 70
     1
  9
$USERI4
 70
     0
  9
$USERI5
 70
     0
  9
$USERR1
 40
0.0
  9
$USERR2
 40
0.0
  9
$USERR3
 40
0.0
  9
$USERR4
 40
0.0
  9
$USERR5
 40
0.0
  9
$WORLDVIEW
 70
     1
  9
$SHADEDGE
 70
     3
  9
$SHADEDIF
 70
    70
  9
$TILEMODE
 70
     1
  9
$MAXACTVP
 70
    16
  9
$PLIMCHECK
 70
     0
  9
$PEXTMIN
 10
1.0000000000000000E+020
 20
1.0000000000000000E+020
 30
1.0000000000000000E+020
  9
$PEXTMAX
 10
-1.0000000000000000E+020
 20
-1.0000000000000000E+020
 30
-1.0000000000000000E+020
  9
$PLIMMIN
 10
0.0
 20
0.0
  9
$PLIMMAX
 10
12.0
 20
9.0
  9
$UNITMODE
 70
     0
  9
$VISRETAIN
 70
     0
  9
$PLINEGEN
 70
     0
  9
$PSLTSCALE
 70
     0
  0
ENDSEC
  0
SECTION
  2
TABLES
  0
TABLE
  2
VPORT
 70
     1
  0
VPORT
  2
*ACTIVE
 70
     0
 10
0.0
 20
0.0
 11
1.0
 21
1.0
 12
37.498855678130482
 22
32.224675447272617
 13
0.0
 23
0.0
 14
2.0
 24
2.0
 15
2.0
 25
2.0
 16
0.0
 26
0.0
 36
1.0
 17
0.0
 27
0.0
 37
0.0
 40
68.048424383997698
 41
1.9089595375722539
 42
50.0
 43
0.0
 44
0.0
 50
0.0
 51
0.0
 71
     0
 72
   100
 73
     1
 74
     0
 75
     0
 76
     0
 77
     0
 78
     2
  0
ENDTAB
  0
TABLE
  2
LTYPE
 70
     4
  0
LTYPE
  2
CONTINUOUS
 70
     0
  3
Solid Line
 72
    65
 73
     0
 40
0.0
  0
LTYPE
  2
CENTER
 70
     0
  3
____ _ ____ _ ____ _ ____ _ ____ _ ____ _ ____
 72
    65
 73
     4
 40
2.0
 49
1.25
 49
-0.25
 49
0.25
 49
-0.25
  0
LTYPE
  2
HIDDEN
 70
     0
  3
_ _ _ _ _ _ _ _ _ _ _ _ _ _ _ _ _ _ _ _ _ _ _
 72
    65
 73
     2
 40
0.375
 49
0.25
 49
-0.125
  0
LTYPE
  2
PHANTOM2
 70
     0
  3
___ _ _ ___ _ _ ___ _ _ ___ _ _
 72
    65
 73
     6
 40
1.25
 49
0.625
 49
-0.125
 49
0.125
 49
-0.125
 49
0.125
 49
-0.125
  0
ENDTAB
  0
TABLE
  2
LAYER
 70
     4
  0
LAYER
  2
0
 70
     0
 62
     7
  6
CONTINUOUS
  0
LAYER
  2
1
 70
     0
 62
     1
  6
CENTER
  0
LAYER
  2
2
 70
     0
 62
     2
  6
HIDDEN
  0
LAYER
  2
3
 70
     0
 62
     3
  6
CONTINUOUS
  0
ENDTAB
  0
TABLE
  2
STYLE
 70
     2
  0
STYLE
  2
STANDARD
 70
     0
 40
0.0
 41
1.0
 50
0.0
 71
     0
 42
0.2
  3
TXT
  4
BIGFONT
  0
STYLE
  2
STANDARD1
 70
     0
 40
0.0
 41
1.0
 50
0.0
 71
     0
 42
3.0
  3
txt
  4

  0
ENDTAB
  0
TABLE
  2
VIEW
 70
     1
  0
VIEW
  2
ALL
 70
     0
 40
54.0
 10
44.198318999999998
 20
27.0
 41
0.0
 11
0.0
 21
0.0
 31
1.0
 12
0.0
 22
0.0
 32
0.0
 42
0.0
 43
0.0
 44
0.0
 50
0.0
 71
     0
  0
ENDTAB
  0
TABLE
  2
UCS
 70
     0
  0
ENDTAB
  0
TABLE
  2
APPID
 70
     3
  0
APPID
  2
ACAD
 70
     0
  0
APPID
  2
ACAD_MLEADERVER
 70
     0
  0
APPID
  2
ACAD_NAV_VCDISPLAY
 70
     0
  0
ENDTAB
  0
TABLE
  2
DIMSTYLE
 70
     1
  0
DIMSTYLE
  2
STANDARD
 70
     0
  3

  4

  5

  6

  7

 40
1.0
 41
0.18
 42
0.0625
 43
0.38
 44
0.18
 45
0.0
 46
0.0
 47
0.0
 48
0.0
140
0.18
141
0.09
142
0.0
143
25.399999999999999
144
1.0
145
0.0
146
1.0
147
0.09
 71
     0
 72
     0
 73
     1
 74
     1
 75
     0
 76
     0
 77
     0
 78
     0
170
     0
171
     2
172
     0
173
     0
174
     0
175
     0
176
     0
177
     0
178
     0
  0
ENDTAB
  0
ENDSEC
  0
SECTION
  2
BLOCKS
  0
BLOCK
  8
0
  2
$MODEL_SPACE
 70
     0
 10
0.0
 20
0.0
 30
0.0
  3
$MODEL_SPACE
  1

  0
ENDBLK
  5
4EE
  8
0
  0
BLOCK
 67
     1
  8
0
  2
$PAPER_SPACE
 70
     0
 10
0.0
 20
0.0
 30
0.0
  3
$PAPER_SPACE
  1

  0
ENDBLK
  5
4EC
 67
     1
  8
0
  0
BLOCK
  8
0
  2
STDGX5
 70
     0
 10
0.0
 20
0.0
 30
0.0
  3
STDGX5
  1

  0
ENDBLK
  5
1EE
  8
0
  0
ENDSEC
  0
SECTION
  2
ENTITIES
  0
LINE
  5
36
  8
1
 10
14.04189216574286
 20
33.135326148574151
 30
0.0
 11
22.041892165742858
 21
33.135326148574151
 31
0.0
  0
LINE
  5
37
  8
1
 10
33.422296165742871
 20
33.135326148574151
 30
0.0
 11
51.422296165742871
 21
33.135326148574151
 31
0.0
  0
LINE
  5
38
  8
1
 10
60.64213016574287
 20
33.135326148574151
 30
0.0
 11
68.64213016574287
 21
33.135326148574151
 31
0.0
  0
LINE
  5
39
  8
1
 10
64.64213016574287
 20
37.135326148574151
 30
0.0
 11
64.64213016574287
 21
29.135326148574151
 31
0.0
  0
LINE
  5
3A
  8
1
 10
18.041892165742858
 20
37.135326148574151
 30
0.0
 11
18.041892165742858
 21
29.135326148574151
 31
0.0
  0
ARC
  5
3B
  8
0
 10
64.64213016574287
 20
33.135326148574151
 30
0.0
 40
3.0
 50
97.078226395721416
 51
82.921752676201194
  0
CIRCLE
  5
3C
  8
3
 10
64.64213016574287
 20
33.135326148574151
 30
0.0
 40
2.458499999999999
  0
CIRCLE
  5
3D
  8
0
 10
18.041892165742858
 20
33.135326148574151
 30
0.0
 40
3.0
  0
CIRCLE
  5
3E
  8
3
 10
18.041892165742858
 20
33.135326148574151
 30
0.0
 40
2.458499999999999
  0
LINE
  5
3F
  8
0
 10
48.522296165742873
 20
36.135326148574137
 30
0.0
 11
35.422296165742871
 21
36.135326148574137
 31
0.0
  0
LINE
  5
40
  8
3
 10
49.063796165742872
 20
35.593826148574138
 30
0.0
 11
34.880796165742872
 21
35.593826148574138
 31
0.0
  0
LINE
  5
41
  8
3
 10
49.063796165742872
 20
30.67682614857414
 30
0.0
 11
34.880796165742872
 21
30.67682614857415
 31
0.0
  0
LINE
  5
42
  8
0
 10
48.522296165742873
 20
30.135326148574151
 30
0.0
 11
35.422296165742871
 21
30.135326148574151
 31
0.0
  0
LINE
  5
4C
  8
0
 10
49.422296165742871
 20
35.235326148574153
 30
0.0
 11
49.422296165742871
 21
31.035326148574139
 31
0.0
  0
LINE
  5
4D
  8
0
 10
34.422296165742878
 20
35.135326148574151
 30
0.0
 11
34.422296165742871
 21
31.135326148574151
 31
0.0
  0
LINE
  5
4E
  8
0
 10
35.422296165742871
 20
36.135326148574137
 30
0.0
 11
34.422296165742871
 21
35.135326148574137
 31
0.0
  0
LINE
  5
4F
  8
0
 10
34.422296165742871
 20
31.135326148574151
 30
0.0
 11
35.422296165742871
 21
30.135326148574151
 31
0.0
  0
CIRCLE
  5
50
  8
0
 10
64.64213016574287
 20
33.135326148574151
 30
0.0
 40
1.75
  0
LINE
  5
52
  8
0
 10
35.422296165742871
 20
36.135326148574137
 30
0.0
 11
35.422296165742871
 21
30.135326148574151
 31
0.0
  0
LINE
  5
55
  8
0
 10
49.422296165742871
 20
35.235326148574153
 30
0.0
 11
48.522296165742873
 21
36.135326148574137
 31
0.0
  0
LINE
  5
56
  8
0
 10
49.422296165742871
 20
31.035326148574139
 30
0.0
 11
48.522296165742873
 21
30.135326148574151
 31
0.0
  0
LINE
  5
57
  8
0
 10
48.522296165742873
 20
36.135326148574137
 30
0.0
 11
48.522296165742873
 21
30.135326148574151
 31
0.0
  0
CIRCLE
  5
58
  8
0
 10
64.64213016574287
 20
33.135326148574151
 30
0.0
 40
2.1000000000000001
  0
ARC
  5
BA
  8
0
 10
48.672296165742871
 20
33.135326148574137
 30
0.0
 40
1.75
 50
295.37693352515231
 51
64.62306647484769
  0
ARC
  5
BD
  8
2
 10
47.672296165742871
 20
33.135326148574137
 30
0.0
 40
1.75
 50
295.37693352515231
 51
64.62306647484769
  0
LINE
  5
C3
  8
1
 10
33.422296165742871
 20
50.635326148574151
 30
0.0
 11
51.422296165742871
 21
50.635326148574151
 31
0.0
  0
LINE
  5
C4
  8
3
 10
49.063796165742872
 20
53.093826148574152
 30
0.0
 11
34.880796165742872
 21
53.093826148574152
 31
0.0
  0
LINE
  5
C5
  8
0
 10
48.522296165742873
 20
53.635326148574137
 30
0.0
 11
35.422296165742871
 21
53.635326148574137
 31
0.0
  0
LINE
  5
C6
  8
0
 10
48.522296165742873
 20
47.635326148574137
 30
0.0
 11
35.422296165742871
 21
47.635326148574137
 31
0.0
  0
LINE
  5
C7
  8
3
 10
49.063796165742872
 20
48.176826148574143
 30
0.0
 11
34.880796165742872
 21
48.176826148574143
 31
0.0
  0
LINE
  5
C8
  8
0
 10
35.422296165742871
 20
53.635326148574137
 30
0.0
 11
35.422296165742871
 21
47.635326148574137
 31
0.0
  0
LINE
  5
C9
  8
0
 10
34.422296165742878
 20
52.635326148574137
 30
0.0
 11
34.422296165742871
 21
48.635326148574137
 31
0.0
  0
LINE
  5
CA
  8
0
 10
34.422296165742871
 20
48.635326148574137
 30
0.0
 11
35.422296165742871
 21
47.635326148574137
 31
0.0
  0
LINE
  5
CB
  8
0
 10
35.422296165742871
 20
53.635326148574137
 30
0.0
 11
34.422296165742871
 21
52.635326148574137
 31
0.0
  0
LINE
  5
CC
  8
0
 10
49.422296165742871
 20
52.735326148574138
 30
0.0
 11
49.422296165742871
 21
48.53532614857415
 31
0.0
  0
LINE
  5
CD
  8
0
 10
48.522296165742873
 20
53.635326148574137
 30
0.0
 11
48.522296165742873
 21
51.235326148574138
 31
0.0
  0
LINE
  5
CE
  8
0
 10
49.422296165742871
 20
48.53532614857415
 30
0.0
 11
48.522296165742873
 21
47.635326148574137
 31
0.0
  0
ARC
  5
CF
  8
2
 10
47.672296165742871
 20
50.635326148574151
 30
0.0
 40
1.75
 50
295.37693352515231
 51
64.62306647484769
  0
ARC
  5
D0
  8
0
 10
48.672296165742871
 20
50.635326148574151
 30
0.0
 40
1.75
 50
295.37693352515231
 51
64.62306647484769
  0
LINE
  5
D1
  8
0
 10
49.422296165742871
 20
52.735326148574138
 30
0.0
 11
48.522296165742873
 21
53.635326148574137
 31
0.0
  0
LINE
  5
D3
  8
1
 10
33.422296165742871
 20
15.635326148574149
 30
0.0
 11
51.422296165742871
 21
15.635326148574149
 31
0.0
  0
LINE
  5
D4
  8
3
 10
49.063796165742872
 20
18.093826148574141
 30
0.0
 11
34.880796165742872
 21
18.093826148574141
 31
0.0
  0
LINE
  5
D5
  8
0
 10
48.522296165742873
 20
18.635326148574151
 30
0.0
 11
35.422296165742871
 21
18.635326148574151
 31
0.0
  0
LINE
  5
D6
  8
0
 10
48.522296165742873
 20
12.635326148574149
 30
0.0
 11
35.422296165742871
 21
12.635326148574149
 31
0.0
  0
LINE
  5
D7
  8
3
 10
49.063796165742872
 20
13.17682614857415
 30
0.0
 11
34.880796165742872
 21
13.17682614857415
 31
0.0
  0
LINE
  5
D8
  8
0
 10
35.422296165742871
 20
18.635326148574141
 30
0.0
 11
35.422296165742871
 21
12.635326148574149
 31
0.0
  0
LINE
  5
D9
  8
0
 10
34.422296165742878
 20
17.635326148574151
 30
0.0
 11
34.422296165742871
 21
13.635326148574149
 31
0.0
  0
LINE
  5
DA
  8
0
 10
34.422296165742871
 20
13.635326148574149
 30
0.0
 11
35.422296165742871
 21
12.635326148574149
 31
0.0
  0
LINE
  5
DB
  8
0
 10
35.422296165742871
 20
18.635326148574151
 30
0.0
 11
34.422296165742871
 21
17.635326148574151
 31
0.0
  0
LINE
  5
DC
  8
0
 10
49.422296165742871
 20
17.735326148574138
 30
0.0
 11
49.422296165742871
 21
13.53532614857415
 31
0.0
  0
LINE
  5
DD
  8
0
 10
48.522296165742873
 20
18.635326148574151
 30
0.0
 11
48.522296165742873
 21
12.635326148574149
 31
0.0
  0
LINE
  5
DE
  8
0
 10
49.422296165742871
 20
13.53532614857415
 30
0.0
 11
48.522296165742873
 21
12.635326148574149
 31
0.0
  0
ARC
  5
DF
  8
2
 10
47.672296165742871
 20
15.635326148574141
 30
0.0
 40
1.75
 50
295.37693352515231
 51
64.62306647484769
  0
ARC
  5
E0
  8
0
 10
48.672296165742871
 20
15.635326148574141
 30
0.0
 40
1.75
 50
295.37693352515231
 51
64.62306647484769
  0
LINE
  5
E1
  8
0
 10
49.422296165742871
 20
17.735326148574138
 30
0.0
 11
48.522296165742873
 21
18.635326148574151
 31
0.0
  0
LINE
  5
1D1
  8
0
 10
19.541892164521979
 20
34.001351551654217
 30
0.0
 11
19.541892164521979
 21
32.269300744085378
 31
0.0
  0
LINE
  5
1D2
  8
0
 10
18.041892165742521
 20
34.867376954732542
 30
0.0
 11
19.541892165742521
 21
34.001351550948463
 31
0.0
  0
LINE
  5
1D3
  8
0
 10
16.541892166963969
 20
32.269300745495087
 30
0.0
 11
16.541892166963969
 21
34.001351553063941
 31
0.0
  0
LINE
  5
1D4
  8
0
 10
16.541892166963969
 20
34.001351551653997
 30
0.0
 11
18.041892166963969
 21
34.86737695543853
 31
0.0
  0
LINE
  5
1D5
  8
0
 10
19.54189216452016
 20
32.269300745494178
 30
0.0
 11
18.041892164521979
 21
31.403275341709652
 31
0.0
  0
LINE
  5
1D6
  8
0
 10
18.041892165742521
 20
31.40327534241565
 30
0.0
 11
16.541892165742521
 21
32.269300746199733
 31
0.0
  0
LINE
  5
1D7
  8
2
 10
34.422296165742878
 20
32.269300745495379
 30
0.0
 11
37.422296165742878
 21
32.269300745495379
 31
0.0
  0
LINE
  5
1D8
  8
2
 10
34.422296165742878
 20
34.001351551653258
 30
0.0
 11
37.422296165742878
 21
34.001351551653258
 31
0.0
  0
LINE
  5
1D9
  8
2
 10
34.422296165742942
 20
34.867376954732542
 30
0.0
 11
37.422296165742878
 21
34.867376954732542
 31
0.0
  0
LINE
  5
1DA
  8
2
 10
34.422296165742878
 20
31.403275342415078
 30
0.0
 11
37.422296165742878
 21
31.403275342415078
 31
0.0
  0
LINE
  5
1DB
  8
2
 10
37.422296165742878
 20
34.867376954732542
 30
0.0
 11
37.422296165742878
 21
31.403275342415078
 31
0.0
  0
LINE
  5
1DE
  8
2
 10
37.422296165742878
 20
52.135326148574137
 30
0.0
 11
37.422296165742878
 21
49.135326148574137
 31
0.0
  0
LINE
  5
1DF
  8
2
 10
34.422296165742893
 20
49.135326148574137
 30
0.0
 11
37.422296165742878
 21
49.135326148574137
 31
0.0
  0
LINE
  5
1E3
  8
2
 10
34.422296165742942
 20
52.135326148574137
 30
0.0
 11
37.422296165742878
 21
52.135326148574137
 31
0.0
  0
LINE
  5
1E4
  8
2
 10
34.422296165742878
 20
50.635326148574151
 30
0.0
 11
37.422296165742878
 21
50.635326148574151
 31
0.0
  0
INSERT
  5
28A
  8
0
  2
STDGX5
 10
0.0
 20
0.0
 30
0.0
 41
0.2
 42
0.2
 43
0.2
  0
INSERT
  5
28B
  8
0
  2
STDGX5
 10
0.0
 20
0.0
 30
0.0
 41
0.2
 42
0.2
 43
0.2
  0
INSERT
  5
28C
  8
0
  2
STDGX5
 10
55.0
 20
0.0
 30
0.0
 41
0.2
 42
0.2
 43
0.2
  0
INSERT
  5
28D
  8
0
  2
STDGX5
 10
55.0
 20
0.0
 30
0.0
 41
0.2
 42
0.2
 43
0.2
  0
LINE
  5
44F
  8
0
 10
65.117130165742878
 20
36.097483148574163
 30
0.0
 11
65.117130165742878
 21
35.135326148574151
 31
0.0
  0
LINE
  5
450
  8
0
 10
64.167130165742876
 20
36.097483148574163
 30
0.0
 11
64.167130165742876
 21
35.135326148574151
 31
0.0
  0
LINE
  5
454
  8
0
 10
65.117130165742878
 20
35.135326148574151
 30
0.0
 11
64.167130165742876
 21
35.135326148574151
 31
0.0
  0
LINE
  5
47B
  8
0
 10
46.96379616574287
 20
36.335326148574147
 30
0.0
 11
39.96379616574287
 21
36.335326148574147
 31
0.0
  0
LINE
  5
47C
  8
2
 10
39.96379616574287
 20
36.135326148574137
 30
0.0
 11
39.96379616574287
 21
35.135326148574137
 31
0.0
  0
LINE
  5
47D
  8
2
 10
38.922296165742871
 20
36.135326148574137
 30
0.0
 11
38.922296165742871
 21
35.135326148574137
 31
0.0
  0
LINE
  5
47E
  8
0
 10
39.96379616574287
 20
36.335326148574147
 30
0.0
 11
39.96379616574287
 21
36.135326148574137
 31
0.0
  0
LINE
  5
47F
  8
2
 10
46.96379616574287
 20
36.135326148574137
 30
0.0
 11
46.96379616574287
 21
35.135326148574137
 31
0.0
  0
LINE
  5
480
  8
0
 10
46.96379616574287
 20
36.135326148574137
 30
0.0
 11
46.96379616574287
 21
36.335326148574147
 31
0.0
  0
LINE
  5
481
  8
2
 10
38.922296165742871
 20
35.135326148574137
 30
0.0
 11
49.422296165742871
 21
35.135326148574137
 31
0.0
  0
LINE
  5
48F
  8
0
 10
38.922296165742871
 20
50.035326148574143
 30
0.0
 11
49.422296165742871
 21
50.035326148574143
 31
0.0
  0
LINE
  5
494
  8
0
 10
38.922296165742871
 20
51.235326148574138
 30
0.0
 11
49.422296165742871
 21
51.235326148574138
 31
0.0
  0
LINE
  5
498
  8
0
 10
46.96379616574287
 20
51.235326148574138
 30
0.0
 11
46.96379616574287
 21
50.035326148574143
 31
0.0
  0
LINE
  5
49F
  8
0
 10
38.922296165742871
 20
50.035326148574143
 30
0.0
 11
38.922296165742871
 21
51.235326148574138
 31
0.0
  0
LINE
  5
4A0
  8
0
 10
39.96379616574287
 20
50.035326148574143
 30
0.0
 11
39.96379616574287
 21
51.235326148574138
 31
0.0
  0
LINE
  5
4A3
  8
0
 10
48.522296165742873
 20
50.035326148574129
 30
0.0
 11
48.522296165742873
 21
47.635326148574137
 31
0.0
  0
ARC
  5
4A9
  8
0
 10
17.898820975121851
 20
35.780428424278533
 30
0.0
 40
0.6108633436167282
 50
32.92551440111199
 51
38.367132277201257
  0
ARC
  5
4AA
  8
0
 10
17.986213888482389
 20
35.849607663500208
 30
0.0
 40
0.4994035373258827
 50
38.367666690643858
 51
62.380760665225957
  0
ARC
  5
4AB
  8
0
 10
18.041891019200101
 20
35.956025314368347
 30
0.0
 40
0.379300834207533
 50
62.380468757216768
 51
89.999826807494927
  0
ARC
  5
4AC
  8
0
 10
18.04189381228565
 20
35.95602734852028
 30
0.0
 40
0.379298800057448
 50
90.000248721989465
 51
117.6196067722674
  0
ARC
  5
4AD
  8
0
 10
18.097571443003371
 20
35.849607663500208
 30
0.0
 40
0.4994035373258837
 50
117.61923933477399
 51
141.63233330935611
  0
ARC
  5
4AE
  8
0
 10
18.184963856363911
 20
35.780417903013259
 30
0.0
 40
0.6108694821813638
 50
141.6320648905639
 51
147.07368276665309
  0
ARC
  5
4AF
  8
0
 10
64.361534971864771
 20
35.735327387685523
 30
0.0
 40
0.7555951938791239
 50
359.99990603983241
 51
18.155305212607882
  0
ARC
  5
4B0
  8
0
 10
64.499062053776001
 20
35.780426128185219
 30
0.0
 40
0.6108623549910672
 50
18.155217512525379
 51
38.36748036567964
  0
ARC
  5
4B1
  8
0
 10
64.586451888482372
 20
35.849607663500208
 30
0.0
 40
0.4994035373258813
 50
38.367666690643979
 51
62.380760665226141
  0
ARC
  5
4B2
  8
0
 10
64.642129019200098
 20
35.956025314368382
 30
0.0
 40
0.3793008342075029
 50
62.3804687572162
 51
89.999826807494387
  0
ARC
  5
4B3
  8
0
 10
64.642131812285641
 20
35.956027348520252
 30
0.0
 40
0.3792988000574764
 50
90.000248721987845
 51
117.6196067722659
  0
ARC
  5
4B4
  8
0
 10
64.697809443003365
 20
35.849607663500208
 30
0.0
 40
0.4994035373258829
 50
117.61923933477379
 51
141.632333309356
  0
ARC
  5
4B5
  8
0
 10
64.785199277709737
 20
35.780426128185219
 30
0.0
 40
0.6108623549910668
 50
141.63251963432029
 51
161.84478248747459
  0
ARC
  5
4B6
  8
0
 10
64.922725859620968
 20
35.735324258282347
 30
0.0
 40
0.7555956938804586
 50
161.84445748900291
 51
179.99985666177849
  0
ARC
  5
4B7
  8
0
 10
64.922728989024179
 20
35.735327538865981
 30
0.0
 40
0.7555988232825827
 50
180.00010542347451
 51
198.15550459625001
  0
ARC
  5
4B8
  8
0
 10
64.785196472464619
 20
35.690225668963102
 30
0.0
 40
0.6108598452002506
 50
198.15534406121051
 51
218.36760691436501
  0
ARC
  5
4B9
  8
0
 10
64.697811793997374
 20
35.621044133648098
 30
0.0
 40
0.4994050702590361
 50
218.36745429495031
 51
242.38054826953271
  0
ARC
  5
4BA
  8
0
 10
64.642129778133807
 20
35.514624448628062
 30
0.0
 40
0.3792983000541047
 50
242.38070050090261
 51
270.00005855118098
  0
ARC
  5
4BB
  8
0
 10
64.642131053351932
 20
35.514626482779931
 30
0.0
 40
0.3793003342068187
 50
269.9998659208851
 51
297.61922397116308
  0
ARC
  5
4BC
  8
0
 10
64.586449537488349
 20
35.621044133648098
 30
0.0
 40
0.4994050702590359
 50
297.61945173046718
 51
321.63254570504972
  0
ARC
  5
4BD
  8
0
 10
64.499064859021104
 20
35.690225668963102
 30
0.0
 40
0.6108598452002509
 50
321.6323930856351
 51
341.8446559387894
  0
ARC
  5
4BE
  8
0
 10
64.361531842461559
 20
35.735324409462798
 30
0.0
 40
0.7555983232833212
 50
341.84473270118139
 51
0.0001318739568958
  0
LINE
  5
5FD
  8
2
 10
37.422296165742878
 20
17.135326148574151
 30
0.0
 11
37.422296165742878
 21
14.135326148574149
 31
0.0
  0
LINE
  5
5FE
  8
2
 10
34.422296165742893
 20
14.135326148574149
 30
0.0
 11
37.422296165742878
 21
14.135326148574149
 31
0.0
  0
LINE
  5
5FF
  8
2
 10
34.422296165742942
 20
17.135326148574151
 30
0.0
 11
37.422296165742878
 21
17.135326148574151
 31
0.0
  0
LINE
  5
600
  8
2
 10
34.422296165742878
 20
15.635326148574149
 30
0.0
 11
37.422296165742878
 21
15.635326148574149
 31
0.0
  0
TEXT
  5
660
  8
0
 62
     3
 10
0.0
 20
0.0
 30
0.0
 40
5.0
  1
LBSUH6A
  7
STANDARD1
  0
ENDSEC
  0
EOF
