  0
SECTION
  2
HEADER
  9
$ACADVER
  1
AC1009
  9
$INSBASE
 10
0.0
 20
0.0
 30
0.0
  9
$EXTMIN
 10
0.0
 20
-2.960436562073669
 30
0.0
  9
$EXTMAX
 10
109.1728496635162
 20
63.289882678050411
 30
0.0
  9
$LIMMIN
 10
0.0
 20
0.0
  9
$LIMMAX
 10
187.5
 20
135.0
  9
$ORTHOMODE
 70
     0
  9
$REGENMODE
 70
     1
  9
$FILLMODE
 70
     1
  9
$QTEXTMODE
 70
     0
  9
$MIRRTEXT
 70
     0
  9
$DRAGMODE
 70
     2
  9
$LTSCALE
 40
5.0
  9
$OSMODE
 70
  3071
  9
$ATTMODE
 70
     1
  9
$TEXTSIZE
 40
1.6000000000000001
  9
$TRACEWID
 40
0.05
  9
$TEXTSTYLE
  7
STANDARD
  9
$CLAYER
  8
0
  9
$CELTYPE
  6
BYLAYER
  9
$CECOLOR
 62
   256
  9
$DIMSCALE
 40
0.5
  9
$DIMASZ
 40
3.0
  9
$DIMEXO
 40
2.0
  9
$DIMDLI
 40
10.0
  9
$DIMRND
 40
0.0
  9
$DIMDLE
 40
0.0
  9
$DIMEXE
 40
2.0
  9
$DIMTP
 40
0.0
  9
$DIMTM
 40
0.0
  9
$DIMTXT
 40
3.2000000000000002
  9
$DIMCEN
 40
0.09
  9
$DIMTSZ
 40
0.0
  9
$DIMTOL
 70
     0
  9
$DIMLIM
 70
     0
  9
$DIMTIH
 70
     0
  9
$DIMTOH
 70
     0
  9
$DIMSE1
 70
     0
  9
$DIMSE2
 70
     0
  9
$DIMTAD
 70
     1
  9
$DIMZIN
 70
     0
  9
$DIMBLK
  1

  9
$DIMASO
 70
     0
  9
$DIMSHO
 70
     0
  9
$DIMPOST
  1

  9
$DIMAPOST
  1

  9
$DIMALT
 70
     0
  9
$DIMALTD
 70
     2
  9
$DIMALTF
 40
25.399999999999999
  9
$DIMLFAC
 40
1.0
  9
$DIMTOFL
 70
     1
  9
$DIMTVP
 40
1.6000000000000001
  9
$DIMTIX
 70
     1
  9
$DIMSOXD
 70
     0
  9
$DIMSAH
 70
     0
  9
$DIMBLK1
  1

  9
$DIMBLK2
  1

  9
$DIMSTYLE
  2
STANDARD
  9
$DIMCLRD
 70
     0
  9
$DIMCLRE
 70
     0
  9
$DIMCLRT
 70
     0
  9
$DIMTFAC
 40
1.0
  9
$DIMGAP
 40
0.09
  9
$LUNITS
 70
     2
  9
$LUPREC
 70
     4
  9
$SKETCHINC
 40
0.1
  9
$FILLETRAD
 40
0.0
  9
$AUNITS
 70
     0
  9
$AUPREC
 70
     0
  9
$MENU
  1
E:\r13\win\SUPPORT\ACAD
  9
$ELEVATION
 40
0.0
  9
$PELEVATION
 40
0.0
  9
$THICKNESS
 40
0.0
  9
$LIMCHECK
 70
     0
  9
$BLIPMODE
 70
     0
  9
$CHAMFERA
 40
0.0
  9
$CHAMFERB
 40
0.0
  9
$SKPOLY
 70
     0
  9
$TDCREATE
 40
2449840.5945833339
  9
$TDUPDATE
 40
2456597.5723105562
  9
$TDINDWG
 40
0.0151196296
  9
$TDUSRTIMER
 40
0.0151196296
  9
$USRTIMER
 70
     1
  9
$ANGBASE
 50
0.0
  9
$ANGDIR
 70
     0
  9
$PDMODE
 70
     0
  9
$PDSIZE
 40
0.0
  9
$PLINEWID
 40
0.0
  9
$COORDS
 70
     1
  9
$SPLFRAME
 70
     0
  9
$SPLINETYPE
 70
     6
  9
$SPLINESEGS
 70
     8
  9
$ATTDIA
 70
     0
  9
$ATTREQ
 70
     1
  9
$HANDLING
 70
     1
  9
$HANDSEED
  5
6DA
  9
$SURFTAB1
 70
     6
  9
$SURFTAB2
 70
     6
  9
$SURFTYPE
 70
     6
  9
$SURFU
 70
     6
  9
$SURFV
 70
     6
  9
$UCSNAME
  2

  9
$UCSORG
 10
0.0
 20
0.0
 30
0.0
  9
$UCSXDIR
 10
1.0
 20
0.0
 30
0.0
  9
$UCSYDIR
 10
0.0
 20
1.0
 30
0.0
  9
$PUCSNAME
  2

  9
$PUCSORG
 10
0.0
 20
0.0
 30
0.0
  9
$PUCSXDIR
 10
1.0
 20
0.0
 30
0.0
  9
$PUCSYDIR
 10
0.0
 20
1.0
 30
0.0
  9
$USERI1
 70
     0
  9
$USERI2
 70
     1
  9
$USERI3
 70
     0
  9
$USERI4
 70
     0
  9
$USERI5
 70
     0
  9
$USERR1
 40
0.0
  9
$USERR2
 40
0.0
  9
$USERR3
 40
0.0
  9
$USERR4
 40
0.0
  9
$USERR5
 40
0.0
  9
$WORLDVIEW
 70
     1
  9
$SHADEDGE
 70
     3
  9
$SHADEDIF
 70
    70
  9
$TILEMODE
 70
     1
  9
$MAXACTVP
 70
    16
  9
$PLIMCHECK
 70
     0
  9
$PEXTMIN
 10
1.0000000000000000E+020
 20
1.0000000000000000E+020
 30
1.0000000000000000E+020
  9
$PEXTMAX
 10
-1.0000000000000000E+020
 20
-1.0000000000000000E+020
 30
-1.0000000000000000E+020
  9
$PLIMMIN
 10
0.0
 20
0.0
  9
$PLIMMAX
 10
12.0
 20
9.0
  9
$UNITMODE
 70
     0
  9
$VISRETAIN
 70
     0
  9
$PLINEGEN
 70
     0
  9
$PSLTSCALE
 70
     0
  0
ENDSEC
  0
SECTION
  2
TABLES
  0
TABLE
  2
VPORT
 70
     1
  0
VPORT
  2
*ACTIVE
 70
     0
 10
0.0
 20
0.0
 11
1.0
 21
1.0
 12
93.74713919532617
 22
80.848703909439024
 13
0.0
 23
0.0
 14
5.0
 24
5.0
 15
5.0
 25
5.0
 16
0.0
 26
0.0
 36
1.0
 17
0.0
 27
0.0
 37
0.0
 40
169.22413112104309
 41
1.9089595375722539
 42
50.0
 43
0.0
 44
0.0
 50
0.0
 51
0.0
 71
     0
 72
   100
 73
     1
 74
     0
 75
     0
 76
     0
 77
     0
 78
     0
  0
ENDTAB
  0
TABLE
  2
LTYPE
 70
     4
  0
LTYPE
  2
CONTINUOUS
 70
     0
  3
Solid Line
 72
    65
 73
     0
 40
0.0
  0
LTYPE
  2
CENTER
 70
     0
  3
____ _ ____ _ ____ _ ____ _ ____ _ ____ _ ____
 72
    65
 73
     4
 40
2.0
 49
1.25
 49
-0.25
 49
0.25
 49
-0.25
  0
LTYPE
  2
HIDDEN
 70
     0
  3
_ _ _ _ _ _ _ _ _ _ _ _ _ _ _ _ _ _ _ _ _ _ _
 72
    65
 73
     2
 40
0.375
 49
0.25
 49
-0.125
  0
LTYPE
  2
PHANTOM2
 70
     0
  3
___ _ _ ___ _ _ ___ _ _ ___ _ _
 72
    65
 73
     6
 40
1.25
 49
0.625
 49
-0.125
 49
0.125
 49
-0.125
 49
0.125
 49
-0.125
  0
ENDTAB
  0
TABLE
  2
LAYER
 70
     4
  0
LAYER
  2
0
 70
     0
 62
     7
  6
CONTINUOUS
  0
LAYER
  2
1
 70
     0
 62
     1
  6
CENTER
  0
LAYER
  2
2
 70
     0
 62
     2
  6
HIDDEN
  0
LAYER
  2
3
 70
     0
 62
     3
  6
CONTINUOUS
  0
ENDTAB
  0
TABLE
  2
STYLE
 70
     3
  0
STYLE
  2
STANDARD
 70
     0
 40
0.0
 41
1.0
 50
0.0
 71
     0
 42
1.6000000000000001
  3
TXT
  4
BIGFONT
  0
STYLE
  2
SIM195
 70
     0
 40
0.0
 41
1.95
 50
0.0
 71
     0
 42
1.5
  3
SIMPLEX
  4

  0
STYLE
  2
STANDARD1
 70
     0
 40
0.0
 41
1.0
 50
0.0
 71
     0
 42
3.0
  3
txt
  4

  0
ENDTAB
  0
TABLE
  2
VIEW
 70
     1
  0
VIEW
  2
ALL
 70
     0
 40
135.0
 10
110.49579799999999
 20
67.5
 41
0.0
 11
0.0
 21
0.0
 31
1.0
 12
0.0
 22
0.0
 32
0.0
 42
0.0
 43
0.0
 44
0.0
 50
0.0
 71
     0
  0
ENDTAB
  0
TABLE
  2
UCS
 70
     0
  0
ENDTAB
  0
TABLE
  2
APPID
 70
     3
  0
APPID
  2
ACAD
 70
     0
  0
APPID
  2
ACAD_MLEADERVER
 70
     0
  0
APPID
  2
ACAD_NAV_VCDISPLAY
 70
     0
  0
ENDTAB
  0
TABLE
  2
DIMSTYLE
 70
     1
  0
DIMSTYLE
  2
STANDARD
 70
     0
  3

  4

  5

  6

  7

 40
1.0
 41
0.18
 42
0.0625
 43
0.38
 44
0.18
 45
0.0
 46
0.0
 47
0.0
 48
0.0
140
0.18
141
0.09
142
0.0
143
25.399999999999999
144
1.0
145
0.0
146
1.0
147
0.09
 71
     0
 72
     0
 73
     1
 74
     1
 75
     0
 76
     0
 77
     0
 78
     0
170
     0
171
     2
172
     0
173
     0
174
     0
175
     0
176
     0
177
     0
178
     0
  0
ENDTAB
  0
ENDSEC
  0
SECTION
  2
BLOCKS
  0
BLOCK
  8
0
  2
$MODEL_SPACE
 70
     0
 10
0.0
 20
0.0
 30
0.0
  3
$MODEL_SPACE
  1

  0
ENDBLK
  5
113
  8
0
  0
BLOCK
 67
     1
  8
0
  2
$PAPER_SPACE
 70
     0
 10
0.0
 20
0.0
 30
0.0
  3
$PAPER_SPACE
  1

  0
ENDBLK
  5
111
 67
     1
  8
0
  0
BLOCK
  8
0
  2
*X0
 70
     1
 10
0.0
 20
0.0
 30
0.0
  3
*X0
  1

  0
LINE
  5
2EC
  8
0
 62
     0
 10
106.83121171892149
 20
52.75
 30
0.0
 11
115.8312006915655
 21
52.75
 31
0.0
  0
LINE
  5
2ED
  8
0
 62
     0
 10
106.83141123064961
 20
52.800000000000011
 30
0.0
 11
115.8310011798374
 21
52.800000000000011
 31
0.0
  0
LINE
  5
2EE
  8
0
 62
     0
 10
106.8321663910353
 20
52.850000000000001
 30
0.0
 11
115.83024601945171
 21
52.850000000000001
 31
0.0
  0
LINE
  5
2EF
  8
0
 62
     0
 10
106.83347747995541
 20
52.899999999999999
 30
0.0
 11
115.8289349305316
 21
52.899999999999999
 31
0.0
  0
LINE
  5
2F0
  8
0
 62
     0
 10
106.8353449837719
 20
52.950000000000003
 30
0.0
 11
115.8270674267151
 21
52.950000000000003
 31
0.0
  0
LINE
  5
2F1
  8
0
 62
     0
 10
106.83776959623439
 20
53.0
 30
0.0
 11
115.8246428142526
 21
53.0
 31
0.0
  0
LINE
  5
2F2
  8
0
 62
     0
 10
106.8407522197724
 20
53.049999999999997
 30
0.0
 11
115.8216601907146
 21
53.049999999999997
 31
0.0
  0
LINE
  5
2F3
  8
0
 62
     0
 10
106.84429396717999
 20
53.100000000000001
 30
0.0
 11
115.818118443307
 21
53.100000000000001
 31
0.0
  0
LINE
  5
2F4
  8
0
 62
     0
 10
106.8483961637031
 20
53.150000000000013
 30
0.0
 11
115.81401624678389
 21
53.150000000000013
 31
0.0
  0
LINE
  5
2F5
  8
0
 62
     0
 10
106.85306034953641
 20
53.200000000000003
 30
0.0
 11
115.8093520609505
 21
53.200000000000003
 31
0.0
  0
LINE
  5
2F6
  8
0
 62
     0
 10
106.831567781939
 20
52.700000000000003
 30
0.0
 11
115.83084462854799
 21
52.700000000000003
 31
0.0
  0
LINE
  5
2F7
  8
0
 62
     0
 10
106.8324795516196
 20
52.649999999999999
 30
0.0
 11
115.82993285886739
 21
52.649999999999999
 31
0.0
  0
LINE
  5
2F8
  8
0
 62
     0
 10
106.83394736595289
 20
52.600000000000001
 30
0.0
 11
115.8284650445341
 21
52.600000000000001
 31
0.0
  0
LINE
  5
2F9
  8
0
 62
     0
 10
106.83597176963001
 20
52.549999999999997
 30
0.0
 11
115.826440640857
 21
52.549999999999997
 31
0.0
  0
LINE
  5
2FA
  8
0
 62
     0
 10
106.83855351505321
 20
52.5
 30
0.0
 11
115.8238588954338
 21
52.5
 31
0.0
  0
LINE
  5
2FB
  8
0
 62
     0
 10
106.8416935637396
 20
52.450000000000003
 30
0.0
 11
115.8207188467474
 21
52.450000000000003
 31
0.0
  0
LINE
  5
2FC
  8
0
 62
     0
 10
106.8453930881183
 20
52.400000000000013
 30
0.0
 11
115.81701932236869
 21
52.400000000000013
 31
0.0
  0
LINE
  5
2FD
  8
0
 62
     0
 10
106.84965347373161
 20
52.350000000000001
 30
0.0
 11
115.8127589367554
 21
52.350000000000001
 31
0.0
  0
ENDBLK
  5
2FE
  8
0
  0
ENDSEC
  0
SECTION
  2
ENTITIES
  0
ARC
  5
345
  8
0
 10
94.849742875876984
 20
44.974299983303389
 30
0.0
 40
1.3228664507594521
 50
212.96214182594881
 51
282.03785817399989
  0
ARC
  5
346
  8
0
 10
90.857266968769437
 20
48.966775890410432
 30
0.0
 40
1.3228664507594521
 50
167.96214182594869
 51
237.03785817399981
  0
ARC
  5
347
  8
0
 10
90.857266968769025
 20
54.612989465689409
 30
0.0
 40
1.3228664507594521
 50
122.9621418259489
 51
192.03785817400001
  0
ARC
  5
348
  8
0
 10
94.849742875876075
 20
58.605465372797013
 30
0.0
 40
1.3228664507594521
 50
77.962141825949004
 51
147.03785817400021
  0
ARC
  5
349
  8
0
 10
100.495956451155
 20
58.605465372797383
 30
0.0
 40
1.3228664507594521
 50
32.962141825948819
 51
102.03785817399989
  0
ARC
  5
34A
  8
0
 10
104.4884323582626
 20
54.61298946569034
 30
0.0
 40
1.3228664507594521
 50
347.96214182594878
 51
57.037858173999773
  0
ARC
  5
34B
  8
0
 10
104.488432358263
 20
48.96677589041137
 30
0.0
 40
1.3228664507594521
 50
302.96214182594878
 51
12.037858174000011
  0
ARC
  5
34C
  8
0
 10
100.495956451156
 20
44.974299983303759
 30
0.0
 40
1.3228664507594521
 50
257.96214182594889
 51
327.03785817399978
  0
ARC
  5
34D
  8
0
 10
97.672849663516075
 20
51.789882678050382
 30
0.0
 40
5.0
 50
61.044975628140321
 51
118.95502437185969
  0
ARC
  5
34E
  8
0
 10
97.672849663516075
 20
51.789882678050382
 30
0.0
 40
5.2025404630521299
 50
61.721464228258391
 51
118.2785357717417
  0
LINE
  5
34F
  8
0
 10
102.7136829279675
 20
49.589882678050408
 30
0.0
 11
92.632016399064824
 21
49.589882678050408
 31
0.0
  0
ARC
  5
350
  8
0
 10
97.672849663516047
 20
56.789882678050432
 30
0.0
 40
2.5
 50
182.2924427759578
 51
357.70755722404249
  0
CIRCLE
  5
351
  8
0
 10
97.672849663516075
 20
51.789882678050382
 30
0.0
 40
9.0000000000000142
  0
ARC
  5
352
  8
0
 10
97.672849663516075
 20
51.789882678050382
 30
0.0
 40
5.2025404630521299
 50
205.0159364814958
 51
334.98406351850377
  0
CIRCLE
  5
353
  8
0
 10
97.672849663516075
 20
51.789882678050382
 30
0.0
 40
5.4999999999999849
  0
LINE
  5
354
  8
1
 10
86.172849663516075
 20
51.789882678050311
 30
0.0
 11
109.1728496635162
 21
51.789882678050311
 31
0.0
  0
LINE
  5
355
  8
1
 10
97.67284966351599
 20
40.28988267805034
 30
0.0
 11
97.67284966351599
 21
63.289882678050411
 31
0.0
  0
ARC
  5
356
  8
0
 10
97.672849663516075
 20
51.789882678050382
 30
0.0
 40
5.0
 50
206.10388113734069
 51
333.89611886265931
  0
CIRCLE
  5
357
  8
0
 10
97.672849663516075
 20
51.789882678050382
 30
0.0
 40
8.0
  0
CIRCLE
  5
358
  8
0
 10
97.672849663516033
 20
51.789882678050382
 30
0.0
 40
8.5
  0
LINE
  5
359
  8
0
 10
60.172849663516068
 20
42.789882678050297
 30
0.0
 11
62.172849663516068
 21
42.789882678050297
 31
0.0
  0
LINE
  5
35A
  8
0
 10
59.172849663516082
 20
43.789882678050297
 30
0.0
 11
60.172849663516068
 21
42.789882678050297
 31
0.0
  0
LINE
  5
35B
  8
0
 10
68.172849663516075
 20
43.289882678050297
 30
0.0
 11
67.172849663516075
 21
43.289882678050297
 31
0.0
  0
LINE
  5
35C
  8
0
 10
68.672849663516075
 20
43.789882678050297
 30
0.0
 11
68.172849663516075
 21
43.289882678050297
 31
0.0
  0
LINE
  5
35D
  8
0
 10
63.972849663516051
 20
43.289882678050297
 30
0.0
 11
62.172849663516068
 21
43.289882678050297
 31
0.0
  0
LINE
  5
35E
  8
0
 10
63.972849663516051
 20
47.8568506780503
 30
0.0
 11
62.172849663516068
 21
47.856850678050293
 31
0.0
  0
LINE
  5
35F
  8
0
 10
63.972849663516051
 20
44.254548678050291
 30
0.0
 11
62.172849663516068
 21
44.254548678050291
 31
0.0
  0
LINE
  5
360
  8
0
 10
63.972849663516051
 20
43.680523678050299
 30
0.0
 11
62.172849663516068
 21
43.680523678050299
 31
0.0
  0
LINE
  5
361
  8
0
 10
60.172849663516068
 20
60.789882678050297
 30
0.0
 11
62.172849663516068
 21
60.789882678050297
 31
0.0
  0
LINE
  5
362
  8
0
 10
59.172849663516082
 20
59.789882678050297
 30
0.0
 11
60.172849663516068
 21
60.789882678050297
 31
0.0
  0
LINE
  5
363
  8
0
 10
68.172849663516075
 20
60.289882678050297
 30
0.0
 11
67.172849663516075
 21
60.289882678050297
 31
0.0
  0
LINE
  5
364
  8
0
 10
68.172849663516075
 20
60.289882678050297
 30
0.0
 11
68.672849663516075
 21
59.789882678050297
 31
0.0
  0
LINE
  5
365
  8
0
 10
63.972849663516051
 20
60.289882678050297
 30
0.0
 11
62.172849663516068
 21
60.289882678050297
 31
0.0
  0
LINE
  5
366
  8
1
 10
56.672849663516097
 20
51.789882678050297
 30
0.0
 11
71.172849663516075
 21
51.789882678050311
 31
0.0
  0
LINE
  5
367
  8
0
 10
63.972849663516051
 20
49.242670678050303
 30
0.0
 11
62.172849663516068
 21
49.242670678050303
 31
0.0
  0
LINE
  5
368
  8
0
 10
59.172849663516082
 20
59.789882678050297
 30
0.0
 11
59.172849663516082
 21
43.789882678050297
 31
0.0
  0
LINE
  5
369
  8
0
 10
60.172849663516068
 20
60.789882678050297
 30
0.0
 11
60.172849663516068
 21
42.789882678050297
 31
0.0
  0
LINE
  5
36A
  8
0
 10
68.672849663516075
 20
59.789882678050297
 30
0.0
 11
68.672849663516075
 21
43.789882678050297
 31
0.0
  0
LINE
  5
36B
  8
0
 10
68.172849663516075
 20
60.289882678050311
 30
0.0
 11
68.172849663516075
 21
43.289882678050297
 31
0.0
  0
LINE
  5
36C
  8
0
 10
62.172849663516068
 20
60.789882678050297
 30
0.0
 11
62.172849663516068
 21
42.789882678050297
 31
0.0
  0
LINE
  5
36D
  8
0
 10
67.172849663516075
 20
60.289882678050311
 30
0.0
 11
67.172849663516075
 21
43.289882678050297
 31
0.0
  0
LINE
  5
36E
  8
0
 10
63.972849663516051
 20
43.289882678050297
 30
0.0
 11
63.97284966351603
 21
60.289882678050311
 31
0.0
  0
POLYLINE
  5
36F
  8
0
 10
63.972849663516072
 20
44.414882678050269
 30
0.0
 66
     1
 70
     8
  0
VERTEX
  8
0
  5
4D2
 10
63.9728
 20
44.4149
 30
0.000000
  70
    32
  0
VERTEX
  8
0
  5
4D3
 10
63.9733
 20
44.3873
 30
0.000000
  70
    32
  0
VERTEX
  8
0
  5
4D4
 10
63.9748
 20
44.3597
 30
0.000000
  70
    32
  0
VERTEX
  8
0
  5
4D5
 10
63.9772
 20
44.3321
 30
0.000000
  70
    32
  0
VERTEX
  8
0
  5
4D6
 10
63.9806
 20
44.3046
 30
0.000000
  70
    32
  0
VERTEX
  8
0
  5
4D7
 10
63.9849
 20
44.2772
 30
0.000000
  70
    32
  0
VERTEX
  8
0
  5
4D8
 10
63.9902
 20
44.2498
 30
0.000000
  70
    32
  0
VERTEX
  8
0
  5
4D9
 10
63.9964
 20
44.2226
 30
0.000000
  70
    32
  0
VERTEX
  8
0
  5
4DA
 10
64.0036
 20
44.1954
 30
0.000000
  70
    32
  0
VERTEX
  8
0
  5
4DB
 10
64.0117
 20
44.1684
 30
0.000000
  70
    32
  0
VERTEX
  8
0
  5
4DC
 10
64.0208
 20
44.1415
 30
0.000000
  70
    32
  0
VERTEX
  8
0
  5
4DD
 10
64.0308
 20
44.1148
 30
0.000000
  70
    32
  0
VERTEX
  8
0
  5
4DE
 10
64.0417
 20
44.0883
 30
0.000000
  70
    32
  0
VERTEX
  8
0
  5
4DF
 10
64.0536
 20
44.0620
 30
0.000000
  70
    32
  0
VERTEX
  8
0
  5
4E0
 10
64.0664
 20
44.0359
 30
0.000000
  70
    32
  0
VERTEX
  8
0
  5
4E1
 10
64.0801
 20
44.0100
 30
0.000000
  70
    32
  0
VERTEX
  8
0
  5
4E2
 10
64.0946
 20
43.9844
 30
0.000000
  70
    32
  0
VERTEX
  8
0
  5
4E3
 10
64.1101
 20
43.9590
 30
0.000000
  70
    32
  0
VERTEX
  8
0
  5
4E4
 10
64.1265
 20
43.9339
 30
0.000000
  70
    32
  0
VERTEX
  8
0
  5
4E5
 10
64.1437
 20
43.9091
 30
0.000000
  70
    32
  0
VERTEX
  8
0
  5
4E6
 10
64.1618
 20
43.8846
 30
0.000000
  70
    32
  0
VERTEX
  8
0
  5
4E7
 10
64.1807
 20
43.8604
 30
0.000000
  70
    32
  0
VERTEX
  8
0
  5
4E8
 10
64.2005
 20
43.8365
 30
0.000000
  70
    32
  0
VERTEX
  8
0
  5
4E9
 10
64.2211
 20
43.8130
 30
0.000000
  70
    32
  0
VERTEX
  8
0
  5
4EA
 10
64.2425
 20
43.7899
 30
0.000000
  70
    32
  0
VERTEX
  8
0
  5
4EB
 10
64.2647
 20
43.7671
 30
0.000000
  70
    32
  0
VERTEX
  8
0
  5
4EC
 10
64.2877
 20
43.7447
 30
0.000000
  70
    32
  0
VERTEX
  8
0
  5
4ED
 10
64.3115
 20
43.7227
 30
0.000000
  70
    32
  0
VERTEX
  8
0
  5
4EE
 10
64.3360
 20
43.7012
 30
0.000000
  70
    32
  0
VERTEX
  8
0
  5
4EF
 10
64.3613
 20
43.6801
 30
0.000000
  70
    32
  0
VERTEX
  8
0
  5
4F0
 10
64.3873
 20
43.6594
 30
0.000000
  70
    32
  0
VERTEX
  8
0
  5
4F1
 10
64.4141
 20
43.6391
 30
0.000000
  70
    32
  0
VERTEX
  8
0
  5
4F2
 10
64.4415
 20
43.6194
 30
0.000000
  70
    32
  0
VERTEX
  8
0
  5
4F3
 10
64.4696
 20
43.6001
 30
0.000000
  70
    32
  0
VERTEX
  8
0
  5
4F4
 10
64.4984
 20
43.5813
 30
0.000000
  70
    32
  0
VERTEX
  8
0
  5
4F5
 10
64.5278
 20
43.5630
 30
0.000000
  70
    32
  0
VERTEX
  8
0
  5
4F6
 10
64.5578
 20
43.5452
 30
0.000000
  70
    32
  0
VERTEX
  8
0
  5
4F7
 10
64.5885
 20
43.5280
 30
0.000000
  70
    32
  0
VERTEX
  8
0
  5
4F8
 10
64.6197
 20
43.5113
 30
0.000000
  70
    32
  0
VERTEX
  8
0
  5
4F9
 10
64.6516
 20
43.4951
 30
0.000000
  70
    32
  0
VERTEX
  8
0
  5
4FA
 10
64.6839
 20
43.4795
 30
0.000000
  70
    32
  0
VERTEX
  8
0
  5
4FB
 10
64.7169
 20
43.4644
 30
0.000000
  70
    32
  0
VERTEX
  8
0
  5
4FC
 10
64.7503
 20
43.4499
 30
0.000000
  70
    32
  0
VERTEX
  8
0
  5
4FD
 10
64.7842
 20
43.4360
 30
0.000000
  70
    32
  0
VERTEX
  8
0
  5
4FE
 10
64.8186
 20
43.4227
 30
0.000000
  70
    32
  0
VERTEX
  8
0
  5
4FF
 10
64.8535
 20
43.4100
 30
0.000000
  70
    32
  0
VERTEX
  8
0
  5
500
 10
64.8888
 20
43.3979
 30
0.000000
  70
    32
  0
VERTEX
  8
0
  5
501
 10
64.9245
 20
43.3864
 30
0.000000
  70
    32
  0
VERTEX
  8
0
  5
502
 10
64.9606
 20
43.3755
 30
0.000000
  70
    32
  0
VERTEX
  8
0
  5
503
 10
64.9970
 20
43.3653
 30
0.000000
  70
    32
  0
VERTEX
  8
0
  5
504
 10
65.0338
 20
43.3556
 30
0.000000
  70
    32
  0
VERTEX
  8
0
  5
505
 10
65.0710
 20
43.3467
 30
0.000000
  70
    32
  0
VERTEX
  8
0
  5
506
 10
65.1084
 20
43.3383
 30
0.000000
  70
    32
  0
VERTEX
  8
0
  5
507
 10
65.1461
 20
43.3306
 30
0.000000
  70
    32
  0
VERTEX
  8
0
  5
508
 10
65.1841
 20
43.3236
 30
0.000000
  70
    32
  0
VERTEX
  8
0
  5
509
 10
65.2223
 20
43.3172
 30
0.000000
  70
    32
  0
VERTEX
  8
0
  5
50A
 10
65.2607
 20
43.3115
 30
0.000000
  70
    32
  0
VERTEX
  8
0
  5
50B
 10
65.2993
 20
43.3064
 30
0.000000
  70
    32
  0
VERTEX
  8
0
  5
50C
 10
65.3381
 20
43.3021
 30
0.000000
  70
    32
  0
VERTEX
  8
0
  5
50D
 10
65.3770
 20
43.2983
 30
0.000000
  70
    32
  0
VERTEX
  8
0
  5
50E
 10
65.4160
 20
43.2953
 30
0.000000
  70
    32
  0
VERTEX
  8
0
  5
50F
 10
65.4551
 20
43.2929
 30
0.000000
  70
    32
  0
VERTEX
  8
0
  5
510
 10
65.4943
 20
43.2912
 30
0.000000
  70
    32
  0
VERTEX
  8
0
  5
511
 10
65.5336
 20
43.2902
 30
0.000000
  70
    32
  0
VERTEX
  8
0
  5
512
 10
65.5728
 20
43.2899
 30
0.000000
  70
    32
  0
VERTEX
  8
0
  5
513
 10
65.6121
 20
43.2902
 30
0.000000
  70
    32
  0
VERTEX
  8
0
  5
514
 10
65.6514
 20
43.2912
 30
0.000000
  70
    32
  0
VERTEX
  8
0
  5
515
 10
65.6906
 20
43.2929
 30
0.000000
  70
    32
  0
VERTEX
  8
0
  5
516
 10
65.7297
 20
43.2953
 30
0.000000
  70
    32
  0
VERTEX
  8
0
  5
517
 10
65.7687
 20
43.2983
 30
0.000000
  70
    32
  0
VERTEX
  8
0
  5
518
 10
65.8076
 20
43.3021
 30
0.000000
  70
    32
  0
VERTEX
  8
0
  5
519
 10
65.8464
 20
43.3064
 30
0.000000
  70
    32
  0
VERTEX
  8
0
  5
51A
 10
65.8850
 20
43.3115
 30
0.000000
  70
    32
  0
VERTEX
  8
0
  5
51B
 10
65.9234
 20
43.3172
 30
0.000000
  70
    32
  0
VERTEX
  8
0
  5
51C
 10
65.9616
 20
43.3236
 30
0.000000
  70
    32
  0
VERTEX
  8
0
  5
51D
 10
65.9996
 20
43.3306
 30
0.000000
  70
    32
  0
VERTEX
  8
0
  5
51E
 10
66.0373
 20
43.3383
 30
0.000000
  70
    32
  0
VERTEX
  8
0
  5
51F
 10
66.0747
 20
43.3467
 30
0.000000
  70
    32
  0
VERTEX
  8
0
  5
520
 10
66.1119
 20
43.3556
 30
0.000000
  70
    32
  0
VERTEX
  8
0
  5
521
 10
66.1487
 20
43.3653
 30
0.000000
  70
    32
  0
VERTEX
  8
0
  5
522
 10
66.1851
 20
43.3755
 30
0.000000
  70
    32
  0
VERTEX
  8
0
  5
523
 10
66.2212
 20
43.3864
 30
0.000000
  70
    32
  0
VERTEX
  8
0
  5
524
 10
66.2569
 20
43.3979
 30
0.000000
  70
    32
  0
VERTEX
  8
0
  5
525
 10
66.2922
 20
43.4100
 30
0.000000
  70
    32
  0
VERTEX
  8
0
  5
526
 10
66.3271
 20
43.4227
 30
0.000000
  70
    32
  0
VERTEX
  8
0
  5
527
 10
66.3615
 20
43.4360
 30
0.000000
  70
    32
  0
VERTEX
  8
0
  5
528
 10
66.3954
 20
43.4499
 30
0.000000
  70
    32
  0
VERTEX
  8
0
  5
529
 10
66.4288
 20
43.4644
 30
0.000000
  70
    32
  0
VERTEX
  8
0
  5
52A
 10
66.4618
 20
43.4795
 30
0.000000
  70
    32
  0
VERTEX
  8
0
  5
52B
 10
66.4941
 20
43.4951
 30
0.000000
  70
    32
  0
VERTEX
  8
0
  5
52C
 10
66.5260
 20
43.5113
 30
0.000000
  70
    32
  0
VERTEX
  8
0
  5
52D
 10
66.5572
 20
43.5280
 30
0.000000
  70
    32
  0
VERTEX
  8
0
  5
52E
 10
66.5879
 20
43.5452
 30
0.000000
  70
    32
  0
VERTEX
  8
0
  5
52F
 10
66.6179
 20
43.5630
 30
0.000000
  70
    32
  0
VERTEX
  8
0
  5
530
 10
66.6473
 20
43.5813
 30
0.000000
  70
    32
  0
VERTEX
  8
0
  5
531
 10
66.6761
 20
43.6001
 30
0.000000
  70
    32
  0
VERTEX
  8
0
  5
532
 10
66.7042
 20
43.6194
 30
0.000000
  70
    32
  0
VERTEX
  8
0
  5
533
 10
66.7316
 20
43.6391
 30
0.000000
  70
    32
  0
VERTEX
  8
0
  5
534
 10
66.7584
 20
43.6594
 30
0.000000
  70
    32
  0
VERTEX
  8
0
  5
535
 10
66.7844
 20
43.6801
 30
0.000000
  70
    32
  0
VERTEX
  8
0
  5
536
 10
66.8097
 20
43.7012
 30
0.000000
  70
    32
  0
VERTEX
  8
0
  5
537
 10
66.8342
 20
43.7227
 30
0.000000
  70
    32
  0
VERTEX
  8
0
  5
538
 10
66.8580
 20
43.7447
 30
0.000000
  70
    32
  0
VERTEX
  8
0
  5
539
 10
66.8810
 20
43.7671
 30
0.000000
  70
    32
  0
VERTEX
  8
0
  5
53A
 10
66.9032
 20
43.7899
 30
0.000000
  70
    32
  0
VERTEX
  8
0
  5
53B
 10
66.9246
 20
43.8130
 30
0.000000
  70
    32
  0
VERTEX
  8
0
  5
53C
 10
66.9452
 20
43.8365
 30
0.000000
  70
    32
  0
VERTEX
  8
0
  5
53D
 10
66.9650
 20
43.8604
 30
0.000000
  70
    32
  0
VERTEX
  8
0
  5
53E
 10
66.9839
 20
43.8846
 30
0.000000
  70
    32
  0
VERTEX
  8
0
  5
53F
 10
67.0020
 20
43.9091
 30
0.000000
  70
    32
  0
VERTEX
  8
0
  5
540
 10
67.0192
 20
43.9339
 30
0.000000
  70
    32
  0
VERTEX
  8
0
  5
541
 10
67.0356
 20
43.9590
 30
0.000000
  70
    32
  0
VERTEX
  8
0
  5
542
 10
67.0511
 20
43.9844
 30
0.000000
  70
    32
  0
VERTEX
  8
0
  5
543
 10
67.0656
 20
44.0100
 30
0.000000
  70
    32
  0
VERTEX
  8
0
  5
544
 10
67.0793
 20
44.0359
 30
0.000000
  70
    32
  0
VERTEX
  8
0
  5
545
 10
67.0921
 20
44.0620
 30
0.000000
  70
    32
  0
VERTEX
  8
0
  5
546
 10
67.1040
 20
44.0883
 30
0.000000
  70
    32
  0
VERTEX
  8
0
  5
547
 10
67.1149
 20
44.1148
 30
0.000000
  70
    32
  0
VERTEX
  8
0
  5
548
 10
67.1249
 20
44.1415
 30
0.000000
  70
    32
  0
VERTEX
  8
0
  5
549
 10
67.1340
 20
44.1684
 30
0.000000
  70
    32
  0
VERTEX
  8
0
  5
54A
 10
67.1421
 20
44.1954
 30
0.000000
  70
    32
  0
VERTEX
  8
0
  5
54B
 10
67.1493
 20
44.2226
 30
0.000000
  70
    32
  0
VERTEX
  8
0
  5
54C
 10
67.1555
 20
44.2498
 30
0.000000
  70
    32
  0
VERTEX
  8
0
  5
54D
 10
67.1608
 20
44.2772
 30
0.000000
  70
    32
  0
VERTEX
  8
0
  5
54E
 10
67.1651
 20
44.3046
 30
0.000000
  70
    32
  0
VERTEX
  8
0
  5
54F
 10
67.1685
 20
44.3321
 30
0.000000
  70
    32
  0
VERTEX
  8
0
  5
550
 10
67.1709
 20
44.3597
 30
0.000000
  70
    32
  0
VERTEX
  8
0
  5
551
 10
67.1724
 20
44.3873
 30
0.000000
  70
    32
  0
VERTEX
  8
0
  5
552
 10
67.1728
 20
44.4149
 30
0.000000
  70
    32
  0
SEQEND
  8
0
  5
553
  0
LINE
  5
370
  8
2
 10
67.172849663516047
 20
45.539882678050262
 30
0.0
 11
63.972849663516051
 21
45.539882678050262
 31
0.0
  0
POLYLINE
  5
371
  8
2
 10
63.972849663516072
 20
44.41488267805029
 30
0.0
 66
     1
 70
     8
  0
VERTEX
  8
2
  5
554
 10
63.9728
 20
44.4149
 30
0.000000
  70
    32
  0
VERTEX
  8
2
  5
555
 10
63.9733
 20
44.4425
 30
0.000000
  70
    32
  0
VERTEX
  8
2
  5
556
 10
63.9748
 20
44.4701
 30
0.000000
  70
    32
  0
VERTEX
  8
2
  5
557
 10
63.9772
 20
44.4976
 30
0.000000
  70
    32
  0
VERTEX
  8
2
  5
558
 10
63.9806
 20
44.5252
 30
0.000000
  70
    32
  0
VERTEX
  8
2
  5
559
 10
63.9849
 20
44.5526
 30
0.000000
  70
    32
  0
VERTEX
  8
2
  5
55A
 10
63.9902
 20
44.5800
 30
0.000000
  70
    32
  0
VERTEX
  8
2
  5
55B
 10
63.9964
 20
44.6072
 30
0.000000
  70
    32
  0
VERTEX
  8
2
  5
55C
 10
64.0036
 20
44.6344
 30
0.000000
  70
    32
  0
VERTEX
  8
2
  5
55D
 10
64.0117
 20
44.6614
 30
0.000000
  70
    32
  0
VERTEX
  8
2
  5
55E
 10
64.0208
 20
44.6882
 30
0.000000
  70
    32
  0
VERTEX
  8
2
  5
55F
 10
64.0308
 20
44.7149
 30
0.000000
  70
    32
  0
VERTEX
  8
2
  5
560
 10
64.0417
 20
44.7415
 30
0.000000
  70
    32
  0
VERTEX
  8
2
  5
561
 10
64.0536
 20
44.7678
 30
0.000000
  70
    32
  0
VERTEX
  8
2
  5
562
 10
64.0664
 20
44.7939
 30
0.000000
  70
    32
  0
VERTEX
  8
2
  5
563
 10
64.0801
 20
44.8198
 30
0.000000
  70
    32
  0
VERTEX
  8
2
  5
564
 10
64.0946
 20
44.8454
 30
0.000000
  70
    32
  0
VERTEX
  8
2
  5
565
 10
64.1101
 20
44.8708
 30
0.000000
  70
    32
  0
VERTEX
  8
2
  5
566
 10
64.1265
 20
44.8959
 30
0.000000
  70
    32
  0
VERTEX
  8
2
  5
567
 10
64.1437
 20
44.9207
 30
0.000000
  70
    32
  0
VERTEX
  8
2
  5
568
 10
64.1618
 20
44.9452
 30
0.000000
  70
    32
  0
VERTEX
  8
2
  5
569
 10
64.1807
 20
44.9694
 30
0.000000
  70
    32
  0
VERTEX
  8
2
  5
56A
 10
64.2005
 20
44.9932
 30
0.000000
  70
    32
  0
VERTEX
  8
2
  5
56B
 10
64.2211
 20
45.0168
 30
0.000000
  70
    32
  0
VERTEX
  8
2
  5
56C
 10
64.2425
 20
45.0399
 30
0.000000
  70
    32
  0
VERTEX
  8
2
  5
56D
 10
64.2647
 20
45.0627
 30
0.000000
  70
    32
  0
VERTEX
  8
2
  5
56E
 10
64.2877
 20
45.0850
 30
0.000000
  70
    32
  0
VERTEX
  8
2
  5
56F
 10
64.3115
 20
45.1070
 30
0.000000
  70
    32
  0
VERTEX
  8
2
  5
570
 10
64.3360
 20
45.1286
 30
0.000000
  70
    32
  0
VERTEX
  8
2
  5
571
 10
64.3613
 20
45.1497
 30
0.000000
  70
    32
  0
VERTEX
  8
2
  5
572
 10
64.3873
 20
45.1704
 30
0.000000
  70
    32
  0
VERTEX
  8
2
  5
573
 10
64.4141
 20
45.1906
 30
0.000000
  70
    32
  0
VERTEX
  8
2
  5
574
 10
64.4415
 20
45.2104
 30
0.000000
  70
    32
  0
VERTEX
  8
2
  5
575
 10
64.4696
 20
45.2297
 30
0.000000
  70
    32
  0
VERTEX
  8
2
  5
576
 10
64.4984
 20
45.2485
 30
0.000000
  70
    32
  0
VERTEX
  8
2
  5
577
 10
64.5278
 20
45.2667
 30
0.000000
  70
    32
  0
VERTEX
  8
2
  5
578
 10
64.5578
 20
45.2845
 30
0.000000
  70
    32
  0
VERTEX
  8
2
  5
579
 10
64.5885
 20
45.3018
 30
0.000000
  70
    32
  0
VERTEX
  8
2
  5
57A
 10
64.6197
 20
45.3185
 30
0.000000
  70
    32
  0
VERTEX
  8
2
  5
57B
 10
64.6516
 20
45.3347
 30
0.000000
  70
    32
  0
VERTEX
  8
2
  5
57C
 10
64.6839
 20
45.3503
 30
0.000000
  70
    32
  0
VERTEX
  8
2
  5
57D
 10
64.7169
 20
45.3653
 30
0.000000
  70
    32
  0
VERTEX
  8
2
  5
57E
 10
64.7503
 20
45.3798
 30
0.000000
  70
    32
  0
VERTEX
  8
2
  5
57F
 10
64.7842
 20
45.3937
 30
0.000000
  70
    32
  0
VERTEX
  8
2
  5
580
 10
64.8186
 20
45.4070
 30
0.000000
  70
    32
  0
VERTEX
  8
2
  5
581
 10
64.8535
 20
45.4198
 30
0.000000
  70
    32
  0
VERTEX
  8
2
  5
582
 10
64.8888
 20
45.4319
 30
0.000000
  70
    32
  0
VERTEX
  8
2
  5
583
 10
64.9245
 20
45.4434
 30
0.000000
  70
    32
  0
VERTEX
  8
2
  5
584
 10
64.9606
 20
45.4542
 30
0.000000
  70
    32
  0
VERTEX
  8
2
  5
585
 10
64.9970
 20
45.4645
 30
0.000000
  70
    32
  0
VERTEX
  8
2
  5
586
 10
65.0338
 20
45.4741
 30
0.000000
  70
    32
  0
VERTEX
  8
2
  5
587
 10
65.0710
 20
45.4831
 30
0.000000
  70
    32
  0
VERTEX
  8
2
  5
588
 10
65.1084
 20
45.4914
 30
0.000000
  70
    32
  0
VERTEX
  8
2
  5
589
 10
65.1461
 20
45.4991
 30
0.000000
  70
    32
  0
VERTEX
  8
2
  5
58A
 10
65.1841
 20
45.5062
 30
0.000000
  70
    32
  0
VERTEX
  8
2
  5
58B
 10
65.2223
 20
45.5125
 30
0.000000
  70
    32
  0
VERTEX
  8
2
  5
58C
 10
65.2607
 20
45.5183
 30
0.000000
  70
    32
  0
VERTEX
  8
2
  5
58D
 10
65.2993
 20
45.5233
 30
0.000000
  70
    32
  0
VERTEX
  8
2
  5
58E
 10
65.3381
 20
45.5277
 30
0.000000
  70
    32
  0
VERTEX
  8
2
  5
58F
 10
65.3770
 20
45.5314
 30
0.000000
  70
    32
  0
VERTEX
  8
2
  5
590
 10
65.4160
 20
45.5345
 30
0.000000
  70
    32
  0
VERTEX
  8
2
  5
591
 10
65.4551
 20
45.5368
 30
0.000000
  70
    32
  0
VERTEX
  8
2
  5
592
 10
65.4943
 20
45.5385
 30
0.000000
  70
    32
  0
VERTEX
  8
2
  5
593
 10
65.5336
 20
45.5395
 30
0.000000
  70
    32
  0
VERTEX
  8
2
  5
594
 10
65.5728
 20
45.5399
 30
0.000000
  70
    32
  0
VERTEX
  8
2
  5
595
 10
65.6121
 20
45.5395
 30
0.000000
  70
    32
  0
VERTEX
  8
2
  5
596
 10
65.6514
 20
45.5385
 30
0.000000
  70
    32
  0
VERTEX
  8
2
  5
597
 10
65.6906
 20
45.5368
 30
0.000000
  70
    32
  0
VERTEX
  8
2
  5
598
 10
65.7297
 20
45.5345
 30
0.000000
  70
    32
  0
VERTEX
  8
2
  5
599
 10
65.7687
 20
45.5314
 30
0.000000
  70
    32
  0
VERTEX
  8
2
  5
59A
 10
65.8076
 20
45.5277
 30
0.000000
  70
    32
  0
VERTEX
  8
2
  5
59B
 10
65.8464
 20
45.5233
 30
0.000000
  70
    32
  0
VERTEX
  8
2
  5
59C
 10
65.8850
 20
45.5183
 30
0.000000
  70
    32
  0
VERTEX
  8
2
  5
59D
 10
65.9234
 20
45.5125
 30
0.000000
  70
    32
  0
VERTEX
  8
2
  5
59E
 10
65.9616
 20
45.5062
 30
0.000000
  70
    32
  0
VERTEX
  8
2
  5
59F
 10
65.9996
 20
45.4991
 30
0.000000
  70
    32
  0
VERTEX
  8
2
  5
5A0
 10
66.0373
 20
45.4914
 30
0.000000
  70
    32
  0
VERTEX
  8
2
  5
5A1
 10
66.0747
 20
45.4831
 30
0.000000
  70
    32
  0
VERTEX
  8
2
  5
5A2
 10
66.1119
 20
45.4741
 30
0.000000
  70
    32
  0
VERTEX
  8
2
  5
5A3
 10
66.1487
 20
45.4645
 30
0.000000
  70
    32
  0
VERTEX
  8
2
  5
5A4
 10
66.1851
 20
45.4542
 30
0.000000
  70
    32
  0
VERTEX
  8
2
  5
5A5
 10
66.2212
 20
45.4434
 30
0.000000
  70
    32
  0
VERTEX
  8
2
  5
5A6
 10
66.2569
 20
45.4319
 30
0.000000
  70
    32
  0
VERTEX
  8
2
  5
5A7
 10
66.2922
 20
45.4198
 30
0.000000
  70
    32
  0
VERTEX
  8
2
  5
5A8
 10
66.3271
 20
45.4070
 30
0.000000
  70
    32
  0
VERTEX
  8
2
  5
5A9
 10
66.3615
 20
45.3937
 30
0.000000
  70
    32
  0
VERTEX
  8
2
  5
5AA
 10
66.3954
 20
45.3798
 30
0.000000
  70
    32
  0
VERTEX
  8
2
  5
5AB
 10
66.4288
 20
45.3653
 30
0.000000
  70
    32
  0
VERTEX
  8
2
  5
5AC
 10
66.4618
 20
45.3503
 30
0.000000
  70
    32
  0
VERTEX
  8
2
  5
5AD
 10
66.4941
 20
45.3347
 30
0.000000
  70
    32
  0
VERTEX
  8
2
  5
5AE
 10
66.5260
 20
45.3185
 30
0.000000
  70
    32
  0
VERTEX
  8
2
  5
5AF
 10
66.5572
 20
45.3018
 30
0.000000
  70
    32
  0
VERTEX
  8
2
  5
5B0
 10
66.5879
 20
45.2845
 30
0.000000
  70
    32
  0
VERTEX
  8
2
  5
5B1
 10
66.6179
 20
45.2667
 30
0.000000
  70
    32
  0
VERTEX
  8
2
  5
5B2
 10
66.6473
 20
45.2485
 30
0.000000
  70
    32
  0
VERTEX
  8
2
  5
5B3
 10
66.6761
 20
45.2297
 30
0.000000
  70
    32
  0
VERTEX
  8
2
  5
5B4
 10
66.7042
 20
45.2104
 30
0.000000
  70
    32
  0
VERTEX
  8
2
  5
5B5
 10
66.7316
 20
45.1906
 30
0.000000
  70
    32
  0
VERTEX
  8
2
  5
5B6
 10
66.7584
 20
45.1704
 30
0.000000
  70
    32
  0
VERTEX
  8
2
  5
5B7
 10
66.7844
 20
45.1497
 30
0.000000
  70
    32
  0
VERTEX
  8
2
  5
5B8
 10
66.8097
 20
45.1286
 30
0.000000
  70
    32
  0
VERTEX
  8
2
  5
5B9
 10
66.8342
 20
45.1070
 30
0.000000
  70
    32
  0
VERTEX
  8
2
  5
5BA
 10
66.8580
 20
45.0850
 30
0.000000
  70
    32
  0
VERTEX
  8
2
  5
5BB
 10
66.8810
 20
45.0627
 30
0.000000
  70
    32
  0
VERTEX
  8
2
  5
5BC
 10
66.9032
 20
45.0399
 30
0.000000
  70
    32
  0
VERTEX
  8
2
  5
5BD
 10
66.9246
 20
45.0168
 30
0.000000
  70
    32
  0
VERTEX
  8
2
  5
5BE
 10
66.9452
 20
44.9932
 30
0.000000
  70
    32
  0
VERTEX
  8
2
  5
5BF
 10
66.9650
 20
44.9694
 30
0.000000
  70
    32
  0
VERTEX
  8
2
  5
5C0
 10
66.9839
 20
44.9452
 30
0.000000
  70
    32
  0
VERTEX
  8
2
  5
5C1
 10
67.0020
 20
44.9207
 30
0.000000
  70
    32
  0
VERTEX
  8
2
  5
5C2
 10
67.0192
 20
44.8959
 30
0.000000
  70
    32
  0
VERTEX
  8
2
  5
5C3
 10
67.0356
 20
44.8708
 30
0.000000
  70
    32
  0
VERTEX
  8
2
  5
5C4
 10
67.0511
 20
44.8454
 30
0.000000
  70
    32
  0
VERTEX
  8
2
  5
5C5
 10
67.0656
 20
44.8198
 30
0.000000
  70
    32
  0
VERTEX
  8
2
  5
5C6
 10
67.0793
 20
44.7939
 30
0.000000
  70
    32
  0
VERTEX
  8
2
  5
5C7
 10
67.0921
 20
44.7678
 30
0.000000
  70
    32
  0
VERTEX
  8
2
  5
5C8
 10
67.1040
 20
44.7415
 30
0.000000
  70
    32
  0
VERTEX
  8
2
  5
5C9
 10
67.1149
 20
44.7149
 30
0.000000
  70
    32
  0
VERTEX
  8
2
  5
5CA
 10
67.1249
 20
44.6882
 30
0.000000
  70
    32
  0
VERTEX
  8
2
  5
5CB
 10
67.1340
 20
44.6614
 30
0.000000
  70
    32
  0
VERTEX
  8
2
  5
5CC
 10
67.1421
 20
44.6344
 30
0.000000
  70
    32
  0
VERTEX
  8
2
  5
5CD
 10
67.1493
 20
44.6072
 30
0.000000
  70
    32
  0
VERTEX
  8
2
  5
5CE
 10
67.1555
 20
44.5800
 30
0.000000
  70
    32
  0
VERTEX
  8
2
  5
5CF
 10
67.1608
 20
44.5526
 30
0.000000
  70
    32
  0
VERTEX
  8
2
  5
5D0
 10
67.1651
 20
44.5252
 30
0.000000
  70
    32
  0
VERTEX
  8
2
  5
5D1
 10
67.1685
 20
44.4976
 30
0.000000
  70
    32
  0
VERTEX
  8
2
  5
5D2
 10
67.1709
 20
44.4701
 30
0.000000
  70
    32
  0
VERTEX
  8
2
  5
5D3
 10
67.1724
 20
44.4425
 30
0.000000
  70
    32
  0
VERTEX
  8
2
  5
5D4
 10
67.1728
 20
44.4149
 30
0.000000
  70
    32
  0
SEQEND
  8
2
  5
5D5
  0
POLYLINE
  5
372
  8
2
 10
63.972849663516044
 20
59.16488267805034
 30
0.0
 66
     1
 70
     8
  0
VERTEX
  8
2
  5
5D6
 10
63.9728
 20
59.1649
 30
0.000000
  70
    32
  0
VERTEX
  8
2
  5
5D7
 10
63.9733
 20
59.1373
 30
0.000000
  70
    32
  0
VERTEX
  8
2
  5
5D8
 10
63.9748
 20
59.1097
 30
0.000000
  70
    32
  0
VERTEX
  8
2
  5
5D9
 10
63.9772
 20
59.0821
 30
0.000000
  70
    32
  0
VERTEX
  8
2
  5
5DA
 10
63.9806
 20
59.0546
 30
0.000000
  70
    32
  0
VERTEX
  8
2
  5
5DB
 10
63.9849
 20
59.0272
 30
0.000000
  70
    32
  0
VERTEX
  8
2
  5
5DC
 10
63.9902
 20
58.9998
 30
0.000000
  70
    32
  0
VERTEX
  8
2
  5
5DD
 10
63.9964
 20
58.9726
 30
0.000000
  70
    32
  0
VERTEX
  8
2
  5
5DE
 10
64.0036
 20
58.9454
 30
0.000000
  70
    32
  0
VERTEX
  8
2
  5
5DF
 10
64.0117
 20
58.9184
 30
0.000000
  70
    32
  0
VERTEX
  8
2
  5
5E0
 10
64.0208
 20
58.8915
 30
0.000000
  70
    32
  0
VERTEX
  8
2
  5
5E1
 10
64.0308
 20
58.8648
 30
0.000000
  70
    32
  0
VERTEX
  8
2
  5
5E2
 10
64.0417
 20
58.8383
 30
0.000000
  70
    32
  0
VERTEX
  8
2
  5
5E3
 10
64.0536
 20
58.8120
 30
0.000000
  70
    32
  0
VERTEX
  8
2
  5
5E4
 10
64.0664
 20
58.7859
 30
0.000000
  70
    32
  0
VERTEX
  8
2
  5
5E5
 10
64.0801
 20
58.7600
 30
0.000000
  70
    32
  0
VERTEX
  8
2
  5
5E6
 10
64.0946
 20
58.7344
 30
0.000000
  70
    32
  0
VERTEX
  8
2
  5
5E7
 10
64.1101
 20
58.7090
 30
0.000000
  70
    32
  0
VERTEX
  8
2
  5
5E8
 10
64.1265
 20
58.6839
 30
0.000000
  70
    32
  0
VERTEX
  8
2
  5
5E9
 10
64.1437
 20
58.6591
 30
0.000000
  70
    32
  0
VERTEX
  8
2
  5
5EA
 10
64.1618
 20
58.6346
 30
0.000000
  70
    32
  0
VERTEX
  8
2
  5
5EB
 10
64.1807
 20
58.6104
 30
0.000000
  70
    32
  0
VERTEX
  8
2
  5
5EC
 10
64.2005
 20
58.5865
 30
0.000000
  70
    32
  0
VERTEX
  8
2
  5
5ED
 10
64.2211
 20
58.5630
 30
0.000000
  70
    32
  0
VERTEX
  8
2
  5
5EE
 10
64.2425
 20
58.5399
 30
0.000000
  70
    32
  0
VERTEX
  8
2
  5
5EF
 10
64.2647
 20
58.5171
 30
0.000000
  70
    32
  0
VERTEX
  8
2
  5
5F0
 10
64.2877
 20
58.4947
 30
0.000000
  70
    32
  0
VERTEX
  8
2
  5
5F1
 10
64.3115
 20
58.4727
 30
0.000000
  70
    32
  0
VERTEX
  8
2
  5
5F2
 10
64.3360
 20
58.4512
 30
0.000000
  70
    32
  0
VERTEX
  8
2
  5
5F3
 10
64.3613
 20
58.4301
 30
0.000000
  70
    32
  0
VERTEX
  8
2
  5
5F4
 10
64.3873
 20
58.4094
 30
0.000000
  70
    32
  0
VERTEX
  8
2
  5
5F5
 10
64.4141
 20
58.3891
 30
0.000000
  70
    32
  0
VERTEX
  8
2
  5
5F6
 10
64.4415
 20
58.3694
 30
0.000000
  70
    32
  0
VERTEX
  8
2
  5
5F7
 10
64.4696
 20
58.3501
 30
0.000000
  70
    32
  0
VERTEX
  8
2
  5
5F8
 10
64.4984
 20
58.3313
 30
0.000000
  70
    32
  0
VERTEX
  8
2
  5
5F9
 10
64.5278
 20
58.3130
 30
0.000000
  70
    32
  0
VERTEX
  8
2
  5
5FA
 10
64.5578
 20
58.2952
 30
0.000000
  70
    32
  0
VERTEX
  8
2
  5
5FB
 10
64.5885
 20
58.2780
 30
0.000000
  70
    32
  0
VERTEX
  8
2
  5
5FC
 10
64.6197
 20
58.2613
 30
0.000000
  70
    32
  0
VERTEX
  8
2
  5
5FD
 10
64.6516
 20
58.2451
 30
0.000000
  70
    32
  0
VERTEX
  8
2
  5
5FE
 10
64.6839
 20
58.2295
 30
0.000000
  70
    32
  0
VERTEX
  8
2
  5
5FF
 10
64.7169
 20
58.2144
 30
0.000000
  70
    32
  0
VERTEX
  8
2
  5
600
 10
64.7503
 20
58.1999
 30
0.000000
  70
    32
  0
VERTEX
  8
2
  5
601
 10
64.7842
 20
58.1860
 30
0.000000
  70
    32
  0
VERTEX
  8
2
  5
602
 10
64.8186
 20
58.1727
 30
0.000000
  70
    32
  0
VERTEX
  8
2
  5
603
 10
64.8535
 20
58.1600
 30
0.000000
  70
    32
  0
VERTEX
  8
2
  5
604
 10
64.8888
 20
58.1479
 30
0.000000
  70
    32
  0
VERTEX
  8
2
  5
605
 10
64.9245
 20
58.1364
 30
0.000000
  70
    32
  0
VERTEX
  8
2
  5
606
 10
64.9606
 20
58.1255
 30
0.000000
  70
    32
  0
VERTEX
  8
2
  5
607
 10
64.9970
 20
58.1153
 30
0.000000
  70
    32
  0
VERTEX
  8
2
  5
608
 10
65.0338
 20
58.1056
 30
0.000000
  70
    32
  0
VERTEX
  8
2
  5
609
 10
65.0710
 20
58.0967
 30
0.000000
  70
    32
  0
VERTEX
  8
2
  5
60A
 10
65.1084
 20
58.0883
 30
0.000000
  70
    32
  0
VERTEX
  8
2
  5
60B
 10
65.1461
 20
58.0806
 30
0.000000
  70
    32
  0
VERTEX
  8
2
  5
60C
 10
65.1841
 20
58.0736
 30
0.000000
  70
    32
  0
VERTEX
  8
2
  5
60D
 10
65.2223
 20
58.0672
 30
0.000000
  70
    32
  0
VERTEX
  8
2
  5
60E
 10
65.2607
 20
58.0615
 30
0.000000
  70
    32
  0
VERTEX
  8
2
  5
60F
 10
65.2993
 20
58.0564
 30
0.000000
  70
    32
  0
VERTEX
  8
2
  5
610
 10
65.3381
 20
58.0521
 30
0.000000
  70
    32
  0
VERTEX
  8
2
  5
611
 10
65.3770
 20
58.0483
 30
0.000000
  70
    32
  0
VERTEX
  8
2
  5
612
 10
65.4160
 20
58.0453
 30
0.000000
  70
    32
  0
VERTEX
  8
2
  5
613
 10
65.4551
 20
58.0429
 30
0.000000
  70
    32
  0
VERTEX
  8
2
  5
614
 10
65.4943
 20
58.0412
 30
0.000000
  70
    32
  0
VERTEX
  8
2
  5
615
 10
65.5336
 20
58.0402
 30
0.000000
  70
    32
  0
VERTEX
  8
2
  5
616
 10
65.5728
 20
58.0399
 30
0.000000
  70
    32
  0
VERTEX
  8
2
  5
617
 10
65.6121
 20
58.0402
 30
0.000000
  70
    32
  0
VERTEX
  8
2
  5
618
 10
65.6514
 20
58.0412
 30
0.000000
  70
    32
  0
VERTEX
  8
2
  5
619
 10
65.6906
 20
58.0429
 30
0.000000
  70
    32
  0
VERTEX
  8
2
  5
61A
 10
65.7297
 20
58.0453
 30
0.000000
  70
    32
  0
VERTEX
  8
2
  5
61B
 10
65.7687
 20
58.0483
 30
0.000000
  70
    32
  0
VERTEX
  8
2
  5
61C
 10
65.8076
 20
58.0521
 30
0.000000
  70
    32
  0
VERTEX
  8
2
  5
61D
 10
65.8464
 20
58.0564
 30
0.000000
  70
    32
  0
VERTEX
  8
2
  5
61E
 10
65.8850
 20
58.0615
 30
0.000000
  70
    32
  0
VERTEX
  8
2
  5
61F
 10
65.9234
 20
58.0672
 30
0.000000
  70
    32
  0
VERTEX
  8
2
  5
620
 10
65.9616
 20
58.0736
 30
0.000000
  70
    32
  0
VERTEX
  8
2
  5
621
 10
65.9996
 20
58.0806
 30
0.000000
  70
    32
  0
VERTEX
  8
2
  5
622
 10
66.0373
 20
58.0883
 30
0.000000
  70
    32
  0
VERTEX
  8
2
  5
623
 10
66.0747
 20
58.0967
 30
0.000000
  70
    32
  0
VERTEX
  8
2
  5
624
 10
66.1119
 20
58.1056
 30
0.000000
  70
    32
  0
VERTEX
  8
2
  5
625
 10
66.1487
 20
58.1153
 30
0.000000
  70
    32
  0
VERTEX
  8
2
  5
626
 10
66.1851
 20
58.1255
 30
0.000000
  70
    32
  0
VERTEX
  8
2
  5
627
 10
66.2212
 20
58.1364
 30
0.000000
  70
    32
  0
VERTEX
  8
2
  5
628
 10
66.2569
 20
58.1479
 30
0.000000
  70
    32
  0
VERTEX
  8
2
  5
629
 10
66.2922
 20
58.1600
 30
0.000000
  70
    32
  0
VERTEX
  8
2
  5
62A
 10
66.3271
 20
58.1727
 30
0.000000
  70
    32
  0
VERTEX
  8
2
  5
62B
 10
66.3615
 20
58.1860
 30
0.000000
  70
    32
  0
VERTEX
  8
2
  5
62C
 10
66.3954
 20
58.1999
 30
0.000000
  70
    32
  0
VERTEX
  8
2
  5
62D
 10
66.4288
 20
58.2144
 30
0.000000
  70
    32
  0
VERTEX
  8
2
  5
62E
 10
66.4618
 20
58.2295
 30
0.000000
  70
    32
  0
VERTEX
  8
2
  5
62F
 10
66.4941
 20
58.2451
 30
0.000000
  70
    32
  0
VERTEX
  8
2
  5
630
 10
66.5260
 20
58.2613
 30
0.000000
  70
    32
  0
VERTEX
  8
2
  5
631
 10
66.5572
 20
58.2780
 30
0.000000
  70
    32
  0
VERTEX
  8
2
  5
632
 10
66.5879
 20
58.2952
 30
0.000000
  70
    32
  0
VERTEX
  8
2
  5
633
 10
66.6179
 20
58.3130
 30
0.000000
  70
    32
  0
VERTEX
  8
2
  5
634
 10
66.6473
 20
58.3313
 30
0.000000
  70
    32
  0
VERTEX
  8
2
  5
635
 10
66.6761
 20
58.3501
 30
0.000000
  70
    32
  0
VERTEX
  8
2
  5
636
 10
66.7042
 20
58.3694
 30
0.000000
  70
    32
  0
VERTEX
  8
2
  5
637
 10
66.7316
 20
58.3891
 30
0.000000
  70
    32
  0
VERTEX
  8
2
  5
638
 10
66.7584
 20
58.4094
 30
0.000000
  70
    32
  0
VERTEX
  8
2
  5
639
 10
66.7844
 20
58.4301
 30
0.000000
  70
    32
  0
VERTEX
  8
2
  5
63A
 10
66.8097
 20
58.4512
 30
0.000000
  70
    32
  0
VERTEX
  8
2
  5
63B
 10
66.8342
 20
58.4727
 30
0.000000
  70
    32
  0
VERTEX
  8
2
  5
63C
 10
66.8580
 20
58.4947
 30
0.000000
  70
    32
  0
VERTEX
  8
2
  5
63D
 10
66.8810
 20
58.5171
 30
0.000000
  70
    32
  0
VERTEX
  8
2
  5
63E
 10
66.9032
 20
58.5399
 30
0.000000
  70
    32
  0
VERTEX
  8
2
  5
63F
 10
66.9246
 20
58.5630
 30
0.000000
  70
    32
  0
VERTEX
  8
2
  5
640
 10
66.9452
 20
58.5865
 30
0.000000
  70
    32
  0
VERTEX
  8
2
  5
641
 10
66.9650
 20
58.6104
 30
0.000000
  70
    32
  0
VERTEX
  8
2
  5
642
 10
66.9839
 20
58.6346
 30
0.000000
  70
    32
  0
VERTEX
  8
2
  5
643
 10
67.0020
 20
58.6591
 30
0.000000
  70
    32
  0
VERTEX
  8
2
  5
644
 10
67.0192
 20
58.6839
 30
0.000000
  70
    32
  0
VERTEX
  8
2
  5
645
 10
67.0356
 20
58.7090
 30
0.000000
  70
    32
  0
VERTEX
  8
2
  5
646
 10
67.0511
 20
58.7344
 30
0.000000
  70
    32
  0
VERTEX
  8
2
  5
647
 10
67.0656
 20
58.7600
 30
0.000000
  70
    32
  0
VERTEX
  8
2
  5
648
 10
67.0793
 20
58.7859
 30
0.000000
  70
    32
  0
VERTEX
  8
2
  5
649
 10
67.0921
 20
58.8120
 30
0.000000
  70
    32
  0
VERTEX
  8
2
  5
64A
 10
67.1040
 20
58.8383
 30
0.000000
  70
    32
  0
VERTEX
  8
2
  5
64B
 10
67.1149
 20
58.8648
 30
0.000000
  70
    32
  0
VERTEX
  8
2
  5
64C
 10
67.1249
 20
58.8915
 30
0.000000
  70
    32
  0
VERTEX
  8
2
  5
64D
 10
67.1340
 20
58.9184
 30
0.000000
  70
    32
  0
VERTEX
  8
2
  5
64E
 10
67.1421
 20
58.9454
 30
0.000000
  70
    32
  0
VERTEX
  8
2
  5
64F
 10
67.1493
 20
58.9726
 30
0.000000
  70
    32
  0
VERTEX
  8
2
  5
650
 10
67.1555
 20
58.9998
 30
0.000000
  70
    32
  0
VERTEX
  8
2
  5
651
 10
67.1608
 20
59.0272
 30
0.000000
  70
    32
  0
VERTEX
  8
2
  5
652
 10
67.1651
 20
59.0546
 30
0.000000
  70
    32
  0
VERTEX
  8
2
  5
653
 10
67.1685
 20
59.0821
 30
0.000000
  70
    32
  0
VERTEX
  8
2
  5
654
 10
67.1709
 20
59.1097
 30
0.000000
  70
    32
  0
VERTEX
  8
2
  5
655
 10
67.1724
 20
59.1373
 30
0.000000
  70
    32
  0
VERTEX
  8
2
  5
656
 10
67.1728
 20
59.1649
 30
0.000000
  70
    32
  0
SEQEND
  8
2
  5
657
  0
LINE
  5
373
  8
2
 10
67.172849663516018
 20
58.039882678050368
 30
0.0
 11
63.97284966351603
 21
58.039882678050361
 31
0.0
  0
POLYLINE
  5
374
  8
0
 10
63.972849663516044
 20
59.164882678050361
 30
0.0
 66
     1
 70
     8
  0
VERTEX
  8
0
  5
658
 10
63.9728
 20
59.1649
 30
0.000000
  70
    32
  0
VERTEX
  8
0
  5
659
 10
63.9733
 20
59.1925
 30
0.000000
  70
    32
  0
VERTEX
  8
0
  5
65A
 10
63.9748
 20
59.2201
 30
0.000000
  70
    32
  0
VERTEX
  8
0
  5
65B
 10
63.9772
 20
59.2476
 30
0.000000
  70
    32
  0
VERTEX
  8
0
  5
65C
 10
63.9806
 20
59.2752
 30
0.000000
  70
    32
  0
VERTEX
  8
0
  5
65D
 10
63.9849
 20
59.3026
 30
0.000000
  70
    32
  0
VERTEX
  8
0
  5
65E
 10
63.9902
 20
59.3300
 30
0.000000
  70
    32
  0
VERTEX
  8
0
  5
65F
 10
63.9964
 20
59.3572
 30
0.000000
  70
    32
  0
VERTEX
  8
0
  5
660
 10
64.0036
 20
59.3844
 30
0.000000
  70
    32
  0
VERTEX
  8
0
  5
661
 10
64.0117
 20
59.4114
 30
0.000000
  70
    32
  0
VERTEX
  8
0
  5
662
 10
64.0208
 20
59.4382
 30
0.000000
  70
    32
  0
VERTEX
  8
0
  5
663
 10
64.0308
 20
59.4649
 30
0.000000
  70
    32
  0
VERTEX
  8
0
  5
664
 10
64.0417
 20
59.4915
 30
0.000000
  70
    32
  0
VERTEX
  8
0
  5
665
 10
64.0536
 20
59.5178
 30
0.000000
  70
    32
  0
VERTEX
  8
0
  5
666
 10
64.0664
 20
59.5439
 30
0.000000
  70
    32
  0
VERTEX
  8
0
  5
667
 10
64.0801
 20
59.5698
 30
0.000000
  70
    32
  0
VERTEX
  8
0
  5
668
 10
64.0946
 20
59.5954
 30
0.000000
  70
    32
  0
VERTEX
  8
0
  5
669
 10
64.1101
 20
59.6208
 30
0.000000
  70
    32
  0
VERTEX
  8
0
  5
66A
 10
64.1265
 20
59.6459
 30
0.000000
  70
    32
  0
VERTEX
  8
0
  5
66B
 10
64.1437
 20
59.6707
 30
0.000000
  70
    32
  0
VERTEX
  8
0
  5
66C
 10
64.1618
 20
59.6952
 30
0.000000
  70
    32
  0
VERTEX
  8
0
  5
66D
 10
64.1807
 20
59.7194
 30
0.000000
  70
    32
  0
VERTEX
  8
0
  5
66E
 10
64.2005
 20
59.7432
 30
0.000000
  70
    32
  0
VERTEX
  8
0
  5
66F
 10
64.2211
 20
59.7668
 30
0.000000
  70
    32
  0
VERTEX
  8
0
  5
670
 10
64.2425
 20
59.7899
 30
0.000000
  70
    32
  0
VERTEX
  8
0
  5
671
 10
64.2647
 20
59.8127
 30
0.000000
  70
    32
  0
VERTEX
  8
0
  5
672
 10
64.2877
 20
59.8350
 30
0.000000
  70
    32
  0
VERTEX
  8
0
  5
673
 10
64.3115
 20
59.8570
 30
0.000000
  70
    32
  0
VERTEX
  8
0
  5
674
 10
64.3360
 20
59.8786
 30
0.000000
  70
    32
  0
VERTEX
  8
0
  5
675
 10
64.3613
 20
59.8997
 30
0.000000
  70
    32
  0
VERTEX
  8
0
  5
676
 10
64.3873
 20
59.9204
 30
0.000000
  70
    32
  0
VERTEX
  8
0
  5
677
 10
64.4141
 20
59.9406
 30
0.000000
  70
    32
  0
VERTEX
  8
0
  5
678
 10
64.4415
 20
59.9604
 30
0.000000
  70
    32
  0
VERTEX
  8
0
  5
679
 10
64.4696
 20
59.9797
 30
0.000000
  70
    32
  0
VERTEX
  8
0
  5
67A
 10
64.4984
 20
59.9985
 30
0.000000
  70
    32
  0
VERTEX
  8
0
  5
67B
 10
64.5278
 20
60.0167
 30
0.000000
  70
    32
  0
VERTEX
  8
0
  5
67C
 10
64.5578
 20
60.0345
 30
0.000000
  70
    32
  0
VERTEX
  8
0
  5
67D
 10
64.5885
 20
60.0518
 30
0.000000
  70
    32
  0
VERTEX
  8
0
  5
67E
 10
64.6197
 20
60.0685
 30
0.000000
  70
    32
  0
VERTEX
  8
0
  5
67F
 10
64.6516
 20
60.0847
 30
0.000000
  70
    32
  0
VERTEX
  8
0
  5
680
 10
64.6839
 20
60.1003
 30
0.000000
  70
    32
  0
VERTEX
  8
0
  5
681
 10
64.7169
 20
60.1153
 30
0.000000
  70
    32
  0
VERTEX
  8
0
  5
682
 10
64.7503
 20
60.1298
 30
0.000000
  70
    32
  0
VERTEX
  8
0
  5
683
 10
64.7842
 20
60.1437
 30
0.000000
  70
    32
  0
VERTEX
  8
0
  5
684
 10
64.8186
 20
60.1570
 30
0.000000
  70
    32
  0
VERTEX
  8
0
  5
685
 10
64.8535
 20
60.1698
 30
0.000000
  70
    32
  0
VERTEX
  8
0
  5
686
 10
64.8888
 20
60.1819
 30
0.000000
  70
    32
  0
VERTEX
  8
0
  5
687
 10
64.9245
 20
60.1934
 30
0.000000
  70
    32
  0
VERTEX
  8
0
  5
688
 10
64.9606
 20
60.2042
 30
0.000000
  70
    32
  0
VERTEX
  8
0
  5
689
 10
64.9970
 20
60.2145
 30
0.000000
  70
    32
  0
VERTEX
  8
0
  5
68A
 10
65.0338
 20
60.2241
 30
0.000000
  70
    32
  0
VERTEX
  8
0
  5
68B
 10
65.0710
 20
60.2331
 30
0.000000
  70
    32
  0
VERTEX
  8
0
  5
68C
 10
65.1084
 20
60.2414
 30
0.000000
  70
    32
  0
VERTEX
  8
0
  5
68D
 10
65.1461
 20
60.2491
 30
0.000000
  70
    32
  0
VERTEX
  8
0
  5
68E
 10
65.1841
 20
60.2562
 30
0.000000
  70
    32
  0
VERTEX
  8
0
  5
68F
 10
65.2223
 20
60.2625
 30
0.000000
  70
    32
  0
VERTEX
  8
0
  5
690
 10
65.2607
 20
60.2683
 30
0.000000
  70
    32
  0
VERTEX
  8
0
  5
691
 10
65.2993
 20
60.2733
 30
0.000000
  70
    32
  0
VERTEX
  8
0
  5
692
 10
65.3381
 20
60.2777
 30
0.000000
  70
    32
  0
VERTEX
  8
0
  5
693
 10
65.3770
 20
60.2814
 30
0.000000
  70
    32
  0
VERTEX
  8
0
  5
694
 10
65.4160
 20
60.2845
 30
0.000000
  70
    32
  0
VERTEX
  8
0
  5
695
 10
65.4551
 20
60.2868
 30
0.000000
  70
    32
  0
VERTEX
  8
0
  5
696
 10
65.4943
 20
60.2885
 30
0.000000
  70
    32
  0
VERTEX
  8
0
  5
697
 10
65.5336
 20
60.2895
 30
0.000000
  70
    32
  0
VERTEX
  8
0
  5
698
 10
65.5728
 20
60.2899
 30
0.000000
  70
    32
  0
VERTEX
  8
0
  5
699
 10
65.6121
 20
60.2895
 30
0.000000
  70
    32
  0
VERTEX
  8
0
  5
69A
 10
65.6514
 20
60.2885
 30
0.000000
  70
    32
  0
VERTEX
  8
0
  5
69B
 10
65.6906
 20
60.2868
 30
0.000000
  70
    32
  0
VERTEX
  8
0
  5
69C
 10
65.7297
 20
60.2845
 30
0.000000
  70
    32
  0
VERTEX
  8
0
  5
69D
 10
65.7687
 20
60.2814
 30
0.000000
  70
    32
  0
VERTEX
  8
0
  5
69E
 10
65.8076
 20
60.2777
 30
0.000000
  70
    32
  0
VERTEX
  8
0
  5
69F
 10
65.8464
 20
60.2733
 30
0.000000
  70
    32
  0
VERTEX
  8
0
  5
6A0
 10
65.8850
 20
60.2683
 30
0.000000
  70
    32
  0
VERTEX
  8
0
  5
6A1
 10
65.9234
 20
60.2625
 30
0.000000
  70
    32
  0
VERTEX
  8
0
  5
6A2
 10
65.9616
 20
60.2562
 30
0.000000
  70
    32
  0
VERTEX
  8
0
  5
6A3
 10
65.9996
 20
60.2491
 30
0.000000
  70
    32
  0
VERTEX
  8
0
  5
6A4
 10
66.0373
 20
60.2414
 30
0.000000
  70
    32
  0
VERTEX
  8
0
  5
6A5
 10
66.0747
 20
60.2331
 30
0.000000
  70
    32
  0
VERTEX
  8
0
  5
6A6
 10
66.1119
 20
60.2241
 30
0.000000
  70
    32
  0
VERTEX
  8
0
  5
6A7
 10
66.1487
 20
60.2145
 30
0.000000
  70
    32
  0
VERTEX
  8
0
  5
6A8
 10
66.1851
 20
60.2042
 30
0.000000
  70
    32
  0
VERTEX
  8
0
  5
6A9
 10
66.2212
 20
60.1934
 30
0.000000
  70
    32
  0
VERTEX
  8
0
  5
6AA
 10
66.2569
 20
60.1819
 30
0.000000
  70
    32
  0
VERTEX
  8
0
  5
6AB
 10
66.2922
 20
60.1698
 30
0.000000
  70
    32
  0
VERTEX
  8
0
  5
6AC
 10
66.3271
 20
60.1570
 30
0.000000
  70
    32
  0
VERTEX
  8
0
  5
6AD
 10
66.3615
 20
60.1437
 30
0.000000
  70
    32
  0
VERTEX
  8
0
  5
6AE
 10
66.3954
 20
60.1298
 30
0.000000
  70
    32
  0
VERTEX
  8
0
  5
6AF
 10
66.4288
 20
60.1153
 30
0.000000
  70
    32
  0
VERTEX
  8
0
  5
6B0
 10
66.4618
 20
60.1003
 30
0.000000
  70
    32
  0
VERTEX
  8
0
  5
6B1
 10
66.4941
 20
60.0847
 30
0.000000
  70
    32
  0
VERTEX
  8
0
  5
6B2
 10
66.5260
 20
60.0685
 30
0.000000
  70
    32
  0
VERTEX
  8
0
  5
6B3
 10
66.5572
 20
60.0518
 30
0.000000
  70
    32
  0
VERTEX
  8
0
  5
6B4
 10
66.5879
 20
60.0345
 30
0.000000
  70
    32
  0
VERTEX
  8
0
  5
6B5
 10
66.6179
 20
60.0167
 30
0.000000
  70
    32
  0
VERTEX
  8
0
  5
6B6
 10
66.6473
 20
59.9985
 30
0.000000
  70
    32
  0
VERTEX
  8
0
  5
6B7
 10
66.6761
 20
59.9797
 30
0.000000
  70
    32
  0
VERTEX
  8
0
  5
6B8
 10
66.7042
 20
59.9604
 30
0.000000
  70
    32
  0
VERTEX
  8
0
  5
6B9
 10
66.7316
 20
59.9406
 30
0.000000
  70
    32
  0
VERTEX
  8
0
  5
6BA
 10
66.7584
 20
59.9204
 30
0.000000
  70
    32
  0
VERTEX
  8
0
  5
6BB
 10
66.7844
 20
59.8997
 30
0.000000
  70
    32
  0
VERTEX
  8
0
  5
6BC
 10
66.8097
 20
59.8786
 30
0.000000
  70
    32
  0
VERTEX
  8
0
  5
6BD
 10
66.8342
 20
59.8570
 30
0.000000
  70
    32
  0
VERTEX
  8
0
  5
6BE
 10
66.8580
 20
59.8350
 30
0.000000
  70
    32
  0
VERTEX
  8
0
  5
6BF
 10
66.8810
 20
59.8127
 30
0.000000
  70
    32
  0
VERTEX
  8
0
  5
6C0
 10
66.9032
 20
59.7899
 30
0.000000
  70
    32
  0
VERTEX
  8
0
  5
6C1
 10
66.9246
 20
59.7668
 30
0.000000
  70
    32
  0
VERTEX
  8
0
  5
6C2
 10
66.9452
 20
59.7432
 30
0.000000
  70
    32
  0
VERTEX
  8
0
  5
6C3
 10
66.9650
 20
59.7194
 30
0.000000
  70
    32
  0
VERTEX
  8
0
  5
6C4
 10
66.9839
 20
59.6952
 30
0.000000
  70
    32
  0
VERTEX
  8
0
  5
6C5
 10
67.0020
 20
59.6707
 30
0.000000
  70
    32
  0
VERTEX
  8
0
  5
6C6
 10
67.0192
 20
59.6459
 30
0.000000
  70
    32
  0
VERTEX
  8
0
  5
6C7
 10
67.0356
 20
59.6208
 30
0.000000
  70
    32
  0
VERTEX
  8
0
  5
6C8
 10
67.0511
 20
59.5954
 30
0.000000
  70
    32
  0
VERTEX
  8
0
  5
6C9
 10
67.0656
 20
59.5698
 30
0.000000
  70
    32
  0
VERTEX
  8
0
  5
6CA
 10
67.0793
 20
59.5439
 30
0.000000
  70
    32
  0
VERTEX
  8
0
  5
6CB
 10
67.0921
 20
59.5178
 30
0.000000
  70
    32
  0
VERTEX
  8
0
  5
6CC
 10
67.1040
 20
59.4915
 30
0.000000
  70
    32
  0
VERTEX
  8
0
  5
6CD
 10
67.1149
 20
59.4649
 30
0.000000
  70
    32
  0
VERTEX
  8
0
  5
6CE
 10
67.1249
 20
59.4382
 30
0.000000
  70
    32
  0
VERTEX
  8
0
  5
6CF
 10
67.1340
 20
59.4114
 30
0.000000
  70
    32
  0
VERTEX
  8
0
  5
6D0
 10
67.1421
 20
59.3844
 30
0.000000
  70
    32
  0
VERTEX
  8
0
  5
6D1
 10
67.1493
 20
59.3572
 30
0.000000
  70
    32
  0
VERTEX
  8
0
  5
6D2
 10
67.1555
 20
59.3300
 30
0.000000
  70
    32
  0
VERTEX
  8
0
  5
6D3
 10
67.1608
 20
59.3026
 30
0.000000
  70
    32
  0
VERTEX
  8
0
  5
6D4
 10
67.1651
 20
59.2752
 30
0.000000
  70
    32
  0
VERTEX
  8
0
  5
6D5
 10
67.1685
 20
59.2476
 30
0.000000
  70
    32
  0
VERTEX
  8
0
  5
6D6
 10
67.1709
 20
59.2201
 30
0.000000
  70
    32
  0
VERTEX
  8
0
  5
6D7
 10
67.1724
 20
59.1925
 30
0.000000
  70
    32
  0
VERTEX
  8
0
  5
6D8
 10
67.1728
 20
59.1649
 30
0.000000
  70
    32
  0
SEQEND
  8
0
  5
6D9
  0
LINE
  5
375
  8
0
 10
63.972849663516051
 20
54.33709467805032
 30
0.0
 11
62.172849663516068
 21
54.33709467805032
 31
0.0
  0
LINE
  5
376
  8
0
 10
63.97284966351603
 20
59.899241678050323
 30
0.0
 11
62.172849663516068
 21
59.899241678050323
 31
0.0
  0
LINE
  5
377
  8
0
 10
63.97284966351603
 20
59.325216678050317
 30
0.0
 11
62.172849663516068
 21
59.325216678050317
 31
0.0
  0
LINE
  5
378
  8
0
 10
63.972849663516051
 20
55.722914678050309
 30
0.0
 11
62.172849663516068
 21
55.72291467805033
 31
0.0
  0
INSERT
  5
379
  8
0
  2
*X0
 10
-81.158356541727414
 20
-0.9671616864581835
 30
0.0
  0
CIRCLE
  5
37A
  8
0
 10
30.1728496635161
 20
51.789882678050297
 30
0.0
 40
9.0
  0
CIRCLE
  5
37B
  8
0
 10
30.1728496635161
 20
51.789882678050297
 30
0.0
 40
4.5
  0
CIRCLE
  5
37C
  8
0
 10
30.1728496635161
 20
51.789882678050297
 30
0.0
 40
6.0
  0
CIRCLE
  5
37D
  8
0
 10
30.1728496635161
 20
51.789882678050297
 30
0.0
 40
8.0
  0
LINE
  5
37E
  8
0
 10
26.24729237823777
 20
49.589882678050252
 30
0.0
 11
34.098406948793979
 21
49.589882678050252
 31
0.0
  0
LINE
  5
37F
  8
0
 10
25.69540619653646
 20
52.239882678050229
 30
0.0
 11
34.650293130495363
 21
52.239882678050229
 31
0.0
  0
LINE
  5
380
  8
0
 10
25.69540619653646
 20
51.339882678050259
 30
0.0
 11
34.650293130495747
 21
51.339882678050259
 31
0.0
  0
ARC
  5
381
  8
0
 10
30.1728496635161
 20
56.789882678050297
 30
0.0
 40
2.5
 50
206.10388113734069
 51
333.89611886265931
  0
TEXT
  5
382
  8
3
 10
27.6378496635161
 20
50.089882678050152
 30
0.0
 40
0.6
  1
ELESA
 41
1.95
  7
SIM195
 72
     1
 11
30.1728496635161
 21
50.089882678050152
 31
0.0
  0
LINE
  5
383
  8
1
 10
41.672849663516097
 20
51.789882678050297
 30
0.0
 11
18.67284966351604
 21
51.789882678050297
 31
0.0
  0
LINE
  5
384
  8
1
 10
30.1728496635161
 20
63.28988267805034
 30
0.0
 11
30.1728496635161
 21
40.289882678050297
 31
0.0
  0
TEXT
  5
441
  8
0
 62
     3
 10
0.0
 20
0.0
 30
0.0
 40
10.0
  1
LE-17
  7
STANDARD1
  0
ENDSEC
  0
EOF
