  0
SECTION
  2
HEADER
  9
$ACADVER
  1
AC1009
  9
$INSBASE
 10
0.0
 20
0.0
 30
0.0
  9
$EXTMIN
 10
0.0
 20
-2.960436562073669
 30
0.0
  9
$EXTMAX
 10
119.15928142980459
 20
64.141778612791839
 30
0.0
  9
$LIMMIN
 10
0.0
 20
0.0
  9
$LIMMAX
 10
187.5
 20
135.0
  9
$ORTHOMODE
 70
     0
  9
$REGENMODE
 70
     1
  9
$FILLMODE
 70
     1
  9
$QTEXTMODE
 70
     0
  9
$MIRRTEXT
 70
     0
  9
$DRAGMODE
 70
     2
  9
$LTSCALE
 40
5.0
  9
$OSMODE
 70
  3071
  9
$ATTMODE
 70
     1
  9
$TEXTSIZE
 40
1.6000000000000001
  9
$TRACEWID
 40
0.05
  9
$TEXTSTYLE
  7
STANDARD
  9
$CLAYER
  8
0
  9
$CELTYPE
  6
BYLAYER
  9
$CECOLOR
 62
   256
  9
$DIMSCALE
 40
0.5
  9
$DIMASZ
 40
3.0
  9
$DIMEXO
 40
2.0
  9
$DIMDLI
 40
10.0
  9
$DIMRND
 40
0.0
  9
$DIMDLE
 40
0.0
  9
$DIMEXE
 40
2.0
  9
$DIMTP
 40
0.0
  9
$DIMTM
 40
0.0
  9
$DIMTXT
 40
3.2000000000000002
  9
$DIMCEN
 40
0.09
  9
$DIMTSZ
 40
0.0
  9
$DIMTOL
 70
     0
  9
$DIMLIM
 70
     0
  9
$DIMTIH
 70
     0
  9
$DIMTOH
 70
     0
  9
$DIMSE1
 70
     0
  9
$DIMSE2
 70
     0
  9
$DIMTAD
 70
     1
  9
$DIMZIN
 70
     0
  9
$DIMBLK
  1

  9
$DIMASO
 70
     0
  9
$DIMSHO
 70
     0
  9
$DIMPOST
  1

  9
$DIMAPOST
  1

  9
$DIMALT
 70
     0
  9
$DIMALTD
 70
     2
  9
$DIMALTF
 40
25.399999999999999
  9
$DIMLFAC
 40
1.0
  9
$DIMTOFL
 70
     1
  9
$DIMTVP
 40
1.6000000000000001
  9
$DIMTIX
 70
     1
  9
$DIMSOXD
 70
     0
  9
$DIMSAH
 70
     0
  9
$DIMBLK1
  1

  9
$DIMBLK2
  1

  9
$DIMSTYLE
  2
STANDARD
  9
$DIMCLRD
 70
     0
  9
$DIMCLRE
 70
     0
  9
$DIMCLRT
 70
     0
  9
$DIMTFAC
 40
1.0
  9
$DIMGAP
 40
0.09
  9
$LUNITS
 70
     2
  9
$LUPREC
 70
     4
  9
$SKETCHINC
 40
0.1
  9
$FILLETRAD
 40
0.0
  9
$AUNITS
 70
     0
  9
$AUPREC
 70
     0
  9
$MENU
  1
E:\r13\win\SUPPORT\ACAD
  9
$ELEVATION
 40
0.0
  9
$PELEVATION
 40
0.0
  9
$THICKNESS
 40
0.0
  9
$LIMCHECK
 70
     0
  9
$BLIPMODE
 70
     0
  9
$CHAMFERA
 40
0.0
  9
$CHAMFERB
 40
0.0
  9
$SKPOLY
 70
     0
  9
$TDCREATE
 40
2449840.5945833339
  9
$TDUPDATE
 40
2456597.5723184142
  9
$TDINDWG
 40
0.017017581
  9
$TDUSRTIMER
 40
0.017017581
  9
$USRTIMER
 70
     1
  9
$ANGBASE
 50
0.0
  9
$ANGDIR
 70
     0
  9
$PDMODE
 70
     0
  9
$PDSIZE
 40
0.0
  9
$PLINEWID
 40
0.0
  9
$COORDS
 70
     1
  9
$SPLFRAME
 70
     0
  9
$SPLINETYPE
 70
     6
  9
$SPLINESEGS
 70
     8
  9
$ATTDIA
 70
     0
  9
$ATTREQ
 70
     1
  9
$HANDLING
 70
     1
  9
$HANDSEED
  5
784
  9
$SURFTAB1
 70
     6
  9
$SURFTAB2
 70
     6
  9
$SURFTYPE
 70
     6
  9
$SURFU
 70
     6
  9
$SURFV
 70
     6
  9
$UCSNAME
  2

  9
$UCSORG
 10
0.0
 20
0.0
 30
0.0
  9
$UCSXDIR
 10
1.0
 20
0.0
 30
0.0
  9
$UCSYDIR
 10
0.0
 20
1.0
 30
0.0
  9
$PUCSNAME
  2

  9
$PUCSORG
 10
0.0
 20
0.0
 30
0.0
  9
$PUCSXDIR
 10
1.0
 20
0.0
 30
0.0
  9
$PUCSYDIR
 10
0.0
 20
1.0
 30
0.0
  9
$USERI1
 70
     0
  9
$USERI2
 70
     1
  9
$USERI3
 70
     0
  9
$USERI4
 70
     0
  9
$USERI5
 70
     0
  9
$USERR1
 40
0.0
  9
$USERR2
 40
0.0
  9
$USERR3
 40
0.0
  9
$USERR4
 40
0.0
  9
$USERR5
 40
0.0
  9
$WORLDVIEW
 70
     1
  9
$SHADEDGE
 70
     3
  9
$SHADEDIF
 70
    70
  9
$TILEMODE
 70
     1
  9
$MAXACTVP
 70
    16
  9
$PLIMCHECK
 70
     0
  9
$PEXTMIN
 10
1.0000000000000000E+020
 20
1.0000000000000000E+020
 30
1.0000000000000000E+020
  9
$PEXTMAX
 10
-1.0000000000000000E+020
 20
-1.0000000000000000E+020
 30
-1.0000000000000000E+020
  9
$PLIMMIN
 10
0.0
 20
0.0
  9
$PLIMMAX
 10
12.0
 20
9.0
  9
$UNITMODE
 70
     0
  9
$VISRETAIN
 70
     0
  9
$PLINEGEN
 70
     0
  9
$PSLTSCALE
 70
     0
  0
ENDSEC
  0
SECTION
  2
TABLES
  0
TABLE
  2
VPORT
 70
     1
  0
VPORT
  2
*ACTIVE
 70
     0
 10
0.0
 20
0.0
 11
1.0
 21
1.0
 12
93.74713919532617
 22
80.848703909439024
 13
0.0
 23
0.0
 14
5.0
 24
5.0
 15
5.0
 25
5.0
 16
0.0
 26
0.0
 36
1.0
 17
0.0
 27
0.0
 37
0.0
 40
169.22413112104309
 41
1.9089595375722539
 42
50.0
 43
0.0
 44
0.0
 50
0.0
 51
0.0
 71
     0
 72
   100
 73
     1
 74
     0
 75
     0
 76
     0
 77
     0
 78
     0
  0
ENDTAB
  0
TABLE
  2
LTYPE
 70
     4
  0
LTYPE
  2
CONTINUOUS
 70
     0
  3
Solid Line
 72
    65
 73
     0
 40
0.0
  0
LTYPE
  2
CENTER
 70
     0
  3
____ _ ____ _ ____ _ ____ _ ____ _ ____ _ ____
 72
    65
 73
     4
 40
2.0
 49
1.25
 49
-0.25
 49
0.25
 49
-0.25
  0
LTYPE
  2
HIDDEN
 70
     0
  3
_ _ _ _ _ _ _ _ _ _ _ _ _ _ _ _ _ _ _ _ _ _ _
 72
    65
 73
     2
 40
0.375
 49
0.25
 49
-0.125
  0
LTYPE
  2
PHANTOM2
 70
     0
  3
___ _ _ ___ _ _ ___ _ _ ___ _ _
 72
    65
 73
     6
 40
1.25
 49
0.625
 49
-0.125
 49
0.125
 49
-0.125
 49
0.125
 49
-0.125
  0
ENDTAB
  0
TABLE
  2
LAYER
 70
     4
  0
LAYER
  2
0
 70
     0
 62
     7
  6
CONTINUOUS
  0
LAYER
  2
1
 70
     0
 62
     1
  6
CENTER
  0
LAYER
  2
2
 70
     0
 62
     2
  6
HIDDEN
  0
LAYER
  2
3
 70
     0
 62
     3
  6
CONTINUOUS
  0
ENDTAB
  0
TABLE
  2
STYLE
 70
     3
  0
STYLE
  2
STANDARD
 70
     0
 40
0.0
 41
1.0
 50
0.0
 71
     0
 42
1.6000000000000001
  3
TXT
  4
BIGFONT
  0
STYLE
  2
SIM180
 70
     0
 40
0.0
 41
1.8
 50
0.0
 71
     0
 42
1.1999999999999991
  3
SIMPLEX
  4

  0
STYLE
  2
STANDARD1
 70
     0
 40
0.0
 41
1.0
 50
0.0
 71
     0
 42
3.0
  3
txt
  4

  0
ENDTAB
  0
TABLE
  2
VIEW
 70
     1
  0
VIEW
  2
ALL
 70
     0
 40
135.0
 10
110.49579799999999
 20
67.5
 41
0.0
 11
0.0
 21
0.0
 31
1.0
 12
0.0
 22
0.0
 32
0.0
 42
0.0
 43
0.0
 44
0.0
 50
0.0
 71
     0
  0
ENDTAB
  0
TABLE
  2
UCS
 70
     0
  0
ENDTAB
  0
TABLE
  2
APPID
 70
     3
  0
APPID
  2
ACAD
 70
     0
  0
APPID
  2
ACAD_MLEADERVER
 70
     0
  0
APPID
  2
ACAD_NAV_VCDISPLAY
 70
     0
  0
ENDTAB
  0
TABLE
  2
DIMSTYLE
 70
     1
  0
DIMSTYLE
  2
STANDARD
 70
     0
  3

  4

  5

  6

  7

 40
1.0
 41
0.18
 42
0.0625
 43
0.38
 44
0.18
 45
0.0
 46
0.0
 47
0.0
 48
0.0
140
0.18
141
0.09
142
0.0
143
25.399999999999999
144
1.0
145
0.0
146
1.0
147
0.09
 71
     0
 72
     0
 73
     1
 74
     1
 75
     0
 76
     0
 77
     0
 78
     0
170
     0
171
     2
172
     0
173
     0
174
     0
175
     0
176
     0
177
     0
178
     0
  0
ENDTAB
  0
ENDSEC
  0
SECTION
  2
BLOCKS
  0
BLOCK
  8
0
  2
$MODEL_SPACE
 70
     0
 10
0.0
 20
0.0
 30
0.0
  3
$MODEL_SPACE
  1

  0
ENDBLK
  5
113
  8
0
  0
BLOCK
 67
     1
  8
0
  2
$PAPER_SPACE
 70
     0
 10
0.0
 20
0.0
 30
0.0
  3
$PAPER_SPACE
  1

  0
ENDBLK
  5
111
 67
     1
  8
0
  0
BLOCK
  8
0
  2
*X0
 70
     1
 10
0.0
 20
0.0
 30
0.0
  3
*X0
  1

  0
LINE
  5
38E
  8
0
 62
     0
 10
109.0721090072373
 20
52.75
 30
0.0
 11
121.0721007367225
 21
52.75
 31
0.0
  0
LINE
  5
38F
  8
0
 62
     0
 10
109.0722586395019
 20
52.800000000000011
 30
0.0
 11
121.0719511044579
 21
52.800000000000011
 31
0.0
  0
LINE
  5
390
  8
0
 62
     0
 10
109.0728249777067
 20
52.850000000000001
 30
0.0
 11
121.0713847662531
 21
52.850000000000001
 31
0.0
  0
LINE
  5
391
  8
0
 62
     0
 10
109.0738081398832
 20
52.899999999999999
 30
0.0
 11
121.07040160407659
 21
52.899999999999999
 31
0.0
  0
LINE
  5
392
  8
0
 62
     0
 10
109.0752083310404
 20
52.950000000000003
 30
0.0
 11
121.06900141291941
 21
52.950000000000003
 31
0.0
  0
LINE
  5
393
  8
0
 62
     0
 10
109.0770258433779
 20
53.0
 30
0.0
 11
121.0671839005819
 21
53.0
 31
0.0
  0
LINE
  5
394
  8
0
 62
     0
 10
109.079261056592
 20
53.049999999999997
 30
0.0
 11
121.0649486873678
 21
53.049999999999997
 31
0.0
  0
LINE
  5
395
  8
0
 62
     0
 10
109.08191443827209
 20
53.100000000000001
 30
0.0
 11
121.0622953056877
 21
53.100000000000001
 31
0.0
  0
LINE
  5
396
  8
0
 62
     0
 10
109.08498654439229
 20
53.150000000000013
 30
0.0
 11
121.0592231995675
 21
53.150000000000013
 31
0.0
  0
LINE
  5
397
  8
0
 62
     0
 10
109.0884780198954
 20
53.200000000000003
 30
0.0
 11
121.0557317240644
 21
53.200000000000003
 31
0.0
  0
LINE
  5
398
  8
0
 62
     0
 10
109.092389599374
 20
53.25
 30
0.0
 11
121.0518201445858
 21
53.25
 31
0.0
  0
LINE
  5
399
  8
0
 62
     0
 10
109.0723760497348
 20
52.700000000000003
 30
0.0
 11
121.07183369422491
 21
52.700000000000003
 31
0.0
  0
LINE
  5
39A
  8
0
 62
     0
 10
109.0730598226386
 20
52.649999999999999
 30
0.0
 11
121.07114992132119
 21
52.649999999999999
 31
0.0
  0
LINE
  5
39B
  8
0
 62
     0
 10
109.0741604684716
 20
52.600000000000001
 30
0.0
 11
121.0700492754883
 21
52.600000000000001
 31
0.0
  0
LINE
  5
39C
  8
0
 62
     0
 10
109.0756782167856
 20
52.549999999999997
 30
0.0
 11
121.0685315271742
 21
52.549999999999997
 31
0.0
  0
LINE
  5
39D
  8
0
 62
     0
 10
109.0776133843995
 20
52.5
 30
0.0
 11
121.06659635956029
 21
52.5
 31
0.0
  0
LINE
  5
39E
  8
0
 62
     0
 10
109.0799663757314
 20
52.450000000000003
 30
0.0
 11
121.0642433682284
 21
52.450000000000003
 31
0.0
  0
LINE
  5
39F
  8
0
 62
     0
 10
109.08273768322179
 20
52.400000000000013
 30
0.0
 11
121.061472060738
 21
52.400000000000013
 31
0.0
  0
LINE
  5
3A0
  8
0
 62
     0
 10
109.0859278878504
 20
52.350000000000001
 30
0.0
 11
121.0582818561094
 21
52.350000000000001
 31
0.0
  0
LINE
  5
3A1
  8
0
 62
     0
 10
109.0895376597482
 20
52.299999999999997
 30
0.0
 11
121.0546720842116
 21
52.299999999999997
 31
0.0
  0
ENDBLK
  5
3A2
  8
0
  0
ENDSEC
  0
SECTION
  2
ENTITIES
  0
ARC
  5
3EB
  8
0
 10
102.77128731532819
 20
42.962437272386282
 30
0.0
 40
1.3467447296164961
 50
213.6584275823962
 51
281.34157241769208
  0
ARC
  5
3EC
  8
0
 10
97.979940089397928
 20
47.753784498318012
 30
0.0
 40
1.3467447296164961
 50
168.6584275823962
 51
236.34157241769211
  0
ARC
  5
3ED
  8
0
 10
97.979940089398951
 20
54.529772727268252
 30
0.0
 40
1.3467447296164961
 50
123.6584275823962
 51
191.34157241769211
  0
ARC
  5
3EE
  8
0
 10
102.7712873153306
 20
59.321119953198561
 30
0.0
 40
1.3467447296164961
 50
78.6584275823962
 51
146.34157241769219
  0
ARC
  5
3EF
  8
0
 10
109.54727554428101
 20
59.321119953197567
 30
0.0
 40
1.3467447296164961
 50
33.65842758239625
 51
101.34157241769211
  0
ARC
  5
3F0
  8
0
 10
114.3386227702112
 20
54.529772727265858
 30
0.0
 40
1.3467447296164961
 50
348.6584275823962
 51
56.34157241769212
  0
ARC
  5
3F1
  8
0
 10
114.33862277021019
 20
47.75378449831554
 30
0.0
 40
1.3467447296164961
 50
303.6584275823962
 51
11.34157241769211
  0
ARC
  5
3F2
  8
0
 10
109.54727554427851
 20
42.962437272385252
 30
0.0
 40
1.3467447296164961
 50
258.6584275823962
 51
326.34157241769208
  0
ARC
  5
3F3
  8
0
 10
106.15928142980459
 20
51.141778612791889
 30
0.0
 40
6.7444453864422078
 50
203.59877456275939
 51
336.40122543724073
  0
ARC
  5
3F4
  8
0
 10
106.15928142980459
 20
51.141778612791889
 30
0.0
 40
6.5
 50
204.54353987897679
 51
335.45646012102338
  0
LINE
  5
3F5
  8
0
 10
103.65928142980459
 20
57.641778612791917
 30
0.0
 11
103.65928142980459
 21
57.680127028102973
 31
0.0
  0
LINE
  5
3F6
  8
0
 10
108.65928142980459
 20
57.641778612791917
 30
0.0
 11
108.65928142980459
 21
57.680127028103541
 31
0.0
  0
LINE
  5
3F7
  8
0
 10
112.6176093867918
 20
48.441778612791929
 30
0.0
 11
99.700953472817389
 21
48.441778612791929
 31
0.0
  0
ARC
  5
3F8
  8
0
 10
106.15928142980459
 20
57.641778612791917
 30
0.0
 40
2.5
 50
180.0
 51
0.0
  0
CIRCLE
  5
3F9
  8
0
 10
106.15928142980459
 20
51.141778612791889
 30
0.0
 40
10.5
  0
ARC
  5
3FA
  8
0
 10
106.15928142980459
 20
51.141778612791889
 30
0.0
 40
6.7444453864422078
 50
68.341133979588179
 51
111.65886602041181
  0
CIRCLE
  5
3FB
  8
0
 10
106.15928142980459
 20
51.141778612791889
 30
0.0
 40
7.0
  0
LINE
  5
3FC
  8
1
 10
93.159281429804764
 20
51.141778612791839
 30
0.0
 11
119.15928142980459
 21
51.141778612791839
 31
0.0
  0
LINE
  5
3FD
  8
1
 10
106.15928142980449
 20
38.141778612791938
 30
0.0
 11
106.15928142980449
 21
64.141778612791583
 31
0.0
  0
ARC
  5
3FE
  8
0
 10
106.15928142980459
 20
51.141778612791889
 30
0.0
 40
6.5
 50
67.825021578058809
 51
112.17497842194111
  0
CIRCLE
  5
3FF
  8
0
 10
106.15928142980459
 20
51.141778612791889
 30
0.0
 40
9.5
  0
CIRCLE
  5
400
  8
0
 10
106.15928142980459
 20
51.141778612791917
 30
0.0
 40
10.0
  0
LINE
  5
401
  8
0
 10
60.659281429804757
 20
40.641778612791832
 30
0.0
 11
62.659281429804757
 21
40.641778612791832
 31
0.0
  0
LINE
  5
402
  8
0
 10
59.659281429804771
 20
41.641778612791839
 30
0.0
 11
60.659281429804757
 21
40.641778612791832
 31
0.0
  0
LINE
  5
403
  8
0
 10
70.659281429804764
 20
41.641778612791839
 30
0.0
 11
70.159281429804764
 21
41.141778612791832
 31
0.0
  0
LINE
  5
404
  8
0
 10
70.159281429804764
 20
41.141778612791832
 30
0.0
 11
67.859281429804795
 21
41.141778612791832
 31
0.0
  0
LINE
  5
405
  8
0
 10
64.659281429804764
 20
41.141778612791832
 30
0.0
 11
62.659281429804757
 21
41.141778612791832
 31
0.0
  0
LINE
  5
406
  8
0
 10
64.659281429804764
 20
48.018631612791829
 30
0.0
 11
62.659281429804757
 21
48.018631612791829
 31
0.0
  0
LINE
  5
407
  8
0
 10
64.659281429804764
 20
46.632812612791831
 30
0.0
 11
62.659281429804757
 21
46.632812612791831
 31
0.0
  0
LINE
  5
408
  8
0
 10
64.659281429804764
 20
42.216016612791833
 30
0.0
 11
62.659281429804757
 21
42.216016612791833
 31
0.0
  0
LINE
  5
409
  8
0
 10
64.659281429804764
 20
41.641991612791841
 30
0.0
 11
62.659281429804757
 21
41.641991612791841
 31
0.0
  0
LINE
  5
40A
  8
0
 10
60.659281429804757
 20
61.641778612791839
 30
0.0
 11
62.659281429804757
 21
61.641778612791839
 31
0.0
  0
LINE
  5
40B
  8
0
 10
59.659281429804771
 20
60.641778612791832
 30
0.0
 11
60.659281429804757
 21
61.641778612791839
 31
0.0
  0
LINE
  5
40C
  8
0
 10
70.159281429804764
 20
61.141778612791839
 30
0.0
 11
70.659281429804764
 21
60.641778612791832
 31
0.0
  0
LINE
  5
40D
  8
0
 10
70.159281429804764
 20
61.141778612791839
 30
0.0
 11
67.859281429804795
 21
61.141778612791839
 31
0.0
  0
LINE
  5
40E
  8
0
 10
64.659281429804764
 20
61.141778612791839
 30
0.0
 11
62.659281429804757
 21
61.141778612791839
 31
0.0
  0
LINE
  5
40F
  8
1
 10
57.159281429804771
 20
51.141778612791839
 30
0.0
 11
73.159281429804764
 21
51.141778612791839
 31
0.0
  0
LINE
  5
410
  8
0
 10
59.659281429804771
 20
60.641778612791832
 30
0.0
 11
59.659281429804771
 21
41.641778612791839
 31
0.0
  0
LINE
  5
411
  8
0
 10
60.859281429804703
 20
61.641778612791839
 30
0.0
 11
60.85928142980481
 21
40.641778612791832
 31
0.0
  0
LINE
  5
412
  8
0
 10
70.659281429804764
 20
60.641778612791832
 30
0.0
 11
70.659281429804764
 21
41.641778612791839
 31
0.0
  0
LINE
  5
413
  8
0
 10
70.159281429804764
 20
61.141778612791839
 30
0.0
 11
70.159281429804764
 21
41.141778612791832
 31
0.0
  0
LINE
  5
414
  8
0
 10
62.659281429804757
 20
61.641778612791839
 30
0.0
 11
62.659281429804757
 21
40.641778612791832
 31
0.0
  0
LINE
  5
415
  8
0
 10
64.659281429804764
 20
61.141778612791839
 30
0.0
 11
64.659281429804764
 21
41.141778612791832
 31
0.0
  0
LINE
  5
416
  8
0
 10
67.859281429804795
 20
61.141778612791853
 30
0.0
 11
67.859281429804795
 21
41.141778612791832
 31
0.0
  0
POLYLINE
  5
417
  8
0
 10
64.66023259178607
 20
42.266778612791754
 30
0.0
 66
     1
 70
     8
  0
VERTEX
  8
0
  5
57C
 10
64.6602
 20
42.2668
 30
0.000000
  70
    32
  0
VERTEX
  8
0
  5
57D
 10
64.6607
 20
42.2392
 30
0.000000
  70
    32
  0
VERTEX
  8
0
  5
57E
 10
64.6622
 20
42.2116
 30
0.000000
  70
    32
  0
VERTEX
  8
0
  5
57F
 10
64.6646
 20
42.1840
 30
0.000000
  70
    32
  0
VERTEX
  8
0
  5
580
 10
64.6679
 20
42.1565
 30
0.000000
  70
    32
  0
VERTEX
  8
0
  5
581
 10
64.6723
 20
42.1291
 30
0.000000
  70
    32
  0
VERTEX
  8
0
  5
582
 10
64.6775
 20
42.1017
 30
0.000000
  70
    32
  0
VERTEX
  8
0
  5
583
 10
64.6838
 20
42.0744
 30
0.000000
  70
    32
  0
VERTEX
  8
0
  5
584
 10
64.6910
 20
42.0473
 30
0.000000
  70
    32
  0
VERTEX
  8
0
  5
585
 10
64.6991
 20
42.0203
 30
0.000000
  70
    32
  0
VERTEX
  8
0
  5
586
 10
64.7082
 20
41.9934
 30
0.000000
  70
    32
  0
VERTEX
  8
0
  5
587
 10
64.7182
 20
41.9667
 30
0.000000
  70
    32
  0
VERTEX
  8
0
  5
588
 10
64.7291
 20
41.9402
 30
0.000000
  70
    32
  0
VERTEX
  8
0
  5
589
 10
64.7409
 20
41.9139
 30
0.000000
  70
    32
  0
VERTEX
  8
0
  5
58A
 10
64.7537
 20
41.8878
 30
0.000000
  70
    32
  0
VERTEX
  8
0
  5
58B
 10
64.7674
 20
41.8619
 30
0.000000
  70
    32
  0
VERTEX
  8
0
  5
58C
 10
64.7820
 20
41.8363
 30
0.000000
  70
    32
  0
VERTEX
  8
0
  5
58D
 10
64.7974
 20
41.8109
 30
0.000000
  70
    32
  0
VERTEX
  8
0
  5
58E
 10
64.8138
 20
41.7858
 30
0.000000
  70
    32
  0
VERTEX
  8
0
  5
58F
 10
64.8310
 20
41.7610
 30
0.000000
  70
    32
  0
VERTEX
  8
0
  5
590
 10
64.8490
 20
41.7365
 30
0.000000
  70
    32
  0
VERTEX
  8
0
  5
591
 10
64.8680
 20
41.7123
 30
0.000000
  70
    32
  0
VERTEX
  8
0
  5
592
 10
64.8877
 20
41.6884
 30
0.000000
  70
    32
  0
VERTEX
  8
0
  5
593
 10
64.9083
 20
41.6649
 30
0.000000
  70
    32
  0
VERTEX
  8
0
  5
594
 10
64.9297
 20
41.6418
 30
0.000000
  70
    32
  0
VERTEX
  8
0
  5
595
 10
64.9519
 20
41.6190
 30
0.000000
  70
    32
  0
VERTEX
  8
0
  5
596
 10
64.9749
 20
41.5966
 30
0.000000
  70
    32
  0
VERTEX
  8
0
  5
597
 10
64.9987
 20
41.5746
 30
0.000000
  70
    32
  0
VERTEX
  8
0
  5
598
 10
65.0232
 20
41.5531
 30
0.000000
  70
    32
  0
VERTEX
  8
0
  5
599
 10
65.0485
 20
41.5320
 30
0.000000
  70
    32
  0
VERTEX
  8
0
  5
59A
 10
65.0745
 20
41.5113
 30
0.000000
  70
    32
  0
VERTEX
  8
0
  5
59B
 10
65.1012
 20
41.4910
 30
0.000000
  70
    32
  0
VERTEX
  8
0
  5
59C
 10
65.1286
 20
41.4713
 30
0.000000
  70
    32
  0
VERTEX
  8
0
  5
59D
 10
65.1567
 20
41.4520
 30
0.000000
  70
    32
  0
VERTEX
  8
0
  5
59E
 10
65.1854
 20
41.4332
 30
0.000000
  70
    32
  0
VERTEX
  8
0
  5
59F
 10
65.2148
 20
41.4149
 30
0.000000
  70
    32
  0
VERTEX
  8
0
  5
5A0
 10
65.2449
 20
41.3971
 30
0.000000
  70
    32
  0
VERTEX
  8
0
  5
5A1
 10
65.2755
 20
41.3799
 30
0.000000
  70
    32
  0
VERTEX
  8
0
  5
5A2
 10
65.3067
 20
41.3632
 30
0.000000
  70
    32
  0
VERTEX
  8
0
  5
5A3
 10
65.3385
 20
41.3470
 30
0.000000
  70
    32
  0
VERTEX
  8
0
  5
5A4
 10
65.3709
 20
41.3314
 30
0.000000
  70
    32
  0
VERTEX
  8
0
  5
5A5
 10
65.4038
 20
41.3163
 30
0.000000
  70
    32
  0
VERTEX
  8
0
  5
5A6
 10
65.4372
 20
41.3018
 30
0.000000
  70
    32
  0
VERTEX
  8
0
  5
5A7
 10
65.4711
 20
41.2879
 30
0.000000
  70
    32
  0
VERTEX
  8
0
  5
5A8
 10
65.5055
 20
41.2746
 30
0.000000
  70
    32
  0
VERTEX
  8
0
  5
5A9
 10
65.5403
 20
41.2619
 30
0.000000
  70
    32
  0
VERTEX
  8
0
  5
5AA
 10
65.5756
 20
41.2498
 30
0.000000
  70
    32
  0
VERTEX
  8
0
  5
5AB
 10
65.6113
 20
41.2383
 30
0.000000
  70
    32
  0
VERTEX
  8
0
  5
5AC
 10
65.6474
 20
41.2274
 30
0.000000
  70
    32
  0
VERTEX
  8
0
  5
5AD
 10
65.6838
 20
41.2172
 30
0.000000
  70
    32
  0
VERTEX
  8
0
  5
5AE
 10
65.7206
 20
41.2075
 30
0.000000
  70
    32
  0
VERTEX
  8
0
  5
5AF
 10
65.7577
 20
41.1986
 30
0.000000
  70
    32
  0
VERTEX
  8
0
  5
5B0
 10
65.7951
 20
41.1902
 30
0.000000
  70
    32
  0
VERTEX
  8
0
  5
5B1
 10
65.8328
 20
41.1825
 30
0.000000
  70
    32
  0
VERTEX
  8
0
  5
5B2
 10
65.8707
 20
41.1755
 30
0.000000
  70
    32
  0
VERTEX
  8
0
  5
5B3
 10
65.9089
 20
41.1691
 30
0.000000
  70
    32
  0
VERTEX
  8
0
  5
5B4
 10
65.9473
 20
41.1634
 30
0.000000
  70
    32
  0
VERTEX
  8
0
  5
5B5
 10
65.9859
 20
41.1583
 30
0.000000
  70
    32
  0
VERTEX
  8
0
  5
5B6
 10
66.0247
 20
41.1540
 30
0.000000
  70
    32
  0
VERTEX
  8
0
  5
5B7
 10
66.0635
 20
41.1502
 30
0.000000
  70
    32
  0
VERTEX
  8
0
  5
5B8
 10
66.1025
 20
41.1472
 30
0.000000
  70
    32
  0
VERTEX
  8
0
  5
5B9
 10
66.1416
 20
41.1448
 30
0.000000
  70
    32
  0
VERTEX
  8
0
  5
5BA
 10
66.1808
 20
41.1431
 30
0.000000
  70
    32
  0
VERTEX
  8
0
  5
5BB
 10
66.2200
 20
41.1421
 30
0.000000
  70
    32
  0
VERTEX
  8
0
  5
5BC
 10
66.2593
 20
41.1418
 30
0.000000
  70
    32
  0
VERTEX
  8
0
  5
5BD
 10
66.2985
 20
41.1421
 30
0.000000
  70
    32
  0
VERTEX
  8
0
  5
5BE
 10
66.3377
 20
41.1431
 30
0.000000
  70
    32
  0
VERTEX
  8
0
  5
5BF
 10
66.3769
 20
41.1448
 30
0.000000
  70
    32
  0
VERTEX
  8
0
  5
5C0
 10
66.4160
 20
41.1472
 30
0.000000
  70
    32
  0
VERTEX
  8
0
  5
5C1
 10
66.4550
 20
41.1502
 30
0.000000
  70
    32
  0
VERTEX
  8
0
  5
5C2
 10
66.4939
 20
41.1540
 30
0.000000
  70
    32
  0
VERTEX
  8
0
  5
5C3
 10
66.5327
 20
41.1583
 30
0.000000
  70
    32
  0
VERTEX
  8
0
  5
5C4
 10
66.5712
 20
41.1634
 30
0.000000
  70
    32
  0
VERTEX
  8
0
  5
5C5
 10
66.6096
 20
41.1691
 30
0.000000
  70
    32
  0
VERTEX
  8
0
  5
5C6
 10
66.6478
 20
41.1755
 30
0.000000
  70
    32
  0
VERTEX
  8
0
  5
5C7
 10
66.6858
 20
41.1825
 30
0.000000
  70
    32
  0
VERTEX
  8
0
  5
5C8
 10
66.7235
 20
41.1902
 30
0.000000
  70
    32
  0
VERTEX
  8
0
  5
5C9
 10
66.7609
 20
41.1986
 30
0.000000
  70
    32
  0
VERTEX
  8
0
  5
5CA
 10
66.7980
 20
41.2075
 30
0.000000
  70
    32
  0
VERTEX
  8
0
  5
5CB
 10
66.8348
 20
41.2172
 30
0.000000
  70
    32
  0
VERTEX
  8
0
  5
5CC
 10
66.8712
 20
41.2274
 30
0.000000
  70
    32
  0
VERTEX
  8
0
  5
5CD
 10
66.9073
 20
41.2383
 30
0.000000
  70
    32
  0
VERTEX
  8
0
  5
5CE
 10
66.9430
 20
41.2498
 30
0.000000
  70
    32
  0
VERTEX
  8
0
  5
5CF
 10
66.9782
 20
41.2619
 30
0.000000
  70
    32
  0
VERTEX
  8
0
  5
5D0
 10
67.0131
 20
41.2746
 30
0.000000
  70
    32
  0
VERTEX
  8
0
  5
5D1
 10
67.0474
 20
41.2879
 30
0.000000
  70
    32
  0
VERTEX
  8
0
  5
5D2
 10
67.0814
 20
41.3018
 30
0.000000
  70
    32
  0
VERTEX
  8
0
  5
5D3
 10
67.1148
 20
41.3163
 30
0.000000
  70
    32
  0
VERTEX
  8
0
  5
5D4
 10
67.1477
 20
41.3314
 30
0.000000
  70
    32
  0
VERTEX
  8
0
  5
5D5
 10
67.1800
 20
41.3470
 30
0.000000
  70
    32
  0
VERTEX
  8
0
  5
5D6
 10
67.2118
 20
41.3632
 30
0.000000
  70
    32
  0
VERTEX
  8
0
  5
5D7
 10
67.2431
 20
41.3799
 30
0.000000
  70
    32
  0
VERTEX
  8
0
  5
5D8
 10
67.2737
 20
41.3971
 30
0.000000
  70
    32
  0
VERTEX
  8
0
  5
5D9
 10
67.3037
 20
41.4149
 30
0.000000
  70
    32
  0
VERTEX
  8
0
  5
5DA
 10
67.3331
 20
41.4332
 30
0.000000
  70
    32
  0
VERTEX
  8
0
  5
5DB
 10
67.3619
 20
41.4520
 30
0.000000
  70
    32
  0
VERTEX
  8
0
  5
5DC
 10
67.3900
 20
41.4713
 30
0.000000
  70
    32
  0
VERTEX
  8
0
  5
5DD
 10
67.4174
 20
41.4910
 30
0.000000
  70
    32
  0
VERTEX
  8
0
  5
5DE
 10
67.4441
 20
41.5113
 30
0.000000
  70
    32
  0
VERTEX
  8
0
  5
5DF
 10
67.4701
 20
41.5320
 30
0.000000
  70
    32
  0
VERTEX
  8
0
  5
5E0
 10
67.4954
 20
41.5531
 30
0.000000
  70
    32
  0
VERTEX
  8
0
  5
5E1
 10
67.5199
 20
41.5746
 30
0.000000
  70
    32
  0
VERTEX
  8
0
  5
5E2
 10
67.5436
 20
41.5966
 30
0.000000
  70
    32
  0
VERTEX
  8
0
  5
5E3
 10
67.5666
 20
41.6190
 30
0.000000
  70
    32
  0
VERTEX
  8
0
  5
5E4
 10
67.5888
 20
41.6418
 30
0.000000
  70
    32
  0
VERTEX
  8
0
  5
5E5
 10
67.6102
 20
41.6649
 30
0.000000
  70
    32
  0
VERTEX
  8
0
  5
5E6
 10
67.6308
 20
41.6884
 30
0.000000
  70
    32
  0
VERTEX
  8
0
  5
5E7
 10
67.6506
 20
41.7123
 30
0.000000
  70
    32
  0
VERTEX
  8
0
  5
5E8
 10
67.6695
 20
41.7365
 30
0.000000
  70
    32
  0
VERTEX
  8
0
  5
5E9
 10
67.6876
 20
41.7610
 30
0.000000
  70
    32
  0
VERTEX
  8
0
  5
5EA
 10
67.7048
 20
41.7858
 30
0.000000
  70
    32
  0
VERTEX
  8
0
  5
5EB
 10
67.7211
 20
41.8109
 30
0.000000
  70
    32
  0
VERTEX
  8
0
  5
5EC
 10
67.7366
 20
41.8363
 30
0.000000
  70
    32
  0
VERTEX
  8
0
  5
5ED
 10
67.7512
 20
41.8619
 30
0.000000
  70
    32
  0
VERTEX
  8
0
  5
5EE
 10
67.7649
 20
41.8878
 30
0.000000
  70
    32
  0
VERTEX
  8
0
  5
5EF
 10
67.7776
 20
41.9139
 30
0.000000
  70
    32
  0
VERTEX
  8
0
  5
5F0
 10
67.7895
 20
41.9402
 30
0.000000
  70
    32
  0
VERTEX
  8
0
  5
5F1
 10
67.8004
 20
41.9667
 30
0.000000
  70
    32
  0
VERTEX
  8
0
  5
5F2
 10
67.8104
 20
41.9934
 30
0.000000
  70
    32
  0
VERTEX
  8
0
  5
5F3
 10
67.8195
 20
42.0203
 30
0.000000
  70
    32
  0
VERTEX
  8
0
  5
5F4
 10
67.8276
 20
42.0473
 30
0.000000
  70
    32
  0
VERTEX
  8
0
  5
5F5
 10
67.8348
 20
42.0744
 30
0.000000
  70
    32
  0
VERTEX
  8
0
  5
5F6
 10
67.8410
 20
42.1017
 30
0.000000
  70
    32
  0
VERTEX
  8
0
  5
5F7
 10
67.8463
 20
42.1291
 30
0.000000
  70
    32
  0
VERTEX
  8
0
  5
5F8
 10
67.8506
 20
42.1565
 30
0.000000
  70
    32
  0
VERTEX
  8
0
  5
5F9
 10
67.8540
 20
42.1840
 30
0.000000
  70
    32
  0
VERTEX
  8
0
  5
5FA
 10
67.8564
 20
42.2116
 30
0.000000
  70
    32
  0
VERTEX
  8
0
  5
5FB
 10
67.8578
 20
42.2392
 30
0.000000
  70
    32
  0
VERTEX
  8
0
  5
5FC
 10
67.8583
 20
42.2668
 30
0.000000
  70
    32
  0
SEQEND
  8
0
  5
5FD
  0
LINE
  5
418
  8
2
 10
67.859281429804753
 20
43.391778612791811
 30
0.0
 11
64.659281429804764
 21
43.391778612791811
 31
0.0
  0
POLYLINE
  5
419
  8
2
 10
64.66023259178607
 20
42.266778612792017
 30
0.0
 66
     1
 70
     8
  0
VERTEX
  8
2
  5
5FE
 10
64.6602
 20
42.2668
 30
0.000000
  70
    32
  0
VERTEX
  8
2
  5
5FF
 10
64.6607
 20
42.2944
 30
0.000000
  70
    32
  0
VERTEX
  8
2
  5
600
 10
64.6622
 20
42.3220
 30
0.000000
  70
    32
  0
VERTEX
  8
2
  5
601
 10
64.6646
 20
42.3495
 30
0.000000
  70
    32
  0
VERTEX
  8
2
  5
602
 10
64.6679
 20
42.3770
 30
0.000000
  70
    32
  0
VERTEX
  8
2
  5
603
 10
64.6723
 20
42.4045
 30
0.000000
  70
    32
  0
VERTEX
  8
2
  5
604
 10
64.6775
 20
42.4319
 30
0.000000
  70
    32
  0
VERTEX
  8
2
  5
605
 10
64.6838
 20
42.4591
 30
0.000000
  70
    32
  0
VERTEX
  8
2
  5
606
 10
64.6910
 20
42.4863
 30
0.000000
  70
    32
  0
VERTEX
  8
2
  5
607
 10
64.6991
 20
42.5133
 30
0.000000
  70
    32
  0
VERTEX
  8
2
  5
608
 10
64.7082
 20
42.5401
 30
0.000000
  70
    32
  0
VERTEX
  8
2
  5
609
 10
64.7182
 20
42.5668
 30
0.000000
  70
    32
  0
VERTEX
  8
2
  5
60A
 10
64.7291
 20
42.5933
 30
0.000000
  70
    32
  0
VERTEX
  8
2
  5
60B
 10
64.7409
 20
42.6197
 30
0.000000
  70
    32
  0
VERTEX
  8
2
  5
60C
 10
64.7537
 20
42.6458
 30
0.000000
  70
    32
  0
VERTEX
  8
2
  5
60D
 10
64.7674
 20
42.6717
 30
0.000000
  70
    32
  0
VERTEX
  8
2
  5
60E
 10
64.7820
 20
42.6973
 30
0.000000
  70
    32
  0
VERTEX
  8
2
  5
60F
 10
64.7974
 20
42.7227
 30
0.000000
  70
    32
  0
VERTEX
  8
2
  5
610
 10
64.8138
 20
42.7478
 30
0.000000
  70
    32
  0
VERTEX
  8
2
  5
611
 10
64.8310
 20
42.7726
 30
0.000000
  70
    32
  0
VERTEX
  8
2
  5
612
 10
64.8490
 20
42.7971
 30
0.000000
  70
    32
  0
VERTEX
  8
2
  5
613
 10
64.8680
 20
42.8213
 30
0.000000
  70
    32
  0
VERTEX
  8
2
  5
614
 10
64.8877
 20
42.8451
 30
0.000000
  70
    32
  0
VERTEX
  8
2
  5
615
 10
64.9083
 20
42.8687
 30
0.000000
  70
    32
  0
VERTEX
  8
2
  5
616
 10
64.9297
 20
42.8918
 30
0.000000
  70
    32
  0
VERTEX
  8
2
  5
617
 10
64.9519
 20
42.9146
 30
0.000000
  70
    32
  0
VERTEX
  8
2
  5
618
 10
64.9749
 20
42.9369
 30
0.000000
  70
    32
  0
VERTEX
  8
2
  5
619
 10
64.9987
 20
42.9589
 30
0.000000
  70
    32
  0
VERTEX
  8
2
  5
61A
 10
65.0232
 20
42.9805
 30
0.000000
  70
    32
  0
VERTEX
  8
2
  5
61B
 10
65.0485
 20
43.0016
 30
0.000000
  70
    32
  0
VERTEX
  8
2
  5
61C
 10
65.0745
 20
43.0223
 30
0.000000
  70
    32
  0
VERTEX
  8
2
  5
61D
 10
65.1012
 20
43.0425
 30
0.000000
  70
    32
  0
VERTEX
  8
2
  5
61E
 10
65.1286
 20
43.0623
 30
0.000000
  70
    32
  0
VERTEX
  8
2
  5
61F
 10
65.1567
 20
43.0816
 30
0.000000
  70
    32
  0
VERTEX
  8
2
  5
620
 10
65.1854
 20
43.1003
 30
0.000000
  70
    32
  0
VERTEX
  8
2
  5
621
 10
65.2148
 20
43.1186
 30
0.000000
  70
    32
  0
VERTEX
  8
2
  5
622
 10
65.2449
 20
43.1364
 30
0.000000
  70
    32
  0
VERTEX
  8
2
  5
623
 10
65.2755
 20
43.1537
 30
0.000000
  70
    32
  0
VERTEX
  8
2
  5
624
 10
65.3067
 20
43.1704
 30
0.000000
  70
    32
  0
VERTEX
  8
2
  5
625
 10
65.3385
 20
43.1866
 30
0.000000
  70
    32
  0
VERTEX
  8
2
  5
626
 10
65.3709
 20
43.2022
 30
0.000000
  70
    32
  0
VERTEX
  8
2
  5
627
 10
65.4038
 20
43.2172
 30
0.000000
  70
    32
  0
VERTEX
  8
2
  5
628
 10
65.4372
 20
43.2317
 30
0.000000
  70
    32
  0
VERTEX
  8
2
  5
629
 10
65.4711
 20
43.2456
 30
0.000000
  70
    32
  0
VERTEX
  8
2
  5
62A
 10
65.5055
 20
43.2589
 30
0.000000
  70
    32
  0
VERTEX
  8
2
  5
62B
 10
65.5403
 20
43.2717
 30
0.000000
  70
    32
  0
VERTEX
  8
2
  5
62C
 10
65.5756
 20
43.2838
 30
0.000000
  70
    32
  0
VERTEX
  8
2
  5
62D
 10
65.6113
 20
43.2953
 30
0.000000
  70
    32
  0
VERTEX
  8
2
  5
62E
 10
65.6474
 20
43.3061
 30
0.000000
  70
    32
  0
VERTEX
  8
2
  5
62F
 10
65.6838
 20
43.3164
 30
0.000000
  70
    32
  0
VERTEX
  8
2
  5
630
 10
65.7206
 20
43.3260
 30
0.000000
  70
    32
  0
VERTEX
  8
2
  5
631
 10
65.7577
 20
43.3350
 30
0.000000
  70
    32
  0
VERTEX
  8
2
  5
632
 10
65.7951
 20
43.3433
 30
0.000000
  70
    32
  0
VERTEX
  8
2
  5
633
 10
65.8328
 20
43.3510
 30
0.000000
  70
    32
  0
VERTEX
  8
2
  5
634
 10
65.8707
 20
43.3581
 30
0.000000
  70
    32
  0
VERTEX
  8
2
  5
635
 10
65.9089
 20
43.3644
 30
0.000000
  70
    32
  0
VERTEX
  8
2
  5
636
 10
65.9473
 20
43.3702
 30
0.000000
  70
    32
  0
VERTEX
  8
2
  5
637
 10
65.9859
 20
43.3752
 30
0.000000
  70
    32
  0
VERTEX
  8
2
  5
638
 10
66.0247
 20
43.3796
 30
0.000000
  70
    32
  0
VERTEX
  8
2
  5
639
 10
66.0635
 20
43.3833
 30
0.000000
  70
    32
  0
VERTEX
  8
2
  5
63A
 10
66.1025
 20
43.3864
 30
0.000000
  70
    32
  0
VERTEX
  8
2
  5
63B
 10
66.1416
 20
43.3887
 30
0.000000
  70
    32
  0
VERTEX
  8
2
  5
63C
 10
66.1808
 20
43.3904
 30
0.000000
  70
    32
  0
VERTEX
  8
2
  5
63D
 10
66.2200
 20
43.3914
 30
0.000000
  70
    32
  0
VERTEX
  8
2
  5
63E
 10
66.2593
 20
43.3918
 30
0.000000
  70
    32
  0
VERTEX
  8
2
  5
63F
 10
66.2985
 20
43.3914
 30
0.000000
  70
    32
  0
VERTEX
  8
2
  5
640
 10
66.3377
 20
43.3904
 30
0.000000
  70
    32
  0
VERTEX
  8
2
  5
641
 10
66.3769
 20
43.3887
 30
0.000000
  70
    32
  0
VERTEX
  8
2
  5
642
 10
66.4160
 20
43.3864
 30
0.000000
  70
    32
  0
VERTEX
  8
2
  5
643
 10
66.4550
 20
43.3833
 30
0.000000
  70
    32
  0
VERTEX
  8
2
  5
644
 10
66.4939
 20
43.3796
 30
0.000000
  70
    32
  0
VERTEX
  8
2
  5
645
 10
66.5327
 20
43.3752
 30
0.000000
  70
    32
  0
VERTEX
  8
2
  5
646
 10
66.5712
 20
43.3702
 30
0.000000
  70
    32
  0
VERTEX
  8
2
  5
647
 10
66.6096
 20
43.3644
 30
0.000000
  70
    32
  0
VERTEX
  8
2
  5
648
 10
66.6478
 20
43.3581
 30
0.000000
  70
    32
  0
VERTEX
  8
2
  5
649
 10
66.6858
 20
43.3510
 30
0.000000
  70
    32
  0
VERTEX
  8
2
  5
64A
 10
66.7235
 20
43.3433
 30
0.000000
  70
    32
  0
VERTEX
  8
2
  5
64B
 10
66.7609
 20
43.3350
 30
0.000000
  70
    32
  0
VERTEX
  8
2
  5
64C
 10
66.7980
 20
43.3260
 30
0.000000
  70
    32
  0
VERTEX
  8
2
  5
64D
 10
66.8348
 20
43.3164
 30
0.000000
  70
    32
  0
VERTEX
  8
2
  5
64E
 10
66.8712
 20
43.3061
 30
0.000000
  70
    32
  0
VERTEX
  8
2
  5
64F
 10
66.9073
 20
43.2953
 30
0.000000
  70
    32
  0
VERTEX
  8
2
  5
650
 10
66.9430
 20
43.2838
 30
0.000000
  70
    32
  0
VERTEX
  8
2
  5
651
 10
66.9782
 20
43.2717
 30
0.000000
  70
    32
  0
VERTEX
  8
2
  5
652
 10
67.0131
 20
43.2589
 30
0.000000
  70
    32
  0
VERTEX
  8
2
  5
653
 10
67.0474
 20
43.2456
 30
0.000000
  70
    32
  0
VERTEX
  8
2
  5
654
 10
67.0814
 20
43.2317
 30
0.000000
  70
    32
  0
VERTEX
  8
2
  5
655
 10
67.1148
 20
43.2172
 30
0.000000
  70
    32
  0
VERTEX
  8
2
  5
656
 10
67.1477
 20
43.2022
 30
0.000000
  70
    32
  0
VERTEX
  8
2
  5
657
 10
67.1800
 20
43.1866
 30
0.000000
  70
    32
  0
VERTEX
  8
2
  5
658
 10
67.2118
 20
43.1704
 30
0.000000
  70
    32
  0
VERTEX
  8
2
  5
659
 10
67.2431
 20
43.1537
 30
0.000000
  70
    32
  0
VERTEX
  8
2
  5
65A
 10
67.2737
 20
43.1364
 30
0.000000
  70
    32
  0
VERTEX
  8
2
  5
65B
 10
67.3037
 20
43.1186
 30
0.000000
  70
    32
  0
VERTEX
  8
2
  5
65C
 10
67.3331
 20
43.1003
 30
0.000000
  70
    32
  0
VERTEX
  8
2
  5
65D
 10
67.3619
 20
43.0816
 30
0.000000
  70
    32
  0
VERTEX
  8
2
  5
65E
 10
67.3900
 20
43.0623
 30
0.000000
  70
    32
  0
VERTEX
  8
2
  5
65F
 10
67.4174
 20
43.0425
 30
0.000000
  70
    32
  0
VERTEX
  8
2
  5
660
 10
67.4441
 20
43.0223
 30
0.000000
  70
    32
  0
VERTEX
  8
2
  5
661
 10
67.4701
 20
43.0016
 30
0.000000
  70
    32
  0
VERTEX
  8
2
  5
662
 10
67.4954
 20
42.9805
 30
0.000000
  70
    32
  0
VERTEX
  8
2
  5
663
 10
67.5199
 20
42.9589
 30
0.000000
  70
    32
  0
VERTEX
  8
2
  5
664
 10
67.5436
 20
42.9369
 30
0.000000
  70
    32
  0
VERTEX
  8
2
  5
665
 10
67.5666
 20
42.9146
 30
0.000000
  70
    32
  0
VERTEX
  8
2
  5
666
 10
67.5888
 20
42.8918
 30
0.000000
  70
    32
  0
VERTEX
  8
2
  5
667
 10
67.6102
 20
42.8687
 30
0.000000
  70
    32
  0
VERTEX
  8
2
  5
668
 10
67.6308
 20
42.8451
 30
0.000000
  70
    32
  0
VERTEX
  8
2
  5
669
 10
67.6506
 20
42.8213
 30
0.000000
  70
    32
  0
VERTEX
  8
2
  5
66A
 10
67.6695
 20
42.7971
 30
0.000000
  70
    32
  0
VERTEX
  8
2
  5
66B
 10
67.6876
 20
42.7726
 30
0.000000
  70
    32
  0
VERTEX
  8
2
  5
66C
 10
67.7048
 20
42.7478
 30
0.000000
  70
    32
  0
VERTEX
  8
2
  5
66D
 10
67.7211
 20
42.7227
 30
0.000000
  70
    32
  0
VERTEX
  8
2
  5
66E
 10
67.7366
 20
42.6973
 30
0.000000
  70
    32
  0
VERTEX
  8
2
  5
66F
 10
67.7512
 20
42.6717
 30
0.000000
  70
    32
  0
VERTEX
  8
2
  5
670
 10
67.7649
 20
42.6458
 30
0.000000
  70
    32
  0
VERTEX
  8
2
  5
671
 10
67.7776
 20
42.6197
 30
0.000000
  70
    32
  0
VERTEX
  8
2
  5
672
 10
67.7895
 20
42.5933
 30
0.000000
  70
    32
  0
VERTEX
  8
2
  5
673
 10
67.8004
 20
42.5668
 30
0.000000
  70
    32
  0
VERTEX
  8
2
  5
674
 10
67.8104
 20
42.5401
 30
0.000000
  70
    32
  0
VERTEX
  8
2
  5
675
 10
67.8195
 20
42.5133
 30
0.000000
  70
    32
  0
VERTEX
  8
2
  5
676
 10
67.8276
 20
42.4863
 30
0.000000
  70
    32
  0
VERTEX
  8
2
  5
677
 10
67.8348
 20
42.4591
 30
0.000000
  70
    32
  0
VERTEX
  8
2
  5
678
 10
67.8410
 20
42.4319
 30
0.000000
  70
    32
  0
VERTEX
  8
2
  5
679
 10
67.8463
 20
42.4045
 30
0.000000
  70
    32
  0
VERTEX
  8
2
  5
67A
 10
67.8506
 20
42.3770
 30
0.000000
  70
    32
  0
VERTEX
  8
2
  5
67B
 10
67.8540
 20
42.3495
 30
0.000000
  70
    32
  0
VERTEX
  8
2
  5
67C
 10
67.8564
 20
42.3220
 30
0.000000
  70
    32
  0
VERTEX
  8
2
  5
67D
 10
67.8578
 20
42.2944
 30
0.000000
  70
    32
  0
VERTEX
  8
2
  5
67E
 10
67.8583
 20
42.2668
 30
0.000000
  70
    32
  0
SEQEND
  8
2
  5
67F
  0
LINE
  5
41A
  8
0
 10
64.659281429804764
 20
60.64156561279183
 30
0.0
 11
62.659281429804757
 21
60.64156561279183
 31
0.0
  0
LINE
  5
41B
  8
0
 10
64.659281429804764
 20
60.067540612791852
 30
0.0
 11
62.659281429804757
 21
60.067540612791852
 31
0.0
  0
LINE
  5
41C
  8
0
 10
64.659281429804764
 20
55.65074461279184
 30
0.0
 11
62.659281429804757
 21
55.65074461279184
 31
0.0
  0
LINE
  5
41D
  8
0
 10
64.659281429804764
 20
54.264925612791842
 30
0.0
 11
62.659281429804757
 21
54.264925612791842
 31
0.0
  0
POLYLINE
  5
41E
  8
2
 10
64.66023259178607
 20
60.016778612791668
 30
0.0
 66
     1
 70
     8
  0
VERTEX
  8
2
  5
680
 10
64.6602
 20
60.0168
 30
0.000000
  70
    32
  0
VERTEX
  8
2
  5
681
 10
64.6607
 20
59.9892
 30
0.000000
  70
    32
  0
VERTEX
  8
2
  5
682
 10
64.6622
 20
59.9616
 30
0.000000
  70
    32
  0
VERTEX
  8
2
  5
683
 10
64.6646
 20
59.9340
 30
0.000000
  70
    32
  0
VERTEX
  8
2
  5
684
 10
64.6679
 20
59.9065
 30
0.000000
  70
    32
  0
VERTEX
  8
2
  5
685
 10
64.6723
 20
59.8791
 30
0.000000
  70
    32
  0
VERTEX
  8
2
  5
686
 10
64.6775
 20
59.8517
 30
0.000000
  70
    32
  0
VERTEX
  8
2
  5
687
 10
64.6838
 20
59.8244
 30
0.000000
  70
    32
  0
VERTEX
  8
2
  5
688
 10
64.6910
 20
59.7973
 30
0.000000
  70
    32
  0
VERTEX
  8
2
  5
689
 10
64.6991
 20
59.7703
 30
0.000000
  70
    32
  0
VERTEX
  8
2
  5
68A
 10
64.7082
 20
59.7434
 30
0.000000
  70
    32
  0
VERTEX
  8
2
  5
68B
 10
64.7182
 20
59.7167
 30
0.000000
  70
    32
  0
VERTEX
  8
2
  5
68C
 10
64.7291
 20
59.6902
 30
0.000000
  70
    32
  0
VERTEX
  8
2
  5
68D
 10
64.7409
 20
59.6639
 30
0.000000
  70
    32
  0
VERTEX
  8
2
  5
68E
 10
64.7537
 20
59.6378
 30
0.000000
  70
    32
  0
VERTEX
  8
2
  5
68F
 10
64.7674
 20
59.6119
 30
0.000000
  70
    32
  0
VERTEX
  8
2
  5
690
 10
64.7820
 20
59.5863
 30
0.000000
  70
    32
  0
VERTEX
  8
2
  5
691
 10
64.7974
 20
59.5609
 30
0.000000
  70
    32
  0
VERTEX
  8
2
  5
692
 10
64.8138
 20
59.5358
 30
0.000000
  70
    32
  0
VERTEX
  8
2
  5
693
 10
64.8310
 20
59.5110
 30
0.000000
  70
    32
  0
VERTEX
  8
2
  5
694
 10
64.8490
 20
59.4865
 30
0.000000
  70
    32
  0
VERTEX
  8
2
  5
695
 10
64.8680
 20
59.4623
 30
0.000000
  70
    32
  0
VERTEX
  8
2
  5
696
 10
64.8877
 20
59.4384
 30
0.000000
  70
    32
  0
VERTEX
  8
2
  5
697
 10
64.9083
 20
59.4149
 30
0.000000
  70
    32
  0
VERTEX
  8
2
  5
698
 10
64.9297
 20
59.3918
 30
0.000000
  70
    32
  0
VERTEX
  8
2
  5
699
 10
64.9519
 20
59.3690
 30
0.000000
  70
    32
  0
VERTEX
  8
2
  5
69A
 10
64.9749
 20
59.3466
 30
0.000000
  70
    32
  0
VERTEX
  8
2
  5
69B
 10
64.9987
 20
59.3246
 30
0.000000
  70
    32
  0
VERTEX
  8
2
  5
69C
 10
65.0232
 20
59.3031
 30
0.000000
  70
    32
  0
VERTEX
  8
2
  5
69D
 10
65.0485
 20
59.2820
 30
0.000000
  70
    32
  0
VERTEX
  8
2
  5
69E
 10
65.0745
 20
59.2613
 30
0.000000
  70
    32
  0
VERTEX
  8
2
  5
69F
 10
65.1012
 20
59.2410
 30
0.000000
  70
    32
  0
VERTEX
  8
2
  5
6A0
 10
65.1286
 20
59.2213
 30
0.000000
  70
    32
  0
VERTEX
  8
2
  5
6A1
 10
65.1567
 20
59.2020
 30
0.000000
  70
    32
  0
VERTEX
  8
2
  5
6A2
 10
65.1854
 20
59.1832
 30
0.000000
  70
    32
  0
VERTEX
  8
2
  5
6A3
 10
65.2148
 20
59.1649
 30
0.000000
  70
    32
  0
VERTEX
  8
2
  5
6A4
 10
65.2449
 20
59.1471
 30
0.000000
  70
    32
  0
VERTEX
  8
2
  5
6A5
 10
65.2755
 20
59.1299
 30
0.000000
  70
    32
  0
VERTEX
  8
2
  5
6A6
 10
65.3067
 20
59.1132
 30
0.000000
  70
    32
  0
VERTEX
  8
2
  5
6A7
 10
65.3385
 20
59.0970
 30
0.000000
  70
    32
  0
VERTEX
  8
2
  5
6A8
 10
65.3709
 20
59.0814
 30
0.000000
  70
    32
  0
VERTEX
  8
2
  5
6A9
 10
65.4038
 20
59.0663
 30
0.000000
  70
    32
  0
VERTEX
  8
2
  5
6AA
 10
65.4372
 20
59.0518
 30
0.000000
  70
    32
  0
VERTEX
  8
2
  5
6AB
 10
65.4711
 20
59.0379
 30
0.000000
  70
    32
  0
VERTEX
  8
2
  5
6AC
 10
65.5055
 20
59.0246
 30
0.000000
  70
    32
  0
VERTEX
  8
2
  5
6AD
 10
65.5403
 20
59.0119
 30
0.000000
  70
    32
  0
VERTEX
  8
2
  5
6AE
 10
65.5756
 20
58.9998
 30
0.000000
  70
    32
  0
VERTEX
  8
2
  5
6AF
 10
65.6113
 20
58.9883
 30
0.000000
  70
    32
  0
VERTEX
  8
2
  5
6B0
 10
65.6474
 20
58.9774
 30
0.000000
  70
    32
  0
VERTEX
  8
2
  5
6B1
 10
65.6838
 20
58.9672
 30
0.000000
  70
    32
  0
VERTEX
  8
2
  5
6B2
 10
65.7206
 20
58.9575
 30
0.000000
  70
    32
  0
VERTEX
  8
2
  5
6B3
 10
65.7577
 20
58.9486
 30
0.000000
  70
    32
  0
VERTEX
  8
2
  5
6B4
 10
65.7951
 20
58.9402
 30
0.000000
  70
    32
  0
VERTEX
  8
2
  5
6B5
 10
65.8328
 20
58.9325
 30
0.000000
  70
    32
  0
VERTEX
  8
2
  5
6B6
 10
65.8707
 20
58.9255
 30
0.000000
  70
    32
  0
VERTEX
  8
2
  5
6B7
 10
65.9089
 20
58.9191
 30
0.000000
  70
    32
  0
VERTEX
  8
2
  5
6B8
 10
65.9473
 20
58.9134
 30
0.000000
  70
    32
  0
VERTEX
  8
2
  5
6B9
 10
65.9859
 20
58.9083
 30
0.000000
  70
    32
  0
VERTEX
  8
2
  5
6BA
 10
66.0247
 20
58.9040
 30
0.000000
  70
    32
  0
VERTEX
  8
2
  5
6BB
 10
66.0635
 20
58.9002
 30
0.000000
  70
    32
  0
VERTEX
  8
2
  5
6BC
 10
66.1025
 20
58.8972
 30
0.000000
  70
    32
  0
VERTEX
  8
2
  5
6BD
 10
66.1416
 20
58.8948
 30
0.000000
  70
    32
  0
VERTEX
  8
2
  5
6BE
 10
66.1808
 20
58.8931
 30
0.000000
  70
    32
  0
VERTEX
  8
2
  5
6BF
 10
66.2200
 20
58.8921
 30
0.000000
  70
    32
  0
VERTEX
  8
2
  5
6C0
 10
66.2593
 20
58.8918
 30
0.000000
  70
    32
  0
VERTEX
  8
2
  5
6C1
 10
66.2985
 20
58.8921
 30
0.000000
  70
    32
  0
VERTEX
  8
2
  5
6C2
 10
66.3377
 20
58.8931
 30
0.000000
  70
    32
  0
VERTEX
  8
2
  5
6C3
 10
66.3769
 20
58.8948
 30
0.000000
  70
    32
  0
VERTEX
  8
2
  5
6C4
 10
66.4160
 20
58.8972
 30
0.000000
  70
    32
  0
VERTEX
  8
2
  5
6C5
 10
66.4550
 20
58.9002
 30
0.000000
  70
    32
  0
VERTEX
  8
2
  5
6C6
 10
66.4939
 20
58.9040
 30
0.000000
  70
    32
  0
VERTEX
  8
2
  5
6C7
 10
66.5327
 20
58.9083
 30
0.000000
  70
    32
  0
VERTEX
  8
2
  5
6C8
 10
66.5712
 20
58.9134
 30
0.000000
  70
    32
  0
VERTEX
  8
2
  5
6C9
 10
66.6096
 20
58.9191
 30
0.000000
  70
    32
  0
VERTEX
  8
2
  5
6CA
 10
66.6478
 20
58.9255
 30
0.000000
  70
    32
  0
VERTEX
  8
2
  5
6CB
 10
66.6858
 20
58.9325
 30
0.000000
  70
    32
  0
VERTEX
  8
2
  5
6CC
 10
66.7235
 20
58.9402
 30
0.000000
  70
    32
  0
VERTEX
  8
2
  5
6CD
 10
66.7609
 20
58.9486
 30
0.000000
  70
    32
  0
VERTEX
  8
2
  5
6CE
 10
66.7980
 20
58.9575
 30
0.000000
  70
    32
  0
VERTEX
  8
2
  5
6CF
 10
66.8348
 20
58.9672
 30
0.000000
  70
    32
  0
VERTEX
  8
2
  5
6D0
 10
66.8712
 20
58.9774
 30
0.000000
  70
    32
  0
VERTEX
  8
2
  5
6D1
 10
66.9073
 20
58.9883
 30
0.000000
  70
    32
  0
VERTEX
  8
2
  5
6D2
 10
66.9430
 20
58.9998
 30
0.000000
  70
    32
  0
VERTEX
  8
2
  5
6D3
 10
66.9782
 20
59.0119
 30
0.000000
  70
    32
  0
VERTEX
  8
2
  5
6D4
 10
67.0131
 20
59.0246
 30
0.000000
  70
    32
  0
VERTEX
  8
2
  5
6D5
 10
67.0474
 20
59.0379
 30
0.000000
  70
    32
  0
VERTEX
  8
2
  5
6D6
 10
67.0814
 20
59.0518
 30
0.000000
  70
    32
  0
VERTEX
  8
2
  5
6D7
 10
67.1148
 20
59.0663
 30
0.000000
  70
    32
  0
VERTEX
  8
2
  5
6D8
 10
67.1477
 20
59.0814
 30
0.000000
  70
    32
  0
VERTEX
  8
2
  5
6D9
 10
67.1800
 20
59.0970
 30
0.000000
  70
    32
  0
VERTEX
  8
2
  5
6DA
 10
67.2118
 20
59.1132
 30
0.000000
  70
    32
  0
VERTEX
  8
2
  5
6DB
 10
67.2431
 20
59.1299
 30
0.000000
  70
    32
  0
VERTEX
  8
2
  5
6DC
 10
67.2737
 20
59.1471
 30
0.000000
  70
    32
  0
VERTEX
  8
2
  5
6DD
 10
67.3037
 20
59.1649
 30
0.000000
  70
    32
  0
VERTEX
  8
2
  5
6DE
 10
67.3331
 20
59.1832
 30
0.000000
  70
    32
  0
VERTEX
  8
2
  5
6DF
 10
67.3619
 20
59.2020
 30
0.000000
  70
    32
  0
VERTEX
  8
2
  5
6E0
 10
67.3900
 20
59.2213
 30
0.000000
  70
    32
  0
VERTEX
  8
2
  5
6E1
 10
67.4174
 20
59.2410
 30
0.000000
  70
    32
  0
VERTEX
  8
2
  5
6E2
 10
67.4441
 20
59.2613
 30
0.000000
  70
    32
  0
VERTEX
  8
2
  5
6E3
 10
67.4701
 20
59.2820
 30
0.000000
  70
    32
  0
VERTEX
  8
2
  5
6E4
 10
67.4954
 20
59.3031
 30
0.000000
  70
    32
  0
VERTEX
  8
2
  5
6E5
 10
67.5199
 20
59.3246
 30
0.000000
  70
    32
  0
VERTEX
  8
2
  5
6E6
 10
67.5436
 20
59.3466
 30
0.000000
  70
    32
  0
VERTEX
  8
2
  5
6E7
 10
67.5666
 20
59.3690
 30
0.000000
  70
    32
  0
VERTEX
  8
2
  5
6E8
 10
67.5888
 20
59.3918
 30
0.000000
  70
    32
  0
VERTEX
  8
2
  5
6E9
 10
67.6102
 20
59.4149
 30
0.000000
  70
    32
  0
VERTEX
  8
2
  5
6EA
 10
67.6308
 20
59.4384
 30
0.000000
  70
    32
  0
VERTEX
  8
2
  5
6EB
 10
67.6506
 20
59.4623
 30
0.000000
  70
    32
  0
VERTEX
  8
2
  5
6EC
 10
67.6695
 20
59.4865
 30
0.000000
  70
    32
  0
VERTEX
  8
2
  5
6ED
 10
67.6876
 20
59.5110
 30
0.000000
  70
    32
  0
VERTEX
  8
2
  5
6EE
 10
67.7048
 20
59.5358
 30
0.000000
  70
    32
  0
VERTEX
  8
2
  5
6EF
 10
67.7211
 20
59.5609
 30
0.000000
  70
    32
  0
VERTEX
  8
2
  5
6F0
 10
67.7366
 20
59.5863
 30
0.000000
  70
    32
  0
VERTEX
  8
2
  5
6F1
 10
67.7512
 20
59.6119
 30
0.000000
  70
    32
  0
VERTEX
  8
2
  5
6F2
 10
67.7649
 20
59.6378
 30
0.000000
  70
    32
  0
VERTEX
  8
2
  5
6F3
 10
67.7776
 20
59.6639
 30
0.000000
  70
    32
  0
VERTEX
  8
2
  5
6F4
 10
67.7895
 20
59.6902
 30
0.000000
  70
    32
  0
VERTEX
  8
2
  5
6F5
 10
67.8004
 20
59.7167
 30
0.000000
  70
    32
  0
VERTEX
  8
2
  5
6F6
 10
67.8104
 20
59.7434
 30
0.000000
  70
    32
  0
VERTEX
  8
2
  5
6F7
 10
67.8195
 20
59.7703
 30
0.000000
  70
    32
  0
VERTEX
  8
2
  5
6F8
 10
67.8276
 20
59.7973
 30
0.000000
  70
    32
  0
VERTEX
  8
2
  5
6F9
 10
67.8348
 20
59.8244
 30
0.000000
  70
    32
  0
VERTEX
  8
2
  5
6FA
 10
67.8410
 20
59.8517
 30
0.000000
  70
    32
  0
VERTEX
  8
2
  5
6FB
 10
67.8463
 20
59.8791
 30
0.000000
  70
    32
  0
VERTEX
  8
2
  5
6FC
 10
67.8506
 20
59.9065
 30
0.000000
  70
    32
  0
VERTEX
  8
2
  5
6FD
 10
67.8540
 20
59.9340
 30
0.000000
  70
    32
  0
VERTEX
  8
2
  5
6FE
 10
67.8564
 20
59.9616
 30
0.000000
  70
    32
  0
VERTEX
  8
2
  5
6FF
 10
67.8578
 20
59.9892
 30
0.000000
  70
    32
  0
VERTEX
  8
2
  5
700
 10
67.8583
 20
60.0168
 30
0.000000
  70
    32
  0
SEQEND
  8
2
  5
701
  0
LINE
  5
41F
  8
2
 10
67.859281429804753
 20
58.89177861279186
 30
0.0
 11
64.659281429804764
 21
58.89177861279186
 31
0.0
  0
POLYLINE
  5
420
  8
0
 10
64.66023259178607
 20
60.016778612791917
 30
0.0
 66
     1
 70
     8
  0
VERTEX
  8
0
  5
702
 10
64.6602
 20
60.0168
 30
0.000000
  70
    32
  0
VERTEX
  8
0
  5
703
 10
64.6607
 20
60.0444
 30
0.000000
  70
    32
  0
VERTEX
  8
0
  5
704
 10
64.6622
 20
60.0720
 30
0.000000
  70
    32
  0
VERTEX
  8
0
  5
705
 10
64.6646
 20
60.0995
 30
0.000000
  70
    32
  0
VERTEX
  8
0
  5
706
 10
64.6679
 20
60.1270
 30
0.000000
  70
    32
  0
VERTEX
  8
0
  5
707
 10
64.6723
 20
60.1545
 30
0.000000
  70
    32
  0
VERTEX
  8
0
  5
708
 10
64.6775
 20
60.1819
 30
0.000000
  70
    32
  0
VERTEX
  8
0
  5
709
 10
64.6838
 20
60.2091
 30
0.000000
  70
    32
  0
VERTEX
  8
0
  5
70A
 10
64.6910
 20
60.2363
 30
0.000000
  70
    32
  0
VERTEX
  8
0
  5
70B
 10
64.6991
 20
60.2633
 30
0.000000
  70
    32
  0
VERTEX
  8
0
  5
70C
 10
64.7082
 20
60.2901
 30
0.000000
  70
    32
  0
VERTEX
  8
0
  5
70D
 10
64.7182
 20
60.3168
 30
0.000000
  70
    32
  0
VERTEX
  8
0
  5
70E
 10
64.7291
 20
60.3433
 30
0.000000
  70
    32
  0
VERTEX
  8
0
  5
70F
 10
64.7409
 20
60.3697
 30
0.000000
  70
    32
  0
VERTEX
  8
0
  5
710
 10
64.7537
 20
60.3958
 30
0.000000
  70
    32
  0
VERTEX
  8
0
  5
711
 10
64.7674
 20
60.4217
 30
0.000000
  70
    32
  0
VERTEX
  8
0
  5
712
 10
64.7820
 20
60.4473
 30
0.000000
  70
    32
  0
VERTEX
  8
0
  5
713
 10
64.7974
 20
60.4727
 30
0.000000
  70
    32
  0
VERTEX
  8
0
  5
714
 10
64.8138
 20
60.4978
 30
0.000000
  70
    32
  0
VERTEX
  8
0
  5
715
 10
64.8310
 20
60.5226
 30
0.000000
  70
    32
  0
VERTEX
  8
0
  5
716
 10
64.8490
 20
60.5471
 30
0.000000
  70
    32
  0
VERTEX
  8
0
  5
717
 10
64.8680
 20
60.5713
 30
0.000000
  70
    32
  0
VERTEX
  8
0
  5
718
 10
64.8877
 20
60.5951
 30
0.000000
  70
    32
  0
VERTEX
  8
0
  5
719
 10
64.9083
 20
60.6187
 30
0.000000
  70
    32
  0
VERTEX
  8
0
  5
71A
 10
64.9297
 20
60.6418
 30
0.000000
  70
    32
  0
VERTEX
  8
0
  5
71B
 10
64.9519
 20
60.6646
 30
0.000000
  70
    32
  0
VERTEX
  8
0
  5
71C
 10
64.9749
 20
60.6869
 30
0.000000
  70
    32
  0
VERTEX
  8
0
  5
71D
 10
64.9987
 20
60.7089
 30
0.000000
  70
    32
  0
VERTEX
  8
0
  5
71E
 10
65.0232
 20
60.7305
 30
0.000000
  70
    32
  0
VERTEX
  8
0
  5
71F
 10
65.0485
 20
60.7516
 30
0.000000
  70
    32
  0
VERTEX
  8
0
  5
720
 10
65.0745
 20
60.7723
 30
0.000000
  70
    32
  0
VERTEX
  8
0
  5
721
 10
65.1012
 20
60.7925
 30
0.000000
  70
    32
  0
VERTEX
  8
0
  5
722
 10
65.1286
 20
60.8123
 30
0.000000
  70
    32
  0
VERTEX
  8
0
  5
723
 10
65.1567
 20
60.8316
 30
0.000000
  70
    32
  0
VERTEX
  8
0
  5
724
 10
65.1854
 20
60.8503
 30
0.000000
  70
    32
  0
VERTEX
  8
0
  5
725
 10
65.2148
 20
60.8686
 30
0.000000
  70
    32
  0
VERTEX
  8
0
  5
726
 10
65.2449
 20
60.8864
 30
0.000000
  70
    32
  0
VERTEX
  8
0
  5
727
 10
65.2755
 20
60.9037
 30
0.000000
  70
    32
  0
VERTEX
  8
0
  5
728
 10
65.3067
 20
60.9204
 30
0.000000
  70
    32
  0
VERTEX
  8
0
  5
729
 10
65.3385
 20
60.9366
 30
0.000000
  70
    32
  0
VERTEX
  8
0
  5
72A
 10
65.3709
 20
60.9522
 30
0.000000
  70
    32
  0
VERTEX
  8
0
  5
72B
 10
65.4038
 20
60.9672
 30
0.000000
  70
    32
  0
VERTEX
  8
0
  5
72C
 10
65.4372
 20
60.9817
 30
0.000000
  70
    32
  0
VERTEX
  8
0
  5
72D
 10
65.4711
 20
60.9956
 30
0.000000
  70
    32
  0
VERTEX
  8
0
  5
72E
 10
65.5055
 20
61.0089
 30
0.000000
  70
    32
  0
VERTEX
  8
0
  5
72F
 10
65.5403
 20
61.0217
 30
0.000000
  70
    32
  0
VERTEX
  8
0
  5
730
 10
65.5756
 20
61.0338
 30
0.000000
  70
    32
  0
VERTEX
  8
0
  5
731
 10
65.6113
 20
61.0453
 30
0.000000
  70
    32
  0
VERTEX
  8
0
  5
732
 10
65.6474
 20
61.0561
 30
0.000000
  70
    32
  0
VERTEX
  8
0
  5
733
 10
65.6838
 20
61.0664
 30
0.000000
  70
    32
  0
VERTEX
  8
0
  5
734
 10
65.7206
 20
61.0760
 30
0.000000
  70
    32
  0
VERTEX
  8
0
  5
735
 10
65.7577
 20
61.0850
 30
0.000000
  70
    32
  0
VERTEX
  8
0
  5
736
 10
65.7951
 20
61.0933
 30
0.000000
  70
    32
  0
VERTEX
  8
0
  5
737
 10
65.8328
 20
61.1010
 30
0.000000
  70
    32
  0
VERTEX
  8
0
  5
738
 10
65.8707
 20
61.1081
 30
0.000000
  70
    32
  0
VERTEX
  8
0
  5
739
 10
65.9089
 20
61.1144
 30
0.000000
  70
    32
  0
VERTEX
  8
0
  5
73A
 10
65.9473
 20
61.1202
 30
0.000000
  70
    32
  0
VERTEX
  8
0
  5
73B
 10
65.9859
 20
61.1252
 30
0.000000
  70
    32
  0
VERTEX
  8
0
  5
73C
 10
66.0247
 20
61.1296
 30
0.000000
  70
    32
  0
VERTEX
  8
0
  5
73D
 10
66.0635
 20
61.1333
 30
0.000000
  70
    32
  0
VERTEX
  8
0
  5
73E
 10
66.1025
 20
61.1364
 30
0.000000
  70
    32
  0
VERTEX
  8
0
  5
73F
 10
66.1416
 20
61.1387
 30
0.000000
  70
    32
  0
VERTEX
  8
0
  5
740
 10
66.1808
 20
61.1404
 30
0.000000
  70
    32
  0
VERTEX
  8
0
  5
741
 10
66.2200
 20
61.1414
 30
0.000000
  70
    32
  0
VERTEX
  8
0
  5
742
 10
66.2593
 20
61.1418
 30
0.000000
  70
    32
  0
VERTEX
  8
0
  5
743
 10
66.2985
 20
61.1414
 30
0.000000
  70
    32
  0
VERTEX
  8
0
  5
744
 10
66.3377
 20
61.1404
 30
0.000000
  70
    32
  0
VERTEX
  8
0
  5
745
 10
66.3769
 20
61.1387
 30
0.000000
  70
    32
  0
VERTEX
  8
0
  5
746
 10
66.4160
 20
61.1364
 30
0.000000
  70
    32
  0
VERTEX
  8
0
  5
747
 10
66.4550
 20
61.1333
 30
0.000000
  70
    32
  0
VERTEX
  8
0
  5
748
 10
66.4939
 20
61.1296
 30
0.000000
  70
    32
  0
VERTEX
  8
0
  5
749
 10
66.5327
 20
61.1252
 30
0.000000
  70
    32
  0
VERTEX
  8
0
  5
74A
 10
66.5712
 20
61.1202
 30
0.000000
  70
    32
  0
VERTEX
  8
0
  5
74B
 10
66.6096
 20
61.1144
 30
0.000000
  70
    32
  0
VERTEX
  8
0
  5
74C
 10
66.6478
 20
61.1081
 30
0.000000
  70
    32
  0
VERTEX
  8
0
  5
74D
 10
66.6858
 20
61.1010
 30
0.000000
  70
    32
  0
VERTEX
  8
0
  5
74E
 10
66.7235
 20
61.0933
 30
0.000000
  70
    32
  0
VERTEX
  8
0
  5
74F
 10
66.7609
 20
61.0850
 30
0.000000
  70
    32
  0
VERTEX
  8
0
  5
750
 10
66.7980
 20
61.0760
 30
0.000000
  70
    32
  0
VERTEX
  8
0
  5
751
 10
66.8348
 20
61.0664
 30
0.000000
  70
    32
  0
VERTEX
  8
0
  5
752
 10
66.8712
 20
61.0561
 30
0.000000
  70
    32
  0
VERTEX
  8
0
  5
753
 10
66.9073
 20
61.0453
 30
0.000000
  70
    32
  0
VERTEX
  8
0
  5
754
 10
66.9430
 20
61.0338
 30
0.000000
  70
    32
  0
VERTEX
  8
0
  5
755
 10
66.9782
 20
61.0217
 30
0.000000
  70
    32
  0
VERTEX
  8
0
  5
756
 10
67.0131
 20
61.0089
 30
0.000000
  70
    32
  0
VERTEX
  8
0
  5
757
 10
67.0474
 20
60.9956
 30
0.000000
  70
    32
  0
VERTEX
  8
0
  5
758
 10
67.0814
 20
60.9817
 30
0.000000
  70
    32
  0
VERTEX
  8
0
  5
759
 10
67.1148
 20
60.9672
 30
0.000000
  70
    32
  0
VERTEX
  8
0
  5
75A
 10
67.1477
 20
60.9522
 30
0.000000
  70
    32
  0
VERTEX
  8
0
  5
75B
 10
67.1800
 20
60.9366
 30
0.000000
  70
    32
  0
VERTEX
  8
0
  5
75C
 10
67.2118
 20
60.9204
 30
0.000000
  70
    32
  0
VERTEX
  8
0
  5
75D
 10
67.2431
 20
60.9037
 30
0.000000
  70
    32
  0
VERTEX
  8
0
  5
75E
 10
67.2737
 20
60.8864
 30
0.000000
  70
    32
  0
VERTEX
  8
0
  5
75F
 10
67.3037
 20
60.8686
 30
0.000000
  70
    32
  0
VERTEX
  8
0
  5
760
 10
67.3331
 20
60.8503
 30
0.000000
  70
    32
  0
VERTEX
  8
0
  5
761
 10
67.3619
 20
60.8316
 30
0.000000
  70
    32
  0
VERTEX
  8
0
  5
762
 10
67.3900
 20
60.8123
 30
0.000000
  70
    32
  0
VERTEX
  8
0
  5
763
 10
67.4174
 20
60.7925
 30
0.000000
  70
    32
  0
VERTEX
  8
0
  5
764
 10
67.4441
 20
60.7723
 30
0.000000
  70
    32
  0
VERTEX
  8
0
  5
765
 10
67.4701
 20
60.7516
 30
0.000000
  70
    32
  0
VERTEX
  8
0
  5
766
 10
67.4954
 20
60.7305
 30
0.000000
  70
    32
  0
VERTEX
  8
0
  5
767
 10
67.5199
 20
60.7089
 30
0.000000
  70
    32
  0
VERTEX
  8
0
  5
768
 10
67.5436
 20
60.6869
 30
0.000000
  70
    32
  0
VERTEX
  8
0
  5
769
 10
67.5666
 20
60.6646
 30
0.000000
  70
    32
  0
VERTEX
  8
0
  5
76A
 10
67.5888
 20
60.6418
 30
0.000000
  70
    32
  0
VERTEX
  8
0
  5
76B
 10
67.6102
 20
60.6187
 30
0.000000
  70
    32
  0
VERTEX
  8
0
  5
76C
 10
67.6308
 20
60.5951
 30
0.000000
  70
    32
  0
VERTEX
  8
0
  5
76D
 10
67.6506
 20
60.5713
 30
0.000000
  70
    32
  0
VERTEX
  8
0
  5
76E
 10
67.6695
 20
60.5471
 30
0.000000
  70
    32
  0
VERTEX
  8
0
  5
76F
 10
67.6876
 20
60.5226
 30
0.000000
  70
    32
  0
VERTEX
  8
0
  5
770
 10
67.7048
 20
60.4978
 30
0.000000
  70
    32
  0
VERTEX
  8
0
  5
771
 10
67.7211
 20
60.4727
 30
0.000000
  70
    32
  0
VERTEX
  8
0
  5
772
 10
67.7366
 20
60.4473
 30
0.000000
  70
    32
  0
VERTEX
  8
0
  5
773
 10
67.7512
 20
60.4217
 30
0.000000
  70
    32
  0
VERTEX
  8
0
  5
774
 10
67.7649
 20
60.3958
 30
0.000000
  70
    32
  0
VERTEX
  8
0
  5
775
 10
67.7776
 20
60.3697
 30
0.000000
  70
    32
  0
VERTEX
  8
0
  5
776
 10
67.7895
 20
60.3433
 30
0.000000
  70
    32
  0
VERTEX
  8
0
  5
777
 10
67.8004
 20
60.3168
 30
0.000000
  70
    32
  0
VERTEX
  8
0
  5
778
 10
67.8104
 20
60.2901
 30
0.000000
  70
    32
  0
VERTEX
  8
0
  5
779
 10
67.8195
 20
60.2633
 30
0.000000
  70
    32
  0
VERTEX
  8
0
  5
77A
 10
67.8276
 20
60.2363
 30
0.000000
  70
    32
  0
VERTEX
  8
0
  5
77B
 10
67.8348
 20
60.2091
 30
0.000000
  70
    32
  0
VERTEX
  8
0
  5
77C
 10
67.8410
 20
60.1819
 30
0.000000
  70
    32
  0
VERTEX
  8
0
  5
77D
 10
67.8463
 20
60.1545
 30
0.000000
  70
    32
  0
VERTEX
  8
0
  5
77E
 10
67.8506
 20
60.1270
 30
0.000000
  70
    32
  0
VERTEX
  8
0
  5
77F
 10
67.8540
 20
60.0995
 30
0.000000
  70
    32
  0
VERTEX
  8
0
  5
780
 10
67.8564
 20
60.0720
 30
0.000000
  70
    32
  0
VERTEX
  8
0
  5
781
 10
67.8578
 20
60.0444
 30
0.000000
  70
    32
  0
VERTEX
  8
0
  5
782
 10
67.8583
 20
60.0168
 30
0.000000
  70
    32
  0
SEQEND
  8
0
  5
783
  0
INSERT
  5
421
  8
0
  2
*X0
 10
-90.912823442175181
 20
-1.615265751716648
 30
0.0
  0
CIRCLE
  5
422
  8
0
 10
24.159281429804761
 20
51.141778612791839
 30
0.0
 40
10.5
  0
CIRCLE
  5
423
  8
0
 10
24.159281429804761
 20
51.141778612791839
 30
0.0
 40
6.0
  0
CIRCLE
  5
424
  8
0
 10
24.159281429804761
 20
51.141778612791839
 30
0.0
 40
7.5
  0
CIRCLE
  5
425
  8
0
 10
24.159281429804761
 20
51.141778612791839
 30
0.0
 40
9.3000000000000007
  0
LINE
  5
426
  8
0
 10
18.80111009995727
 20
48.441778612791794
 30
0.0
 11
29.51745275965186
 21
48.441778612791794
 31
0.0
  0
LINE
  5
427
  8
0
 10
18.180151058254641
 20
50.641778612791782
 30
0.0
 11
30.138411801355751
 21
50.641778612791782
 31
0.0
  0
LINE
  5
428
  8
0
 10
18.180151058254289
 20
51.641778612791782
 30
0.0
 11
30.138411801355119
 21
51.641778612791782
 31
0.0
  0
ARC
  5
429
  8
0
 10
24.159281429804761
 20
57.641778612791782
 30
0.0
 40
2.5
 50
202.61986494803941
 51
337.38013505196062
  0
TEXT
  5
42A
  8
3
 10
21.03928142980477
 20
49.041778612791703
 30
0.0
 40
0.8
  1
ELESA
 41
1.8
  7
SIM180
 72
     1
 11
24.159281429804761
 21
49.041778612791703
 31
0.0
  0
LINE
  5
42B
  8
1
 10
37.159281429804771
 20
51.141778612791839
 30
0.0
 11
11.159281429804709
 21
51.141778612791839
 31
0.0
  0
LINE
  5
42C
  8
1
 10
24.159281429804761
 20
64.141778612791839
 30
0.0
 11
24.159281429804711
 21
38.141778612791803
 31
0.0
  0
TEXT
  5
4EB
  8
0
 62
     3
 10
0.0
 20
0.0
 30
0.0
 40
10.0
  1
LE-20
  7
STANDARD1
  0
ENDSEC
  0
EOF
