  0
SECTION
  2
HEADER
  9
$ACADVER
  1
AC1009
  9
$INSBASE
 10
0.0
 20
0.0
 30
0.0
  9
$EXTMIN
 10
0.0
 20
-2.960436562073669
 30
0.0
  9
$EXTMAX
 10
338.52997070412891
 20
173.5525079936051
 30
0.0
  9
$LIMMIN
 10
0.0
 20
0.0
  9
$LIMMAX
 10
375.0
 20
270.0
  9
$ORTHOMODE
 70
     1
  9
$REGENMODE
 70
     1
  9
$FILLMODE
 70
     1
  9
$QTEXTMODE
 70
     0
  9
$MIRRTEXT
 70
     0
  9
$DRAGMODE
 70
     2
  9
$LTSCALE
 40
10.0
  9
$OSMODE
 70
  3071
  9
$ATTMODE
 70
     1
  9
$TEXTSIZE
 40
0.2
  9
$TRACEWID
 40
0.05
  9
$TEXTSTYLE
  7
STANDARD
  9
$CLAYER
  8
0
  9
$CELTYPE
  6
BYLAYER
  9
$CECOLOR
 62
   256
  9
$DIMSCALE
 40
1.0
  9
$DIMASZ
 40
3.0
  9
$DIMEXO
 40
2.0
  9
$DIMDLI
 40
0.38
  9
$DIMRND
 40
0.0
  9
$DIMDLE
 40
0.0
  9
$DIMEXE
 40
2.0
  9
$DIMTP
 40
0.0
  9
$DIMTM
 40
0.0
  9
$DIMTXT
 40
3.2000000000000002
  9
$DIMCEN
 40
0.0
  9
$DIMTSZ
 40
0.0
  9
$DIMTOL
 70
     0
  9
$DIMLIM
 70
     0
  9
$DIMTIH
 70
     0
  9
$DIMTOH
 70
     0
  9
$DIMSE1
 70
     0
  9
$DIMSE2
 70
     0
  9
$DIMTAD
 70
     1
  9
$DIMZIN
 70
     0
  9
$DIMBLK
  1

  9
$DIMASO
 70
     1
  9
$DIMSHO
 70
     0
  9
$DIMPOST
  1

  9
$DIMAPOST
  1

  9
$DIMALT
 70
     0
  9
$DIMALTD
 70
     2
  9
$DIMALTF
 40
25.399999999999999
  9
$DIMLFAC
 40
1.0
  9
$DIMTOFL
 70
     1
  9
$DIMTVP
 40
1.6000000000000001
  9
$DIMTIX
 70
     1
  9
$DIMSOXD
 70
     0
  9
$DIMSAH
 70
     0
  9
$DIMBLK1
  1

  9
$DIMBLK2
  1

  9
$DIMSTYLE
  2
STANDARD
  9
$DIMCLRD
 70
     0
  9
$DIMCLRE
 70
     0
  9
$DIMCLRT
 70
     0
  9
$DIMTFAC
 40
1.0
  9
$DIMGAP
 40
0.09
  9
$LUNITS
 70
     2
  9
$LUPREC
 70
     4
  9
$SKETCHINC
 40
0.1
  9
$FILLETRAD
 40
0.0
  9
$AUNITS
 70
     0
  9
$AUPREC
 70
     4
  9
$MENU
  1
E:\r13\win\SUPPORT\ACAD
  9
$ELEVATION
 40
0.0
  9
$PELEVATION
 40
0.0
  9
$THICKNESS
 40
0.0
  9
$LIMCHECK
 70
     0
  9
$BLIPMODE
 70
     0
  9
$CHAMFERA
 40
0.0
  9
$CHAMFERB
 40
0.0
  9
$SKPOLY
 70
     0
  9
$TDCREATE
 40
2449839.7941203709
  9
$TDUPDATE
 40
2456597.578715961
  9
$TDINDWG
 40
0.0089320718
  9
$TDUSRTIMER
 40
0.0089320718
  9
$USRTIMER
 70
     1
  9
$ANGBASE
 50
0.0
  9
$ANGDIR
 70
     0
  9
$PDMODE
 70
     0
  9
$PDSIZE
 40
0.0
  9
$PLINEWID
 40
0.0
  9
$COORDS
 70
     1
  9
$SPLFRAME
 70
     0
  9
$SPLINETYPE
 70
     6
  9
$SPLINESEGS
 70
     8
  9
$ATTDIA
 70
     0
  9
$ATTREQ
 70
     1
  9
$HANDLING
 70
     1
  9
$HANDSEED
  5
38F
  9
$SURFTAB1
 70
     6
  9
$SURFTAB2
 70
     6
  9
$SURFTYPE
 70
     6
  9
$SURFU
 70
     6
  9
$SURFV
 70
     6
  9
$UCSNAME
  2

  9
$UCSORG
 10
0.0
 20
0.0
 30
0.0
  9
$UCSXDIR
 10
1.0
 20
0.0
 30
0.0
  9
$UCSYDIR
 10
0.0
 20
1.0
 30
0.0
  9
$PUCSNAME
  2

  9
$PUCSORG
 10
0.0
 20
0.0
 30
0.0
  9
$PUCSXDIR
 10
1.0
 20
0.0
 30
0.0
  9
$PUCSYDIR
 10
0.0
 20
1.0
 30
0.0
  9
$USERI1
 70
     0
  9
$USERI2
 70
     1
  9
$USERI3
 70
     1
  9
$USERI4
 70
     0
  9
$USERI5
 70
     0
  9
$USERR1
 40
0.0
  9
$USERR2
 40
0.0
  9
$USERR3
 40
0.0
  9
$USERR4
 40
0.0
  9
$USERR5
 40
0.0
  9
$WORLDVIEW
 70
     1
  9
$SHADEDGE
 70
     3
  9
$SHADEDIF
 70
    70
  9
$TILEMODE
 70
     1
  9
$MAXACTVP
 70
    16
  9
$PLIMCHECK
 70
     0
  9
$PEXTMIN
 10
1.0000000000000000E+020
 20
1.0000000000000000E+020
 30
1.0000000000000000E+020
  9
$PEXTMAX
 10
-1.0000000000000000E+020
 20
-1.0000000000000000E+020
 30
-1.0000000000000000E+020
  9
$PLIMMIN
 10
0.0
 20
0.0
  9
$PLIMMAX
 10
12.0
 20
9.0
  9
$UNITMODE
 70
     0
  9
$VISRETAIN
 70
     0
  9
$PLINEGEN
 70
     0
  9
$PSLTSCALE
 70
     0
  0
ENDSEC
  0
SECTION
  2
TABLES
  0
TABLE
  2
VPORT
 70
     1
  0
VPORT
  2
*ACTIVE
 70
     0
 10
0.0
 20
0.0
 11
1.0
 21
1.0
 12
187.49427839065231
 22
162.8616388594717
 13
0.0
 23
0.0
 14
10.0
 24
10.0
 15
10.0
 25
10.0
 16
0.0
 26
0.0
 36
1.0
 17
0.0
 27
0.0
 37
0.0
 40
334.81001162774987
 41
1.9089595375722539
 42
50.0
 43
0.0
 44
0.0
 50
0.0
 51
0.0
 71
     0
 72
   500
 73
     1
 74
     0
 75
     0
 76
     0
 77
     0
 78
     2
  0
ENDTAB
  0
TABLE
  2
LTYPE
 70
     4
  0
LTYPE
  2
CONTINUOUS
 70
     0
  3
Solid Line
 72
    65
 73
     0
 40
0.0
  0
LTYPE
  2
CENTER
 70
     0
  3
____ _ ____ _ ____ _ ____ _ ____ _ ____ _ ____
 72
    65
 73
     4
 40
2.0
 49
1.25
 49
-0.25
 49
0.25
 49
-0.25
  0
LTYPE
  2
HIDDEN
 70
     0
  3
_ _ _ _ _ _ _ _ _ _ _ _ _ _ _ _ _ _ _ _ _ _ _
 72
    65
 73
     2
 40
0.375
 49
0.25
 49
-0.125
  0
LTYPE
  2
PHANTOM2
 70
     0
  3
___ _ _ ___ _ _ ___ _ _ ___ _ _
 72
    65
 73
     6
 40
1.25
 49
0.625
 49
-0.125
 49
0.125
 49
-0.125
 49
0.125
 49
-0.125
  0
ENDTAB
  0
TABLE
  2
LAYER
 70
     4
  0
LAYER
  2
0
 70
     0
 62
     7
  6
CONTINUOUS
  0
LAYER
  2
1
 70
     0
 62
     1
  6
CENTER
  0
LAYER
  2
2
 70
     0
 62
     2
  6
HIDDEN
  0
LAYER
  2
3
 70
     0
 62
     3
  6
CONTINUOUS
  0
ENDTAB
  0
TABLE
  2
STYLE
 70
     3
  0
STYLE
  2
STANDARD
 70
     0
 40
0.0
 41
1.0
 50
0.0
 71
     0
 42
0.2
  3
TXT
  4
BIGFONT
  0
STYLE
  2
SIM325
 70
     0
 40
0.0
 41
3.25
 50
0.0
 71
     0
 42
1.5
  3
SIMPLEX
  4

  0
STYLE
  2
STANDARD1
 70
     0
 40
0.0
 41
1.0
 50
0.0
 71
     0
 42
3.0
  3
txt
  4

  0
ENDTAB
  0
TABLE
  2
VIEW
 70
     1
  0
VIEW
  2
ALL
 70
     0
 40
270.0
 10
220.99159663865549
 20
135.0
 41
0.0
 11
0.0
 21
0.0
 31
1.0
 12
0.0
 22
0.0
 32
0.0
 42
0.0
 43
0.0
 44
0.0
 50
0.0
 71
     0
  0
ENDTAB
  0
TABLE
  2
UCS
 70
     0
  0
ENDTAB
  0
TABLE
  2
APPID
 70
     3
  0
APPID
  2
ACAD
 70
     0
  0
APPID
  2
ACAD_MLEADERVER
 70
     0
  0
APPID
  2
ACAD_NAV_VCDISPLAY
 70
     0
  0
ENDTAB
  0
TABLE
  2
DIMSTYLE
 70
     1
  0
DIMSTYLE
  2
STANDARD
 70
     0
  3

  4

  5

  6

  7

 40
1.0
 41
0.18
 42
0.0625
 43
0.38
 44
0.18
 45
0.0
 46
0.0
 47
0.0
 48
0.0
140
0.18
141
0.09
142
0.0
143
25.399999999999999
144
1.0
145
0.0
146
1.0
147
0.09
 71
     0
 72
     0
 73
     1
 74
     1
 75
     0
 76
     0
 77
     0
 78
     0
170
     0
171
     2
172
     0
173
     0
174
     0
175
     0
176
     0
177
     0
178
     0
  0
ENDTAB
  0
ENDSEC
  0
SECTION
  2
BLOCKS
  0
BLOCK
  8
0
  2
$MODEL_SPACE
 70
     0
 10
0.0
 20
0.0
 30
0.0
  3
$MODEL_SPACE
  1

  0
ENDBLK
  5
1EC
  8
0
  0
BLOCK
 67
     1
  8
0
  2
$PAPER_SPACE
 70
     0
 10
0.0
 20
0.0
 30
0.0
  3
$PAPER_SPACE
  1

  0
ENDBLK
  5
1EA
 67
     1
  8
0
  0
ENDSEC
  0
SECTION
  2
ENTITIES
  0
LINE
  5
58
  8
0
 10
201.535466307646
 20
163.3930097036621
 30
0.0
 11
199.3354663076461
 21
165.59300970366209
 31
0.0
  0
LINE
  5
59
  8
0
 10
201.535466307646
 20
165.51433004722179
 30
0.0
 11
200.49728836126269
 21
166.5525079936051
 31
0.0
  0
LINE
  5
5A
  8
0
 10
195.035466307646
 20
155.67020782280841
 30
0.0
 11
191.53546630764609
 21
159.17020782280829
 31
0.0
  0
LINE
  5
5B
  8
0
 10
195.035466307646
 20
153.54888747924869
 30
0.0
 11
191.53546630764609
 21
157.0488874792488
 31
0.0
  0
LINE
  5
5C
  8
0
 10
201.535466307646
 20
147.0488874792488
 30
0.0
 11
199.3354663076461
 21
149.24888747924879
 31
0.0
  0
LINE
  5
5D
  8
0
 10
201.535466307646
 20
149.17020782280829
 30
0.0
 11
199.3354663076461
 21
151.37020782280831
 31
0.0
  0
LINE
  5
5E
  8
0
 10
195.035466307646
 20
132.5561285079601
 30
0.0
 11
191.53546630764609
 21
136.05612850796001
 31
0.0
  0
LINE
  5
5F
  8
0
 10
195.035466307646
 20
130.43480816440041
 30
0.0
 11
191.53546630764609
 21
133.93480816440029
 31
0.0
  0
LINE
  5
60
  8
0
 10
201.535466307646
 20
123.93480816440049
 30
0.0
 11
199.3354663076461
 21
126.1348081644005
 31
0.0
  0
LINE
  5
61
  8
0
 10
201.535466307646
 20
126.0561285079601
 30
0.0
 11
199.3354663076461
 21
128.25612850796
 31
0.0
  0
LINE
  5
62
  8
0
 10
195.035466307646
 20
114.09068593998779
 30
0.0
 11
191.53546630764609
 21
117.59068593998769
 31
0.0
  0
LINE
  5
63
  8
0
 10
195.035466307646
 20
116.2120062835474
 30
0.0
 11
191.53546630764609
 21
119.7120062835474
 31
0.0
  0
LINE
  5
64
  8
0
 10
201.535466307646
 20
109.7120062835475
 30
0.0
 11
199.3354663076461
 21
111.9120062835474
 31
0.0
  0
LINE
  5
65
  8
0
 10
201.535466307646
 20
107.59068593998791
 30
0.0
 11
199.3354663076461
 21
109.7906859399879
 31
0.0
  0
ARC
  5
66
  8
0
 10
301.52997070412891
 20
136.55250799360499
 30
0.0
 40
29.999999999998639
 50
248.93254373756631
 51
291.06745626244941
  0
ARC
  5
67
  8
0
 10
301.52997070412891
 20
136.55250799360499
 30
0.0
 40
29.999999999998639
 50
203.93254373756631
 51
246.0674562624495
  0
ARC
  5
68
  8
0
 10
301.52997070412891
 20
136.55250799360499
 30
0.0
 40
29.999999999998639
 50
158.93254373756639
 51
201.0674562624495
  0
ARC
  5
69
  8
0
 10
301.52997070412891
 20
136.55250799360499
 30
0.0
 40
29.999999999998639
 50
113.93254373756631
 51
156.06745626244941
  0
ARC
  5
6A
  8
0
 10
301.52997070412891
 20
136.55250799360499
 30
0.0
 40
29.999999999998639
 50
68.932543737566334
 51
111.0674562624494
  0
ARC
  5
6B
  8
0
 10
301.52997070412891
 20
136.55250799360499
 30
0.0
 40
29.999999999998639
 50
23.932543737566331
 51
66.067456262449411
  0
ARC
  5
6C
  8
0
 10
301.52997070412891
 20
136.5525079936051
 30
0.0
 40
29.999999999998639
 50
338.93254373756639
 51
21.067456262449468
  0
ARC
  5
6D
  8
0
 10
290.52704227319401
 20
109.98908894981091
 30
0.0
 40
1.447962413896464
 50
216.303869135643
 51
278.69613086409362
  0
ARC
  5
6E
  8
0
 10
274.96655166033793
 20
125.5495795626627
 30
0.0
 40
1.447962413896464
 50
171.303869135643
 51
233.69613086409359
  0
ARC
  5
6F
  8
0
 10
274.96655166033491
 20
147.55543642454001
 30
0.0
 40
1.447962413896464
 50
126.303869135643
 51
188.69613086409359
  0
ARC
  5
70
  8
0
 10
290.52704227318662
 20
163.11592703739609
 30
0.0
 40
1.447962413896464
 50
81.303869135642984
 51
143.69613086409359
  0
ARC
  5
71
  8
0
 10
312.53289913506381
 20
163.1159270373991
 30
0.0
 40
1.447962413896464
 50
36.303869135643048
 51
98.696130864093575
  0
ARC
  5
72
  8
0
 10
328.0933897479199
 20
147.55543642454739
 30
0.0
 40
1.447962413896464
 50
351.30386913564303
 51
53.696130864093583
  0
ARC
  5
73
  8
0
 10
328.09338974792303
 20
125.5495795626702
 30
0.0
 40
1.447962413896464
 50
306.30386913564303
 51
8.6961308640935737
  0
ARC
  5
74
  8
0
 10
312.5328991350712
 20
109.989088949814
 30
0.0
 40
1.447962413896464
 50
261.30386913564303
 51
323.69613086409362
  0
ARC
  5
75
  8
0
 10
301.52997070412891
 20
136.55250799360499
 30
0.0
 40
29.999999999998639
 50
293.93254373756628
 51
336.06745626244941
  0
LINE
  5
76
  8
0
 10
296.52997070412891
 20
156.55250799360499
 30
0.0
 11
296.52997070412891
 21
158.48991896208651
 31
0.0
  0
LINE
  5
77
  8
0
 10
306.52997070412891
 20
156.55250799360499
 30
0.0
 11
306.52997070412891
 21
158.48991896208551
 31
0.0
  0
ARC
  5
78
  8
0
 10
301.52997070412891
 20
136.55250799360499
 30
0.0
 40
20.00000000000006
 50
75.638488437083424
 51
104.3615115629166
  0
ARC
  5
79
  8
0
 10
301.52997070412891
 20
156.55250799360499
 30
0.0
 40
5.0
 50
180.0
 51
360.0
  0
LINE
  5
7A
  8
0
 10
322.15156133143029
 20
127.552507993605
 30
0.0
 11
280.90838007682771
 21
127.552507993605
 31
0.0
  0
CIRCLE
  5
7B
  8
0
 10
301.52997070412891
 20
136.55250799360499
 30
0.0
 40
25.349999999999969
  0
CIRCLE
  5
7C
  8
0
 10
301.52997070412891
 20
136.55250799360499
 30
0.0
 40
24.849999999999969
  0
CIRCLE
  5
7D
  8
0
 10
301.52997070412891
 20
136.55250799360499
 30
0.0
 40
22.49999999999994
  0
ARC
  5
7E
  8
0
 10
301.52997070412891
 20
136.55250799360499
 30
0.0
 40
20.00000000000006
 50
206.7436839504031
 51
333.2563160495971
  0
CIRCLE
  5
7F
  8
0
 10
301.52997070412891
 20
136.55250799360499
 30
0.0
 40
28.999999999998629
  0
LINE
  5
80
  8
1
 10
264.52997070412891
 20
136.55250799360499
 30
0.0
 11
338.52997070412891
 21
136.55250799360499
 31
0.0
  0
LINE
  5
82
  8
1
 10
301.52997070412891
 20
99.552507993605062
 30
0.0
 11
301.52997070412891
 21
173.55250799360499
 31
0.0
  0
LINE
  5
83
  8
0
 10
202.53546630764609
 20
165.5525079936051
 30
0.0
 11
201.53546630764609
 21
166.5525079936051
 31
0.0
  0
LINE
  5
84
  8
0
 10
201.535466307646
 20
106.552507993605
 30
0.0
 11
202.535466307646
 21
107.552507993605
 31
0.0
  0
LINE
  5
85
  8
0
 10
201.535466307646
 20
106.552507993605
 30
0.0
 11
201.53546630764609
 21
166.5525079936051
 31
0.0
  0
TEXT
  5
86
  8
3
 10
79.424704916758856
 20
129.352507993605
 30
0.0
 40
1.5
  1
ELESA
 41
3.25
  7
SIM325
 72
     1
 11
89.987204916758856
 21
129.352507993605
 31
0.0
  0
ARC
  5
87
  8
0
 10
89.987204916758856
 20
156.55250799360499
 30
0.0
 40
5.0
 50
187.180755781458
 51
352.819244218542
  0
LINE
  5
88
  8
1
 10
207.53546630764609
 20
136.55250799360499
 30
0.0
 11
181.035466307646
 21
136.55250799360499
 31
0.0
  0
LINE
  5
89
  8
1
 10
89.987204916758856
 20
173.5525079936051
 30
0.0
 11
89.987204916758856
 21
99.552507993605076
 31
0.0
  0
LINE
  5
8A
  8
1
 10
126.9872049167588
 20
136.55250799360499
 30
0.0
 11
52.987204916758863
 21
136.55250799360499
 31
0.0
  0
LINE
  5
8B
  8
0
 10
70.001272364085693
 20
135.80250799360499
 30
0.0
 11
109.9731374694323
 21
135.80250799360499
 31
0.0
  0
LINE
  5
8C
  8
0
 10
70.001272364085693
 20
137.30250799360499
 30
0.0
 11
109.9731374694323
 21
137.30250799360499
 31
0.0
  0
LINE
  5
8D
  8
0
 10
72.126633817266736
 20
127.552507993605
 30
0.0
 11
107.847776016251
 21
127.552507993605
 31
0.0
  0
POLYLINE
  5
8E
  8
0
 66
     1
 10
0.0
 20
0.0
 30
0.0
  0
VERTEX
  5
8F
  8
0
 10
195.03546630764609
 20
108.027507993605
 30
0.0
 42
0.1366374709141713
 50
90.0
  0
VERTEX
  5
90
  8
0
 10
195.18384303120359
 20
107.49468724151311
 30
0.0
 42
0.1069829918065925
 50
90.0
  0
VERTEX
  5
91
  8
0
 10
195.66518672809499
 20
106.9845254913549
 30
0.0
 42
0.0812854610937458
 70
     2
 50
325.54806541814253
  0
VERTEX
  5
92
  8
0
 10
196.33178452518021
 20
106.67144869453701
 30
0.0
 42
0.0693285374564815
 50
90.0
  0
VERTEX
  5
93
  8
0
 10
197.1854663076461
 20
106.552507993605
 30
0.0
 42
0.0693285374565368
 50
90.0
  0
VERTEX
  5
94
  8
0
 10
198.03914809011221
 20
106.6714486945372
 30
0.0
 42
0.0812854610937444
 50
90.0
  0
VERTEX
  5
95
  8
0
 10
198.70574588719711
 20
106.9845254913549
 30
0.0
 42
0.1069829918065998
 70
     2
 50
34.451934581859632
  0
VERTEX
  5
96
  8
0
 10
199.1870895840886
 20
107.4946872415132
 30
0.0
 42
0.1366374709141386
 50
90.0
  0
VERTEX
  5
97
  8
0
 10
199.33546630764599
 20
108.0275079936051
 30
0.0
 42
0.1366374709141827
 50
90.0
  0
SEQEND
  5
98
  8
0
  0
POLYLINE
  5
99
  8
2
 66
     1
 10
0.0
 20
0.0
 30
0.0
  0
VERTEX
  5
9A
  8
2
 10
199.33546630764599
 20
165.07750799360491
 30
0.0
 42
-0.1366374709141827
 50
90.0
  0
VERTEX
  5
9B
  8
2
 10
199.18708958408851
 20
164.544687241513
 30
0.0
 42
-0.1069829918065925
 50
90.0
  0
VERTEX
  5
9C
  8
2
 10
198.70574588719711
 20
164.0345254913548
 30
0.0
 42
-0.0812854610937501
 70
     2
 50
214.4519345818575
  0
VERTEX
  5
9D
  8
2
 10
198.03914809011209
 20
163.72144869453709
 30
0.0
 42
-0.069328537456496
 50
90.0
  0
VERTEX
  5
9E
  8
2
 10
197.18546630764601
 20
163.602507993605
 30
0.0
 42
-0.069328537456546
 50
90.0
  0
SEQEND
  5
9F
  8
2
  0
POLYLINE
  5
A0
  8
2
 66
     1
 10
0.0
 20
0.0
 30
0.0
  0
VERTEX
  5
A1
  8
2
 10
197.18546630764601
 20
163.602507993605
 30
0.0
 42
-0.069328537456546
 50
90.0
  0
VERTEX
  5
A2
  8
2
 10
196.33178452518001
 20
163.7214486945372
 30
0.0
 42
-0.0812854610938128
 50
90.0
  0
VERTEX
  5
A3
  8
2
 10
195.66518672809499
 20
164.03452549135491
 30
0.0
 42
-0.106982991806602
 70
     2
 50
145.54806541814031
  0
VERTEX
  5
A4
  8
2
 10
195.1508671510403
 20
164.57963738804199
 30
0.0
 42
-0.1590304208983313
 50
90.0
  0
VERTEX
  5
A5
  8
2
 10
195.0354663076487
 20
165.07750799360491
 30
0.0
 42
-0.1366374709141713
 50
90.0
  0
SEQEND
  5
A6
  8
2
  0
POLYLINE
  5
A7
  8
0
 66
     1
 10
0.0
 20
0.0
 30
0.0
  0
VERTEX
  5
A8
  8
0
 10
195.03546630764609
 20
165.07750799360511
 30
0.0
 42
-0.1366374709141713
 50
90.0
  0
VERTEX
  5
A9
  8
0
 10
195.18384303120359
 20
165.61032874569699
 30
0.0
 42
-0.1069829918065925
 50
90.0
  0
VERTEX
  5
AA
  8
0
 10
195.66518672809499
 20
166.12049049585519
 30
0.0
 42
-0.0812854610937458
 70
     2
 50
34.451934581857493
  0
VERTEX
  5
AB
  8
0
 10
196.33178452518021
 20
166.4335672926731
 30
0.0
 42
-0.0693285374564815
 50
90.0
  0
VERTEX
  5
AC
  8
0
 10
197.1854663076461
 20
166.5525079936051
 30
0.0
 42
-0.0693285374565368
 50
90.0
  0
VERTEX
  5
AD
  8
0
 10
198.03914809011221
 20
166.4335672926729
 30
0.0
 42
-0.0812854610937444
 50
90.0
  0
VERTEX
  5
AE
  8
0
 10
198.70574588719711
 20
166.12049049585511
 30
0.0
 42
-0.1069829918065998
 70
     2
 50
325.54806541814042
  0
VERTEX
  5
AF
  8
0
 10
199.1870895840886
 20
165.6103287456969
 30
0.0
 42
-0.1366374709141386
 50
90.0
  0
VERTEX
  5
B0
  8
0
 10
199.33546630764599
 20
165.07750799360491
 30
0.0
 42
-0.1366374709141827
 50
90.0
  0
SEQEND
  5
B1
  8
0
  0
POLYLINE
  5
B2
  8
2
 66
     1
 10
0.0
 20
0.0
 30
0.0
  0
VERTEX
  5
B3
  8
2
 10
199.33546630764599
 20
108.0275079936051
 30
0.0
 42
0.1366374709141827
 50
90.0
  0
VERTEX
  5
B4
  8
2
 10
199.18708958408851
 20
108.56032874569711
 30
0.0
 42
0.1069829918065925
 50
90.0
  0
VERTEX
  5
B5
  8
2
 10
198.70574588719711
 20
109.0704904958553
 30
0.0
 42
0.0812854610937501
 70
     2
 50
145.5480654181425
  0
VERTEX
  5
B6
  8
2
 10
198.03914809011209
 20
109.38356729267301
 30
0.0
 42
0.069328537456496
 50
145.5480654181425
  0
VERTEX
  5
B7
  8
2
 10
197.18546630764601
 20
109.50250799360509
 30
0.0
 42
0.069328537456546
 50
90.0
  0
SEQEND
  5
B8
  8
2
  0
POLYLINE
  5
B9
  8
2
 66
     1
 10
0.0
 20
0.0
 30
0.0
  0
VERTEX
  5
BA
  8
2
 10
197.18546630764601
 20
109.50250799360509
 30
0.0
 42
0.069328537456546
 50
90.0
  0
VERTEX
  5
BB
  8
2
 10
196.33178452518001
 20
109.38356729267289
 30
0.0
 42
0.0812854610938128
 50
90.0
  0
VERTEX
  5
BC
  8
2
 10
195.66518672809499
 20
109.0704904958552
 30
0.0
 42
0.106982991806602
 70
     2
 50
214.45193458185969
  0
VERTEX
  5
BD
  8
2
 10
195.1508671510403
 20
108.52537859916799
 30
0.0
 42
0.1590304208983313
 50
214.45193458185969
  0
VERTEX
  5
BE
  8
2
 10
195.0354663076487
 20
108.0275079936051
 30
0.0
 42
0.1366374709141713
 50
90.0
  0
SEQEND
  5
BF
  8
2
  0
LINE
  5
C0
  8
0
 10
195.035466307646
 20
166.55250799360499
 30
0.0
 11
191.53546630764609
 21
166.5525079936051
 31
0.0
  0
LINE
  5
C1
  8
0
 10
195.035466307646
 20
106.552507993605
 30
0.0
 11
191.53546630764609
 21
106.5525079936051
 31
0.0
  0
LINE
  5
C2
  8
2
 10
199.33546630764599
 20
163.602507993605
 30
0.0
 11
195.035466307646
 21
163.602507993605
 31
0.0
  0
LINE
  5
C3
  8
2
 10
199.33546630764599
 20
109.50250799360509
 30
0.0
 11
195.035466307646
 21
109.50250799360509
 31
0.0
  0
LINE
  5
C4
  8
0
 10
195.035466307646
 20
106.552507993605
 30
0.0
 11
195.035466307646
 21
166.5525079936051
 31
0.0
  0
LINE
  5
C5
  8
0
 10
199.33546630764599
 20
106.552507993605
 30
0.0
 11
199.33546630764599
 21
166.5525079936051
 31
0.0
  0
LINE
  5
C6
  8
0
 10
201.53546630764609
 20
166.5525079936051
 30
0.0
 11
199.3354663076461
 21
166.5525079936051
 31
0.0
  0
LINE
  5
C7
  8
0
 10
201.535466307646
 20
106.552507993605
 30
0.0
 11
199.3354663076461
 21
106.552507993605
 31
0.0
  0
LINE
  5
C8
  8
0
 10
202.535466307646
 20
107.552507993605
 30
0.0
 11
202.53546630764609
 21
165.5525079936051
 31
0.0
  0
LINE
  5
C9
  8
0
 10
186.035466307646
 20
166.3025079936051
 30
0.0
 11
188.285466307646
 21
168.5525079936051
 31
0.0
  0
LINE
  5
CA
  8
0
 10
186.03546630764609
 20
106.8025079936051
 30
0.0
 11
188.28546630764609
 21
104.5525079936051
 31
0.0
  0
LINE
  5
CB
  8
0
 10
188.285466307646
 20
104.5525079936052
 30
0.0
 11
188.285466307646
 21
168.5525079936051
 31
0.0
  0
LINE
  5
CC
  8
0
 10
186.035466307646
 20
106.8025079936052
 30
0.0
 11
186.035466307646
 21
166.3025079936051
 31
0.0
  0
LINE
  5
CD
  8
0
 10
191.535466307646
 20
104.5525079936051
 30
0.0
 11
191.535466307646
 21
168.5525079936051
 31
0.0
  0
LINE
  5
CE
  8
0
 10
188.285466307646
 20
168.5525079936051
 30
0.0
 11
191.535466307646
 21
168.5525079936051
 31
0.0
  0
LINE
  5
CF
  8
0
 10
188.28546630764609
 20
104.5525079936051
 30
0.0
 11
191.53546630764609
 21
104.5525079936051
 31
0.0
  0
CIRCLE
  5
D1
  8
0
 10
89.987204916758856
 20
136.55250799360499
 30
0.0
 40
23.0
  0
CIRCLE
  5
D2
  8
0
 10
89.987204916758856
 20
136.55250799360499
 30
0.0
 40
20.0
  0
CIRCLE
  5
240
  8
0
 10
89.987204916758856
 20
136.55250799360499
 30
0.0
 40
32.0
  0
CIRCLE
  5
244
  8
0
 10
89.987204916758856
 20
136.55250799360499
 30
0.0
 40
29.750000000000028
  0
CIRCLE
  5
245
  8
0
 10
301.52997070412891
 20
136.55250799360499
 30
0.0
 40
32.0
  0
TEXT
  5
300
  8
0
 62
     3
 10
0.0
 20
0.0
 30
0.0
 40
10.0
  1
LG-40N
  7
STANDARD1
  0
ENDSEC
  0
EOF
