  0
SECTION
  2
HEADER
  9
$ACADVER
  1
AC1009
  9
$INSBASE
 10
0.0
 20
0.0
 30
0.0
  9
$EXTMIN
 10
0.0
 20
-1.4802182810368341
 30
0.0
  9
$EXTMAX
 10
104.40000000000001
 20
65.100000000000009
 30
0.0
  9
$LIMMIN
 10
0.0
 20
0.0
  9
$LIMMAX
 10
187.5
 20
135.0
  9
$ORTHOMODE
 70
     0
  9
$REGENMODE
 70
     1
  9
$FILLMODE
 70
     1
  9
$QTEXTMODE
 70
     0
  9
$MIRRTEXT
 70
     0
  9
$DRAGMODE
 70
     2
  9
$LTSCALE
 40
2.0
  9
$OSMODE
 70
    37
  9
$ATTMODE
 70
     1
  9
$TEXTSIZE
 40
4.0
  9
$TRACEWID
 40
0.05
  9
$TEXTSTYLE
  7
STANDARD
  9
$CLAYER
  8
0
  9
$CELTYPE
  6
BYLAYER
  9
$CECOLOR
 62
   256
  9
$DIMSCALE
 40
0.5
  9
$DIMASZ
 40
3.0
  9
$DIMEXO
 40
2.0
  9
$DIMDLI
 40
0.38
  9
$DIMRND
 40
0.0
  9
$DIMDLE
 40
0.0
  9
$DIMEXE
 40
2.0
  9
$DIMTP
 40
0.0
  9
$DIMTM
 40
0.0
  9
$DIMTXT
 40
3.0
  9
$DIMCEN
 40
0.0
  9
$DIMTSZ
 40
0.0
  9
$DIMTOL
 70
     0
  9
$DIMLIM
 70
     0
  9
$DIMTIH
 70
     0
  9
$DIMTOH
 70
     0
  9
$DIMSE1
 70
     0
  9
$DIMSE2
 70
     0
  9
$DIMTAD
 70
     1
  9
$DIMZIN
 70
     8
  9
$DIMBLK
  1

  9
$DIMASO
 70
     0
  9
$DIMSHO
 70
     0
  9
$DIMPOST
  1

  9
$DIMAPOST
  1

  9
$DIMALT
 70
     0
  9
$DIMALTD
 70
     2
  9
$DIMALTF
 40
25.399999999999999
  9
$DIMLFAC
 40
1.0
  9
$DIMTOFL
 70
     1
  9
$DIMTVP
 40
1.6000000000000001
  9
$DIMTIX
 70
     1
  9
$DIMSOXD
 70
     0
  9
$DIMSAH
 70
     0
  9
$DIMBLK1
  1

  9
$DIMBLK2
  1

  9
$DIMSTYLE
  2
STANDARD
  9
$DIMCLRD
 70
   256
  9
$DIMCLRE
 70
   256
  9
$DIMCLRT
 70
   256
  9
$DIMTFAC
 40
1.0
  9
$DIMGAP
 40
1.0
  9
$LUNITS
 70
     2
  9
$LUPREC
 70
     1
  9
$SKETCHINC
 40
0.1
  9
$FILLETRAD
 40
1.0
  9
$AUNITS
 70
     0
  9
$AUPREC
 70
     0
  9
$MENU
  1
E:\r13\win\SUPPORT\ACAD
  9
$ELEVATION
 40
0.0
  9
$PELEVATION
 40
0.0
  9
$THICKNESS
 40
0.0
  9
$LIMCHECK
 70
     0
  9
$BLIPMODE
 70
     0
  9
$CHAMFERA
 40
0.0
  9
$CHAMFERB
 40
0.0
  9
$SKPOLY
 70
     0
  9
$TDCREATE
 40
2449840.6143865739
  9
$TDUPDATE
 40
2459255.646672037
  9
$TDINDWG
 40
1.1393382755000001
  9
$TDUSRTIMER
 40
1.1393382755000001
  9
$USRTIMER
 70
     1
  9
$ANGBASE
 50
0.0
  9
$ANGDIR
 70
     0
  9
$PDMODE
 70
     0
  9
$PDSIZE
 40
0.0
  9
$PLINEWID
 40
0.0
  9
$COORDS
 70
     1
  9
$SPLFRAME
 70
     0
  9
$SPLINETYPE
 70
     6
  9
$SPLINESEGS
 70
     8
  9
$ATTDIA
 70
     0
  9
$ATTREQ
 70
     1
  9
$HANDLING
 70
     1
  9
$HANDSEED
  5
4498
  9
$SURFTAB1
 70
     6
  9
$SURFTAB2
 70
     6
  9
$SURFTYPE
 70
     6
  9
$SURFU
 70
     6
  9
$SURFV
 70
     6
  9
$UCSNAME
  2

  9
$UCSORG
 10
0.0
 20
0.0
 30
0.0
  9
$UCSXDIR
 10
1.0
 20
0.0
 30
0.0
  9
$UCSYDIR
 10
0.0
 20
1.0
 30
0.0
  9
$PUCSNAME
  2

  9
$PUCSORG
 10
0.0
 20
0.0
 30
0.0
  9
$PUCSXDIR
 10
1.0
 20
0.0
 30
0.0
  9
$PUCSYDIR
 10
0.0
 20
1.0
 30
0.0
  9
$USERI1
 70
     0
  9
$USERI2
 70
     1
  9
$USERI3
 70
     1
  9
$USERI4
 70
     0
  9
$USERI5
 70
     0
  9
$USERR1
 40
0.0
  9
$USERR2
 40
0.0
  9
$USERR3
 40
0.0
  9
$USERR4
 40
0.0
  9
$USERR5
 40
0.0
  9
$WORLDVIEW
 70
     1
  9
$SHADEDGE
 70
     3
  9
$SHADEDIF
 70
    70
  9
$TILEMODE
 70
     1
  9
$MAXACTVP
 70
    16
  9
$PLIMCHECK
 70
     0
  9
$PEXTMIN
 10
1.0000000000000000E+020
 20
1.0000000000000000E+020
 30
1.0000000000000000E+020
  9
$PEXTMAX
 10
-1.0000000000000000E+020
 20
-1.0000000000000000E+020
 30
-1.0000000000000000E+020
  9
$PLIMMIN
 10
0.0
 20
0.0
  9
$PLIMMAX
 10
12.0
 20
9.0
  9
$UNITMODE
 70
     0
  9
$VISRETAIN
 70
     0
  9
$PLINEGEN
 70
     0
  9
$PSLTSCALE
 70
     0
  0
ENDSEC
  0
SECTION
  2
TABLES
  0
TABLE
  2
VPORT
 70
     1
  0
VPORT
  2
*ACTIVE
 70
     0
 10
0.0
 20
0.0
 11
1.0
 21
1.0
 12
195.14681892332791
 22
75.0
 13
0.0
 23
0.0
 14
5.0
 24
5.0
 15
5.0
 25
5.0
 16
0.0
 26
0.0
 36
1.0
 17
0.0
 27
0.0
 37
0.0
 40
150.0
 41
2.6019575856443709
 42
50.0
 43
0.0
 44
0.0
 50
0.0
 51
0.0
 71
     0
 72
   100
 73
     1
 74
     0
 75
     0
 76
     0
 77
     0
 78
     0
  0
ENDTAB
  0
TABLE
  2
LTYPE
 70
     4
  0
LTYPE
  2
CONTINUOUS
 70
     0
  3
Solid Line
 72
    65
 73
     0
 40
0.0
  0
LTYPE
  2
CENTER
 70
     0
  3
____ _ ____ _ ____ _ ____ _ ____ _ ____ _ ____
 72
    65
 73
     4
 40
2.0
 49
1.25
 49
-0.25
 49
0.25
 49
-0.25
  0
LTYPE
  2
HIDDEN
 70
     0
  3
_ _ _ _ _ _ _ _ _ _ _ _ _ _ _ _ _ _ _ _ _ _ _
 72
    65
 73
     2
 40
0.375
 49
0.25
 49
-0.125
  0
LTYPE
  2
PHANTOM2
 70
     0
  3
___ _ _ ___ _ _ ___ _ _ ___ _ _
 72
    65
 73
     6
 40
1.25
 49
0.625
 49
-0.125
 49
0.125
 49
-0.125
 49
0.125
 49
-0.125
  0
ENDTAB
  0
TABLE
  2
LAYER
 70
     5
  0
LAYER
  2
0
 70
     0
 62
     7
  6
CONTINUOUS
  0
LAYER
  2
1
 70
     0
 62
     1
  6
CENTER
  0
LAYER
  2
3
 70
     0
 62
     3
  6
CONTINUOUS
  0
LAYER
  2
2
 70
     0
 62
     2
  6
HIDDEN
  0
LAYER
  2
DEFPOINTS
 70
     0
 62
     7
  6
CONTINUOUS
  0
ENDTAB
  0
TABLE
  2
STYLE
 70
     2
  0
STYLE
  2
STANDARD
 70
     0
 40
0.0
 41
1.0
 50
0.0
 71
     0
 42
4.0
  3
TXT
  4
BIGFONT
  0
STYLE
  2
STANDARD1
 70
     0
 40
0.0
 41
1.0
 50
0.0
 71
     0
 42
3.0
  3
txt
  4

  0
ENDTAB
  0
TABLE
  2
VIEW
 70
     1
  0
VIEW
  2
ALL
 70
     0
 40
179.66152299999999
 10
141.903918
 20
89.830760999999995
 41
0.0
 11
0.0
 21
0.0
 31
1.0
 12
0.0
 22
0.0
 32
0.0
 42
0.0
 43
0.0
 44
0.0
 50
0.0
 71
     0
  0
ENDTAB
  0
TABLE
  2
UCS
 70
     0
  0
ENDTAB
  0
TABLE
  2
APPID
 70
     8
  0
APPID
  2
ACAD
 70
     0
  0
APPID
  2
DCO15
 70
     0
  0
APPID
  2
ACAD_MLEADERVER
 70
     0
  0
APPID
  2
ACAD_NAV_VCDISPLAY
 70
     0
  0
APPID
  2
ACAD_EXEMPT_FROM_CAD_STANDARDS
 70
     0
  0
APPID
  2
ACAD_DSTYLE_DIMRADIAL_EXTENSION
 70
     0
  0
APPID
  2
ACAD_DSTYLE_DIMJAG
 70
     0
  0
APPID
  2
ACAD_DSTYLE_DIMTALN
 70
     0
  0
ENDTAB
  0
TABLE
  2
DIMSTYLE
 70
     1
  0
DIMSTYLE
  2
STANDARD
 70
     0
  3

  4

  5

  6

  7

 40
1.0
 41
0.18
 42
0.0625
 43
0.38
 44
0.18
 45
0.0
 46
0.0
 47
0.0
 48
0.0
140
0.18
141
0.09
142
0.0
143
25.399999999999999
144
1.0
145
0.0
146
1.0
147
0.09
 71
     0
 72
     0
 73
     1
 74
     1
 75
     0
 76
     0
 77
     0
 78
     0
170
     0
171
     2
172
     0
173
     0
174
     0
175
     0
176
     0
177
     0
178
     0
  0
ENDTAB
  0
ENDSEC
  0
SECTION
  2
BLOCKS
  0
BLOCK
  8
0
  2
$MODEL_SPACE
 70
     0
 10
0.0
 20
0.0
 30
0.0
  3
$MODEL_SPACE
  1

  0
ENDBLK
  5
1BD
  8
0
  0
BLOCK
 67
     1
  8
0
  2
$PAPER_SPACE
 70
     0
 10
0.0
 20
0.0
 30
0.0
  3
$PAPER_SPACE
  1

  0
ENDBLK
  5
1BB
 67
     1
  8
0
  0
ENDSEC
  0
SECTION
  2
ENTITIES
  0
TEXT
  5
14AC
  8
0
 62
     3
 10
0.0
 20
0.0
 30
0.0
 40
5.0
  1
LHSSP10X17.9
  7
STANDARD1
  0
LINE
  5
40C5
  8
2
 10
61.0
 20
62.600000000000009
 30
0.0
 11
55.0
 21
62.600000000000009
 31
0.0
  0
LINE
  5
40C6
  8
2
 10
61.0
 20
57.600000000000009
 30
0.0
 11
55.0
 21
57.600000000000009
 31
0.0
  0
LINE
  5
40C7
  8
2
 10
61.0
 20
62.600000000000009
 30
0.0
 11
61.0
 21
57.600000000000009
 31
0.0
  0
LINE
  5
40C8
  8
2
 10
61.0
 20
60.100000000000009
 30
0.0
 11
55.0
 21
60.100000000000009
 31
0.0
  0
LINE
  5
40C9
  8
0
 10
70.400000000000006
 20
56.850000000000009
 30
0.0
 11
72.400000000000006
 21
56.850000000000009
 31
0.0
  0
LINE
  5
40CA
  8
0
 10
72.400000000000006
 20
63.350000000000001
 30
0.0
 11
70.400000000000006
 21
63.350000000000001
 31
0.0
  0
LINE
  5
40CB
  8
0
 10
72.900000000000006
 20
62.850000000000009
 30
0.0
 11
72.900000000000006
 21
57.350000000000009
 31
0.0
  0
LINE
  5
40CC
  8
0
 10
72.400000000000006
 20
63.350000000000001
 30
0.0
 11
72.400000000000006
 21
56.850000000000009
 31
0.0
  0
LINE
  5
40CD
  8
0
 10
72.900000000000006
 20
62.850000000000009
 30
0.0
 11
72.400000000000006
 21
63.350000000000001
 31
0.0
  0
LINE
  5
40CE
  8
0
 10
72.400000000000006
 20
56.850000000000009
 30
0.0
 11
72.900000000000006
 21
57.350000000000009
 31
0.0
  0
LINE
  5
40D4
  8
0
 10
69.400000000000006
 20
56.050000000000011
 30
0.0
 11
70.400000000000006
 21
56.050000000000011
 31
0.0
  0
LINE
  5
40D5
  8
0
 10
70.400000000000006
 20
64.150000000000006
 30
0.0
 11
69.400000000000006
 21
64.150000000000006
 31
0.0
  0
LINE
  5
40D6
  8
0
 10
70.400000000000006
 20
64.150000000000006
 30
0.0
 11
70.400000000000006
 21
56.050000000000011
 31
0.0
  0
POLYLINE
  5
40D7
  8
0
 66
     1
 10
0.0
 20
0.0
 30
0.0
  0
VERTEX
  5
448F
  8
0
 10
55.0
 20
60.100000000000009
 30
0.0
  0
VERTEX
  5
4490
  8
0
 10
55.009937663532043
 20
59.825000000000003
 30
0.0
  0
VERTEX
  5
4491
  8
0
 10
55.0395963329496
 20
59.550000000000011
 30
0.0
  0
SEQEND
  5
4492
  8
0
  0
LINE
  5
40D8
  8
0
 10
55.0
 20
63.899999999999999
 30
0.0
 11
55.0
 21
56.300000000000011
 31
0.0
  0
POLYLINE
  5
40D9
  8
0
 66
     1
 10
0.0
 20
0.0
 30
0.0
  0
VERTEX
  5
4493
  8
0
 10
55.0395963329496
 20
60.650000000000013
 30
0.0
  0
VERTEX
  5
4494
  8
0
 10
55.023816962164851
 20
60.526117542633102
 30
0.0
  0
VERTEX
  5
4495
  8
0
 10
55.006005097004191
 20
60.313716631130859
 30
0.0
  0
VERTEX
  5
4496
  8
0
 10
55.0
 20
60.100000000000009
 30
0.0
  0
SEQEND
  5
4497
  8
0
  0
LINE
  5
40DA
  8
0
 10
55.0
 20
56.300000000000011
 30
0.0
 11
56.199999999999989
 21
55.100000000000009
 31
0.0
  0
LINE
  5
40DB
  8
0
 10
56.199999999999989
 20
65.100000000000009
 30
0.0
 11
55.0
 21
63.899999999999999
 31
0.0
  0
LINE
  5
40DC
  8
0
 10
56.199999999999989
 20
59.550000000000011
 30
0.0
 11
56.199999999999989
 21
55.100000000000009
 31
0.0
  0
LINE
  5
40DD
  8
0
 10
56.199999999999989
 20
55.100000000000009
 30
0.0
 11
68.449999999999974
 21
55.100000000000009
 31
0.0
  0
LINE
  5
40DE
  8
0
 10
68.449999999999974
 20
65.100000000000009
 30
0.0
 11
56.199999999999989
 21
65.100000000000009
 31
0.0
  0
LINE
  5
40E0
  8
0
 10
56.199999999999989
 20
65.100000000000009
 30
0.0
 11
56.199999999999989
 21
60.650000000000013
 31
0.0
  0
LINE
  5
40E1
  8
0
 10
69.400000000000006
 20
59.550000000000011
 30
0.0
 11
69.400000000000006
 21
56.050000000000011
 31
0.0
  0
LINE
  5
40E2
  8
0
 10
68.449999999999974
 20
59.550000000000011
 30
0.0
 11
68.449999999999974
 21
55.100000000000009
 31
0.0
  0
LINE
  5
40E3
  8
0
 10
69.400000000000006
 20
64.150000000000006
 30
0.0
 11
68.449999999999974
 21
65.100000000000009
 31
0.0
  0
LINE
  5
40E4
  8
0
 10
68.449999999999974
 20
55.100000000000009
 30
0.0
 11
69.400000000000006
 21
56.050000000000011
 31
0.0
  0
LINE
  5
40E6
  8
0
 10
69.400000000000006
 20
64.150000000000006
 30
0.0
 11
69.400000000000006
 21
60.650000000000013
 31
0.0
  0
LINE
  5
40E8
  8
0
 10
68.449999999999974
 20
65.100000000000009
 30
0.0
 11
68.449999999999974
 21
60.650000000000013
 31
0.0
  0
LINE
  5
40E9
  8
0
 10
66.199999999999989
 20
59.550000000000011
 30
0.0
 11
66.199999999999989
 21
60.650000000000013
 31
0.0
  0
LINE
  5
40EA
  8
0
 10
70.400000000000006
 20
60.650000000000013
 30
0.0
 11
55.0395963329496
 21
60.650000000000013
 31
0.0
  0
LINE
  5
40EB
  8
0
 10
57.199999999999982
 20
59.550000000000011
 30
0.0
 11
57.199999999999982
 21
60.650000000000013
 31
0.0
  0
LINE
  5
40EC
  8
0
 10
70.400000000000006
 20
59.550000000000011
 30
0.0
 11
55.0395963329496
 21
59.550000000000011
 31
0.0
  0
LINE
  5
40ED
  8
3
 10
55.280000000000001
 20
56.02000000000001
 30
0.0
 11
69.370000000000033
 21
56.02000000000001
 31
0.0
  0
LINE
  5
40EF
  8
3
 10
55.280000000000001
 20
64.180000000000007
 30
0.0
 11
69.370000000000033
 21
64.180000000000007
 31
0.0
  0
LINE
  5
4110
  8
0
 10
27.5
 20
28.55662432702594
 30
0.0
 11
30.0
 21
27.11324865405188
 31
0.0
  0
LINE
  5
4111
  8
0
 10
32.5
 20
28.55662432702594
 30
0.0
 11
32.5
 21
31.443375672974071
 31
0.0
  0
LINE
  5
4112
  8
0
 10
30.0
 20
32.886751345948127
 30
0.0
 11
27.5
 21
31.443375672974071
 31
0.0
  0
LINE
  5
4113
  8
0
 10
30.0
 20
27.11324865405188
 30
0.0
 11
32.5
 21
28.55662432702594
 31
0.0
  0
LINE
  5
4114
  8
0
 10
27.5
 20
31.443375672974071
 30
0.0
 11
27.5
 21
28.55662432702594
 31
0.0
  0
LINE
  5
4115
  8
0
 10
32.5
 20
31.443375672974071
 30
0.0
 11
30.0
 21
32.886751345948127
 31
0.0
  0
LINE
  5
4116
  8
0
 10
29.449999999999989
 20
35.100000000000009
 30
0.0
 11
30.550000000000011
 21
35.100000000000009
 31
0.0
  0
ARC
  5
4117
  8
0
 10
30.0
 20
30.0
 30
0.0
 40
4.9999999999999991
 50
96.315315569358177
 51
83.684684430641838
  0
LINE
  5
4118
  8
0
 10
29.449999999999989
 20
33.799999999999997
 30
0.0
 11
29.449999999999989
 21
35.100000000000009
 31
0.0
  0
LINE
  5
411A
  8
0
 10
29.449999999999989
 20
33.799999999999997
 30
0.0
 11
30.550000000000011
 21
33.799999999999997
 31
0.0
  0
LINE
  5
411C
  8
0
 10
30.550000000000011
 20
33.799999999999997
 30
0.0
 11
30.550000000000011
 21
35.100000000000009
 31
0.0
  0
LINE
  5
4146
  8
0
 10
97.349999999999994
 20
35.100000000000009
 30
0.0
 11
98.450000000000017
 21
35.100000000000009
 31
0.0
  0
ARC
  5
4147
  8
0
 10
97.900000000000006
 20
30.0
 30
0.0
 40
4.9999999999999991
 50
96.315315569358177
 51
83.684684430641838
  0
LINE
  5
4148
  8
0
 10
97.349999999999994
 20
33.799999999999997
 30
0.0
 11
97.349999999999994
 21
35.100000000000009
 31
0.0
  0
LINE
  5
414A
  8
0
 10
97.349999999999994
 20
33.799999999999997
 30
0.0
 11
98.450000000000017
 21
33.799999999999997
 31
0.0
  0
ARC
  5
414B
  8
0
 10
97.900000000000006
 20
30.0
 30
0.0
 40
4.0500000000000007
 50
97.805025339406782
 51
82.194974660593203
  0
LINE
  5
414C
  8
0
 10
98.450000000000017
 20
33.799999999999997
 30
0.0
 11
98.450000000000017
 21
35.100000000000009
 31
0.0
  0
CIRCLE
  5
414E
  8
0
 10
97.900000000000006
 20
30.0
 30
0.0
 40
3.25
  0
LINE
  5
41E5
  8
2
 10
61.0
 20
27.11324865405188
 30
0.0
 11
55.0
 21
27.11324865405188
 31
0.0
  0
LINE
  5
41E6
  8
2
 10
61.0
 20
32.886751345948127
 30
0.0
 11
55.0
 21
32.886751345948127
 31
0.0
  0
LINE
  5
41EB
  8
0
 10
66.199999999999989
 20
34.969657935914711
 30
0.0
 11
66.199999999999989
 21
35.100000000000009
 31
0.0
  0
LINE
  5
41EC
  8
0
 10
66.199999999999989
 20
35.100000000000009
 30
0.0
 11
57.199999999999982
 21
35.100000000000009
 31
0.0
  0
LINE
  5
41ED
  8
0
 10
57.199999999999982
 20
35.100000000000009
 30
0.0
 11
57.199999999999982
 21
34.969657935914711
 31
0.0
  0
LINE
  5
41EE
  8
2
 10
61.0
 20
28.55662432702594
 30
0.0
 11
55.0
 21
28.55662432702594
 31
0.0
  0
LINE
  5
41EF
  8
2
 10
61.0
 20
32.886751345948127
 30
0.0
 11
61.0
 21
27.11324865405188
 31
0.0
  0
LINE
  5
41F0
  8
2
 10
61.0
 20
31.443375672974071
 30
0.0
 11
55.0
 21
31.443375672974071
 31
0.0
  0
LINE
  5
41F1
  8
0
 10
70.400000000000006
 20
26.750000000000011
 30
0.0
 11
72.400000000000006
 21
26.750000000000011
 31
0.0
  0
LINE
  5
41F2
  8
0
 10
72.400000000000006
 20
33.25
 30
0.0
 11
70.400000000000006
 21
33.25
 31
0.0
  0
LINE
  5
41F3
  8
0
 10
72.900000000000006
 20
32.75
 30
0.0
 11
72.400000000000006
 21
33.25
 31
0.0
  0
LINE
  5
41F4
  8
0
 10
72.400000000000006
 20
26.750000000000011
 30
0.0
 11
72.900000000000006
 21
27.25
 31
0.0
  0
LINE
  5
41F5
  8
0
 10
72.900000000000006
 20
32.75
 30
0.0
 11
72.900000000000006
 21
27.25
 31
0.0
  0
LINE
  5
41F6
  8
0
 10
72.400000000000006
 20
33.25
 30
0.0
 11
72.400000000000006
 21
26.750000000000011
 31
0.0
  0
LINE
  5
41FC
  8
0
 10
70.400000000000006
 20
34.01248052954778
 30
0.0
 11
70.400000000000006
 21
25.95000000000001
 31
0.0
  0
LINE
  5
41FD
  8
0
 10
70.400000000000006
 20
34.01248052954778
 30
0.0
 11
69.400000000000006
 21
34.01248052954778
 31
0.0
  0
LINE
  5
41FE
  8
0
 10
69.400000000000006
 20
25.95000000000001
 30
0.0
 11
70.400000000000006
 21
25.95000000000001
 31
0.0
  0
LINE
  5
41FF
  8
0
 10
56.199999999999989
 20
34.969657935914711
 30
0.0
 11
55.0395963329496
 21
33.800000000000011
 31
0.0
  0
LINE
  5
4200
  8
0
 10
55.0
 20
33.799999999999997
 30
0.0
 11
55.0395963329496
 21
33.800000000000011
 31
0.0
  0
LINE
  5
4201
  8
0
 10
55.0
 20
33.799999999999997
 30
0.0
 11
55.0
 21
26.20000000000001
 31
0.0
  0
LINE
  5
4202
  8
0
 10
55.0
 20
26.20000000000001
 30
0.0
 11
56.199999999999989
 21
25.0
 31
0.0
  0
LINE
  5
4203
  8
0
 10
69.400000000000006
 20
34.01248052954778
 30
0.0
 11
69.400000000000006
 21
25.95000000000001
 31
0.0
  0
LINE
  5
4204
  8
0
 10
69.400000000000006
 20
34.01248052954778
 30
0.0
 11
68.449999999999974
 21
34.969657935914711
 31
0.0
  0
LINE
  5
4205
  8
0
 10
68.449999999999974
 20
25.0
 30
0.0
 11
69.400000000000006
 21
25.95000000000001
 31
0.0
  0
LINE
  5
4206
  8
0
 10
68.449999999999974
 20
34.969657935914711
 30
0.0
 11
68.449999999999974
 21
25.0
 31
0.0
  0
LINE
  5
4207
  8
0
 10
68.449999999999974
 20
34.969657935914711
 30
0.0
 11
56.199999999999989
 21
34.969657935914711
 31
0.0
  0
LINE
  5
4208
  8
0
 10
56.199999999999989
 20
34.969657935914711
 30
0.0
 11
56.199999999999989
 21
25.0
 31
0.0
  0
LINE
  5
4209
  8
0
 10
56.199999999999989
 20
25.0
 30
0.0
 11
68.449999999999974
 21
25.0
 31
0.0
  0
LINE
  5
420A
  8
3
 10
55.317380988443801
 20
34.080000000000013
 30
0.0
 11
69.332986825114176
 21
34.079999999999998
 31
0.0
  0
LINE
  5
420C
  8
3
 10
55.280000000000001
 20
25.920000000000002
 30
0.0
 11
69.370000000000033
 21
25.920000000000009
 31
0.0
  0
LINE
  5
4335
  8
2
 10
62.443375672974042
 20
60.099999999999987
 30
0.0
 11
61.0
 21
57.600000000000009
 31
0.0
  0
LINE
  5
4336
  8
2
 10
61.0
 20
62.600000000000009
 30
0.0
 11
62.443375672974071
 21
60.100000000000023
 31
0.0
  0
LINE
  5
4337
  8
1
 10
53.5
 20
60.100000000000009
 30
0.0
 11
74.400000000000006
 21
60.100000000000009
 31
0.0
  0
LINE
  5
4366
  8
1
 10
53.5
 20
30.0
 30
0.0
 11
74.400000000000006
 21
30.0
 31
0.0
  0
LINE
  5
4369
  8
2
 10
62.443375672974042
 20
29.999999999999989
 30
0.0
 11
61.0
 21
27.5
 31
0.0
  0
LINE
  5
436A
  8
2
 10
61.0
 20
32.5
 30
0.0
 11
62.443375672974071
 21
30.000000000000021
 31
0.0
  0
CIRCLE
  5
43A5
  8
3
 10
30.0
 20
30.0
 30
0.0
 40
4.0799999999999983
  0
LINE
  5
43A7
  8
1
 10
30.0
 20
36.5
 30
0.0
 11
30.0
 21
23.5
 31
0.0
  0
LINE
  5
43A8
  8
1
 10
36.5
 20
30.0
 30
0.0
 11
23.5
 21
30.0
 31
0.0
  0
CIRCLE
  5
43AE
  8
3
 10
97.900000000000006
 20
30.0
 30
0.0
 40
4.0799999999999983
  0
LINE
  5
43B1
  8
1
 10
97.900000000000006
 20
36.5
 30
0.0
 11
97.900000000000006
 21
23.5
 31
0.0
  0
LINE
  5
43B2
  8
1
 10
104.40000000000001
 20
30.0
 30
0.0
 11
91.400000000000006
 21
30.0
 31
0.0
  0
ENDSEC
  0
EOF
