  0
SECTION
  2
HEADER
  9
$ACADVER
  1
AC1009
  9
$INSBASE
 10
0.0
 20
0.0
 30
0.0
  9
$EXTMIN
 10
0.0
 20
-2.960436562073669
 30
0.0
  9
$EXTMAX
 10
153.61930436118141
 20
124.28428748853
 30
0.0
  9
$LIMMIN
 10
0.0
 20
0.0
  9
$LIMMAX
 10
375.0
 20
270.0
  9
$ORTHOMODE
 70
     1
  9
$REGENMODE
 70
     1
  9
$FILLMODE
 70
     1
  9
$QTEXTMODE
 70
     0
  9
$MIRRTEXT
 70
     0
  9
$DRAGMODE
 70
     2
  9
$LTSCALE
 40
10.0
  9
$OSMODE
 70
  3071
  9
$ATTMODE
 70
     1
  9
$TEXTSIZE
 40
0.2
  9
$TRACEWID
 40
0.05
  9
$TEXTSTYLE
  7
STANDARD
  9
$CLAYER
  8
0
  9
$CELTYPE
  6
BYLAYER
  9
$CECOLOR
 62
   256
  9
$DIMSCALE
 40
1.0
  9
$DIMASZ
 40
3.0
  9
$DIMEXO
 40
2.0
  9
$DIMDLI
 40
10.0
  9
$DIMRND
 40
0.0
  9
$DIMDLE
 40
0.0
  9
$DIMEXE
 40
2.0
  9
$DIMTP
 40
0.0
  9
$DIMTM
 40
0.0
  9
$DIMTXT
 40
3.2000000000000002
  9
$DIMCEN
 40
0.09
  9
$DIMTSZ
 40
0.0
  9
$DIMTOL
 70
     0
  9
$DIMLIM
 70
     0
  9
$DIMTIH
 70
     0
  9
$DIMTOH
 70
     0
  9
$DIMSE1
 70
     0
  9
$DIMSE2
 70
     0
  9
$DIMTAD
 70
     1
  9
$DIMZIN
 70
     8
  9
$DIMBLK
  1

  9
$DIMASO
 70
     0
  9
$DIMSHO
 70
     0
  9
$DIMPOST
  1

  9
$DIMAPOST
  1

  9
$DIMALT
 70
     0
  9
$DIMALTD
 70
     2
  9
$DIMALTF
 40
25.399999999999999
  9
$DIMLFAC
 40
1.0
  9
$DIMTOFL
 70
     1
  9
$DIMTVP
 40
1.6000000000000001
  9
$DIMTIX
 70
     0
  9
$DIMSOXD
 70
     0
  9
$DIMSAH
 70
     0
  9
$DIMBLK1
  1

  9
$DIMBLK2
  1

  9
$DIMSTYLE
  2
STANDARD
  9
$DIMCLRD
 70
   256
  9
$DIMCLRE
 70
     0
  9
$DIMCLRT
 70
     0
  9
$DIMTFAC
 40
1.0
  9
$DIMGAP
 40
0.09
  9
$LUNITS
 70
     2
  9
$LUPREC
 70
     4
  9
$SKETCHINC
 40
0.1
  9
$FILLETRAD
 40
0.0
  9
$AUNITS
 70
     0
  9
$AUPREC
 70
     0
  9
$MENU
  1
E:\r13\win\SUPPORT\ACAD
  9
$ELEVATION
 40
0.0
  9
$PELEVATION
 40
0.0
  9
$THICKNESS
 40
0.0
  9
$LIMCHECK
 70
     0
  9
$BLIPMODE
 70
     0
  9
$CHAMFERA
 40
0.0
  9
$CHAMFERB
 40
0.0
  9
$SKPOLY
 70
     0
  9
$TDCREATE
 40
2449840.6171180559
  9
$TDUPDATE
 40
2456597.5788423149
  9
$TDINDWG
 40
0.2134201042
  9
$TDUSRTIMER
 40
0.2134201042
  9
$USRTIMER
 70
     1
  9
$ANGBASE
 50
0.0
  9
$ANGDIR
 70
     0
  9
$PDMODE
 70
     0
  9
$PDSIZE
 40
0.0
  9
$PLINEWID
 40
0.0
  9
$COORDS
 70
     1
  9
$SPLFRAME
 70
     0
  9
$SPLINETYPE
 70
     6
  9
$SPLINESEGS
 70
     8
  9
$ATTDIA
 70
     0
  9
$ATTREQ
 70
     1
  9
$HANDLING
 70
     1
  9
$HANDSEED
  5
3105
  9
$SURFTAB1
 70
     6
  9
$SURFTAB2
 70
     6
  9
$SURFTYPE
 70
     6
  9
$SURFU
 70
     6
  9
$SURFV
 70
     6
  9
$UCSNAME
  2

  9
$UCSORG
 10
0.0
 20
0.0
 30
0.0
  9
$UCSXDIR
 10
1.0
 20
0.0
 30
0.0
  9
$UCSYDIR
 10
0.0
 20
1.0
 30
0.0
  9
$PUCSNAME
  2

  9
$PUCSORG
 10
0.0
 20
0.0
 30
0.0
  9
$PUCSXDIR
 10
1.0
 20
0.0
 30
0.0
  9
$PUCSYDIR
 10
0.0
 20
1.0
 30
0.0
  9
$USERI1
 70
     0
  9
$USERI2
 70
     1
  9
$USERI3
 70
     0
  9
$USERI4
 70
     0
  9
$USERI5
 70
     0
  9
$USERR1
 40
0.0
  9
$USERR2
 40
0.0
  9
$USERR3
 40
0.0
  9
$USERR4
 40
0.0
  9
$USERR5
 40
0.0
  9
$WORLDVIEW
 70
     1
  9
$SHADEDGE
 70
     3
  9
$SHADEDIF
 70
    70
  9
$TILEMODE
 70
     1
  9
$MAXACTVP
 70
    16
  9
$PLIMCHECK
 70
     0
  9
$PEXTMIN
 10
1.0000000000000000E+020
 20
1.0000000000000000E+020
 30
1.0000000000000000E+020
  9
$PEXTMAX
 10
-1.0000000000000000E+020
 20
-1.0000000000000000E+020
 30
-1.0000000000000000E+020
  9
$PLIMMIN
 10
0.0
 20
0.0
  9
$PLIMMAX
 10
12.0
 20
9.0
  9
$UNITMODE
 70
     0
  9
$VISRETAIN
 70
     0
  9
$PLINEGEN
 70
     0
  9
$PSLTSCALE
 70
     0
  0
ENDSEC
  0
SECTION
  2
TABLES
  0
TABLE
  2
VPORT
 70
     1
  0
VPORT
  2
*ACTIVE
 70
     0
 10
0.0
 20
0.0
 11
1.0
 21
1.0
 12
187.49427839065231
 22
162.8616388594717
 13
0.0
 23
0.0
 14
10.0
 24
10.0
 15
10.0
 25
10.0
 16
0.0
 26
0.0
 36
1.0
 17
0.0
 27
0.0
 37
0.0
 40
334.81001162774987
 41
1.9089595375722539
 42
50.0
 43
0.0
 44
0.0
 50
0.0
 51
0.0
 71
     0
 72
   100
 73
     1
 74
     0
 75
     0
 76
     0
 77
     0
 78
     0
  0
ENDTAB
  0
TABLE
  2
LTYPE
 70
     4
  0
LTYPE
  2
CONTINUOUS
 70
     0
  3
Solid Line
 72
    65
 73
     0
 40
0.0
  0
LTYPE
  2
CENTER
 70
     0
  3
____ _ ____ _ ____ _ ____ _ ____ _ ____ _ ____
 72
    65
 73
     4
 40
2.0
 49
1.25
 49
-0.25
 49
0.25
 49
-0.25
  0
LTYPE
  2
HIDDEN
 70
     0
  3
_ _ _ _ _ _ _ _ _ _ _ _ _ _ _ _ _ _ _ _ _ _ _
 72
    65
 73
     2
 40
0.375
 49
0.25
 49
-0.125
  0
LTYPE
  2
PHANTOM2
 70
     0
  3
___ _ _ ___ _ _ ___ _ _ ___ _ _
 72
    65
 73
     6
 40
1.25
 49
0.625
 49
-0.125
 49
0.125
 49
-0.125
 49
0.125
 49
-0.125
  0
ENDTAB
  0
TABLE
  2
LAYER
 70
     3
  0
LAYER
  2
0
 70
     0
 62
     7
  6
CONTINUOUS
  0
LAYER
  2
1
 70
     0
 62
     1
  6
CENTER
  0
LAYER
  2
2
 70
     0
 62
     2
  6
HIDDEN
  0
ENDTAB
  0
TABLE
  2
STYLE
 70
     2
  0
STYLE
  2
STANDARD
 70
     0
 40
0.0
 41
1.0
 50
0.0
 71
     0
 42
0.2
  3
TXT
  4
BIGFONT
  0
STYLE
  2
STANDARD1
 70
     0
 40
0.0
 41
1.0
 50
0.0
 71
     0
 42
3.0
  3
txt
  4

  0
ENDTAB
  0
TABLE
  2
VIEW
 70
     1
  0
VIEW
  2
ALL
 70
     0
 40
270.0
 10
220.99159700000001
 20
135.0
 41
0.0
 11
0.0
 21
0.0
 31
1.0
 12
0.0
 22
0.0
 32
0.0
 42
0.0
 43
0.0
 44
0.0
 50
0.0
 71
     0
  0
ENDTAB
  0
TABLE
  2
UCS
 70
     0
  0
ENDTAB
  0
TABLE
  2
APPID
 70
     3
  0
APPID
  2
ACAD
 70
     0
  0
APPID
  2
ACAD_MLEADERVER
 70
     0
  0
APPID
  2
ACAD_NAV_VCDISPLAY
 70
     0
  0
ENDTAB
  0
TABLE
  2
DIMSTYLE
 70
     1
  0
DIMSTYLE
  2
STANDARD
 70
     0
  3

  4

  5

  6

  7

 40
1.0
 41
0.18
 42
0.0625
 43
0.38
 44
0.18
 45
0.0
 46
0.0
 47
0.0
 48
0.0
140
0.18
141
0.09
142
0.0
143
25.399999999999999
144
1.0
145
0.0
146
1.0
147
0.09
 71
     0
 72
     0
 73
     1
 74
     1
 75
     0
 76
     0
 77
     0
 78
     0
170
     0
171
     2
172
     0
173
     0
174
     0
175
     0
176
     0
177
     0
178
     0
  0
ENDTAB
  0
ENDSEC
  0
SECTION
  2
BLOCKS
  0
BLOCK
  8
0
  2
$MODEL_SPACE
 70
     0
 10
0.0
 20
0.0
 30
0.0
  3
$MODEL_SPACE
  1

  0
ENDBLK
  5
E8
  8
0
  0
BLOCK
 67
     1
  8
0
  2
$PAPER_SPACE
 70
     0
 10
0.0
 20
0.0
 30
0.0
  3
$PAPER_SPACE
  1

  0
ENDBLK
  5
E6
 67
     1
  8
0
  0
ENDSEC
  0
SECTION
  2
ENTITIES
  0
LINE
  5
16A8
  8
1
 10
38.245537240854283
 20
110.6519294715122
 30
0.0
 11
95.654722035144218
 21
110.6519294715122
 31
0.0
  0
LINE
  5
16A9
  8
1
 10
66.950129637999254
 20
124.28428748853
 30
0.0
 11
66.950129637999254
 21
97.019571454494496
 31
0.0
  0
ARC
  5
16AF
  8
0
 10
84.708621748861617
 20
110.6478926500566
 30
0.0
 40
6.2442697856262832
 50
44.867369965330838
 51
77.275388533390313
  0
LINE
  5
16B1
  8
0
 10
74.876404290998764
 20
119.2685091757662
 30
0.0
 11
86.084017244519174
 21
116.73880328691629
 31
0.0
  0
ARC
  5
16B2
  8
0
 10
66.950129637999225
 20
84.151929471511863
 30
0.0
 40
36.000000000000398
 50
77.280729565331058
 51
102.7192704346689
  0
LINE
  5
16B3
  8
0
 10
47.816242031479327
 20
116.73880328691629
 30
0.0
 11
59.023854984999758
 21
119.2685091757662
 31
0.0
  0
LINE
  5
1ACB
  8
0
 10
153.61930436118141
 20
48.004833345431479
 30
0.0
 11
134.61930436118141
 21
48.004833345431479
 31
0.0
  0
LINE
  5
1AD4
  8
1
 10
144.11930436118141
 20
41.70078433742804
 30
0.0
 11
144.11930436118141
 21
72.735254897937295
 31
0.0
  0
LINE
  5
236C
  8
1
 10
66.950129637999268
 20
41.70078433742804
 30
0.0
 11
66.950129637999254
 21
72.008819193204772
 31
0.0
  0
ARC
  5
23DF
  8
0
 10
66.95012963799914
 20
137.1519294715126
 30
0.0
 40
36.000000000000398
 50
257.28072956533128
 51
282.71927043466923
  0
LINE
  5
23E0
  8
0
 10
47.816242031479362
 20
104.5650556561081
 30
0.0
 11
59.02385498499978
 21
102.0353497672582
 31
0.0
  0
LINE
  5
23E1
  8
0
 10
74.876404290998806
 20
102.0353497672582
 30
0.0
 11
86.084017244519217
 21
104.5650556561082
 31
0.0
  0
ARC
  5
2906
  8
0
 10
84.708571587507876
 20
110.6517878104781
 30
0.0
 40
6.2415580520989993
 50
315.15829700176272
 51
44.841702998237231
  0
ARC
  5
2907
  8
0
 10
84.708621499499003
 20
110.655682974103
 30
0.0
 40
6.2442697856262832
 50
282.72827945926758
 51
315.13629802732697
  0
ARC
  5
2908
  8
0
 10
49.191687688490703
 20
110.6517878104781
 30
0.0
 40
6.2415580520989993
 50
135.15829700176289
 51
224.84170299823751
  0
ARC
  5
2909
  8
0
 10
49.191637776499547
 20
110.655682974103
 30
0.0
 40
6.2442697856262832
 50
224.86370197267331
 51
257.2717205407327
  0
ARC
  5
290A
  8
0
 10
49.191637527136933
 20
110.64789265005651
 30
0.0
 40
6.2442697856262832
 50
102.7246114666098
 51
135.13263003466929
  0
ARC
  5
290D
  8
0
 10
66.950129637401346
 20
18.715557008538251
 30
0.0
 40
47.889276336893253
 50
63.782903829344647
 51
116.2170961706554
  0
ARC
  5
2910
  8
0
 10
85.756045416170508
 20
57.505164459727951
 30
0.0
 40
4.7894649078379059
 50
5.7934453092830056
 51
60.611889687004748
  0
LINE
  5
2911
  8
0
 10
90.521046998101667
 20
57.988624931332879
 30
0.0
 11
90.950129637999268
 21
48.004833345431479
 31
0.0
  0
LINE
  5
2916
  8
0
 10
43.380436597570551
 20
57.980812030412118
 30
0.0
 11
42.950129637999297
 21
48.004833345431479
 31
0.0
  0
ARC
  5
2917
  8
0
 10
48.172086529949951
 20
57.489561922169209
 30
0.0
 40
4.8167661084300217
 50
119.5859182795611
 51
174.1463668215363
  0
LINE
  5
2982
  8
0
 10
42.950129637999297
 20
48.004833345431479
 30
0.0
 11
90.950129637999268
 21
48.004833345431479
 31
0.0
  0
LINE
  5
2C11
  8
0
 10
60.796283484153093
 20
47.604833345431501
 30
0.0
 11
73.103975791845428
 21
47.604833345431501
 31
0.0
  0
LINE
  5
2C15
  8
2
 10
70.950129637999254
 20
47.604833345431501
 30
0.0
 11
70.27362963799925
 21
48.281333345431477
 31
0.0
  0
LINE
  5
2C16
  8
2
 10
63.626629637999237
 20
48.281333345431477
 30
0.0
 11
70.27362963799925
 21
48.281333345431477
 31
0.0
  0
LINE
  5
2C17
  8
2
 10
63.626629637999237
 20
48.281333345431477
 30
0.0
 11
62.950129637999261
 21
47.604833345431501
 31
0.0
  0
LINE
  5
2C18
  8
2
 10
63.626629637999237
 20
58.604833345431501
 30
0.0
 11
62.950129637999261
 21
57.604833345431501
 31
0.0
  0
LINE
  5
2C19
  8
2
 10
62.950129637999261
 20
47.604833345431501
 30
0.0
 11
62.950129637999261
 21
57.604833345431501
 31
0.0
  0
LINE
  5
2C1A
  8
2
 10
66.950129637999268
 20
62.1236569650832
 30
0.0
 11
63.626629637999237
 21
60.204833345431467
 31
0.0
  0
LINE
  5
2C1B
  8
2
 10
63.626629637999237
 20
60.204833345431467
 30
0.0
 11
63.626629637999237
 21
48.281333345431477
 31
0.0
  0
LINE
  5
2C1C
  8
2
 10
70.27362963799925
 20
58.604833345431501
 30
0.0
 11
70.950129637999254
 21
57.604833345431501
 31
0.0
  0
LINE
  5
2C1D
  8
2
 10
70.950129637999254
 20
47.604833345431501
 30
0.0
 11
70.950129637999254
 21
57.604833345431501
 31
0.0
  0
LINE
  5
2C1E
  8
2
 10
62.950129637999261
 20
57.604833345431501
 30
0.0
 11
70.950129637999254
 21
57.604833345431501
 31
0.0
  0
LINE
  5
2C1F
  8
2
 10
63.626629637999237
 20
60.204833345431467
 30
0.0
 11
70.27362963799925
 21
60.204833345431467
 31
0.0
  0
LINE
  5
2C20
  8
2
 10
70.27362963799925
 20
60.204833345431467
 30
0.0
 11
66.950129637999268
 21
62.1236569650832
 31
0.0
  0
LINE
  5
2C21
  8
2
 10
70.27362963799925
 20
48.281333345431477
 30
0.0
 11
70.27362963799925
 21
60.204833345431467
 31
0.0
  0
LINE
  5
2C22
  8
2
 10
73.103975791845428
 20
48.004833345431507
 30
0.0
 11
73.103975791845443
 21
63.604833345431537
 31
0.0
  0
LINE
  5
2C26
  8
2
 10
60.796283484153072
 20
63.604833345431537
 30
0.0
 11
73.103975791845428
 21
63.60483334543153
 31
0.0
  0
LINE
  5
2CFE
  8
2
 10
54.150129637999271
 20
48.004833345431479
 30
0.0
 11
54.150129637999271
 21
60.271500012098159
 31
0.0
  0
LINE
  5
2CFF
  8
2
 10
47.75012963799923
 20
60.271500012098159
 30
0.0
 11
54.150129637999271
 21
60.271500012098159
 31
0.0
  0
LINE
  5
2D00
  8
2
 10
47.75012963799923
 20
60.271500012098159
 30
0.0
 11
47.75012963799923
 21
48.004833345431479
 31
0.0
  0
LINE
  5
2D02
  8
2
 10
86.150129637999356
 20
60.271500012098258
 30
0.0
 11
86.150129637999413
 21
48.004833345431592
 31
0.0
  0
LINE
  5
2D03
  8
2
 10
86.150129637999356
 20
60.271500012098258
 30
0.0
 11
79.750129637999294
 21
60.27150001209823
 31
0.0
  0
LINE
  5
2D04
  8
2
 10
79.750129637999379
 20
48.00483334543155
 30
0.0
 11
79.750129637999322
 21
60.27150001209823
 31
0.0
  0
ARC
  5
2F19
  8
0
 10
137.61931604622839
 20
63.604822748221238
 30
0.0
 40
3.0000136485678461
 50
89.910473145348064
 51
180.07046813481131
  0
LINE
  5
2F1A
  8
0
 10
150.6146050415804
 20
66.604832734483892
 30
0.0
 11
137.62402975781461
 21
66.604832734483892
 31
0.0
  0
LINE
  5
2F1B
  8
0
 10
134.61930466665521
 20
63.601101364511663
 30
0.0
 11
134.61930466665521
 21
48.004833335326651
 31
0.0
  0
ARC
  5
2F1C
  8
0
 10
150.61929267613439
 20
63.604822748221238
 30
0.0
 40
3.0000136485678461
 50
359.92953186518872
 51
90.089526854651936
  0
LINE
  5
2F1D
  8
0
 10
153.6193040557076
 20
48.004833335326651
 30
0.0
 11
153.6193040557076
 21
63.6011330294792
 31
0.0
  0
LINE
  5
2FAC
  8
0
 10
73.103975791845428
 20
47.604833345431501
 30
0.0
 11
73.103975791845428
 21
48.004833345431507
 31
0.0
  0
LINE
  5
2FAD
  8
0
 10
60.796283484153093
 20
47.604833345431501
 30
0.0
 11
60.796283484153093
 21
48.004833345431507
 31
0.0
  0
LINE
  5
2FAE
  8
2
 10
60.796283484153093
 20
48.004833345431507
 30
0.0
 11
60.796283484153079
 21
63.604833345431537
 31
0.0
  0
LINE
  5
2FB1
  8
2
 10
137.96545820733519
 20
48.004833345431507
 30
0.0
 11
137.96545820733519
 21
63.604833345431537
 31
0.0
  0
LINE
  5
2FB2
  8
0
 10
137.96545820733519
 20
47.604833345431501
 30
0.0
 11
137.96545820733519
 21
48.004833345431507
 31
0.0
  0
LINE
  5
2FB3
  8
0
 10
150.27315051502751
 20
47.604833345431501
 30
0.0
 11
150.27315051502751
 21
48.004833345431507
 31
0.0
  0
LINE
  5
2FB4
  8
2
 10
137.96545820733519
 20
63.604833345431537
 30
0.0
 11
150.27315051502751
 21
63.60483334543153
 31
0.0
  0
LINE
  5
2FB5
  8
2
 10
150.27315051502751
 20
48.004833345431507
 30
0.0
 11
150.27315051502751
 21
63.604833345431537
 31
0.0
  0
LINE
  5
2FB6
  8
2
 10
147.4428043611814
 20
48.281333345431477
 30
0.0
 11
147.4428043611814
 21
60.204833345431467
 31
0.0
  0
LINE
  5
2FB7
  8
2
 10
147.4428043611814
 20
60.204833345431467
 30
0.0
 11
144.11930436118141
 21
62.1236569650832
 31
0.0
  0
LINE
  5
2FB8
  8
2
 10
140.7958043611813
 20
60.204833345431467
 30
0.0
 11
147.4428043611814
 21
60.204833345431467
 31
0.0
  0
LINE
  5
2FB9
  8
2
 10
140.11930436118141
 20
57.604833345431501
 30
0.0
 11
148.11930436118129
 21
57.604833345431501
 31
0.0
  0
LINE
  5
2FBA
  8
2
 10
148.11930436118129
 20
47.604833345431501
 30
0.0
 11
148.11930436118129
 21
57.604833345431501
 31
0.0
  0
LINE
  5
2FBB
  8
2
 10
147.4428043611814
 20
58.604833345431501
 30
0.0
 11
148.11930436118129
 21
57.604833345431501
 31
0.0
  0
LINE
  5
2FBC
  8
2
 10
140.7958043611813
 20
60.204833345431467
 30
0.0
 11
140.7958043611813
 21
48.281333345431477
 31
0.0
  0
LINE
  5
2FBD
  8
2
 10
144.11930436118141
 20
62.1236569650832
 30
0.0
 11
140.7958043611813
 21
60.204833345431467
 31
0.0
  0
LINE
  5
2FBE
  8
2
 10
140.11930436118141
 20
47.604833345431501
 30
0.0
 11
140.11930436118141
 21
57.604833345431501
 31
0.0
  0
LINE
  5
2FBF
  8
2
 10
140.7958043611813
 20
58.604833345431501
 30
0.0
 11
140.11930436118141
 21
57.604833345431501
 31
0.0
  0
LINE
  5
2FC0
  8
2
 10
140.7958043611813
 20
48.281333345431477
 30
0.0
 11
140.11930436118141
 21
47.604833345431501
 31
0.0
  0
LINE
  5
2FC1
  8
2
 10
140.7958043611813
 20
48.281333345431477
 30
0.0
 11
147.4428043611814
 21
48.281333345431477
 31
0.0
  0
LINE
  5
2FC2
  8
2
 10
148.11930436118129
 20
47.604833345431501
 30
0.0
 11
147.4428043611814
 21
48.281333345431477
 31
0.0
  0
LINE
  5
2FC3
  8
0
 10
137.96545820733519
 20
47.604833345431501
 30
0.0
 11
150.27315051502751
 21
47.604833345431501
 31
0.0
  0
TEXT
  5
3074
  8
0
 62
     3
 10
0.0
 20
0.0
 30
0.0
 40
10.0
  1
LK8C
  7
STANDARD1
  0
ENDSEC
  0
EOF
