  0
SECTION
  2
HEADER
  9
$ACADVER
  1
AC1009
  9
$INSBASE
 10
0.0
 20
0.0
 30
0.0
  9
$EXTMIN
 10
0.0
 20
-2.960436562073669
 30
0.0
  9
$EXTMAX
 10
108.69713506139151
 20
144.07499095802319
 30
0.0
  9
$LIMMIN
 10
0.0
 20
0.0
  9
$LIMMAX
 10
375.0
 20
270.0
  9
$ORTHOMODE
 70
     1
  9
$REGENMODE
 70
     1
  9
$FILLMODE
 70
     1
  9
$QTEXTMODE
 70
     0
  9
$MIRRTEXT
 70
     0
  9
$DRAGMODE
 70
     2
  9
$LTSCALE
 40
6.0
  9
$OSMODE
 70
  3071
  9
$ATTMODE
 70
     1
  9
$TEXTSIZE
 40
0.2
  9
$TRACEWID
 40
0.05
  9
$TEXTSTYLE
  7
STANDARD
  9
$CLAYER
  8
0
  9
$CELTYPE
  6
BYLAYER
  9
$CECOLOR
 62
   256
  9
$DIMSCALE
 40
1.0
  9
$DIMASZ
 40
3.0
  9
$DIMEXO
 40
1.0
  9
$DIMDLI
 40
6.0
  9
$DIMRND
 40
0.0
  9
$DIMDLE
 40
0.0
  9
$DIMEXE
 40
1.0
  9
$DIMTP
 40
495.0
  9
$DIMTM
 40
0.0
  9
$DIMTXT
 40
3.0
  9
$DIMCEN
 40
0.0
  9
$DIMTSZ
 40
0.0
  9
$DIMTOL
 70
     0
  9
$DIMLIM
 70
     0
  9
$DIMTIH
 70
     0
  9
$DIMTOH
 70
     0
  9
$DIMSE1
 70
     0
  9
$DIMSE2
 70
     0
  9
$DIMTAD
 70
     1
  9
$DIMZIN
 70
     0
  9
$DIMBLK
  1

  9
$DIMASO
 70
     0
  9
$DIMSHO
 70
     0
  9
$DIMPOST
  1

  9
$DIMAPOST
  1

  9
$DIMALT
 70
     0
  9
$DIMALTD
 70
     2
  9
$DIMALTF
 40
25.399999999999999
  9
$DIMLFAC
 40
1.0
  9
$DIMTOFL
 70
     1
  9
$DIMTVP
 40
0.0
  9
$DIMTIX
 70
     1
  9
$DIMSOXD
 70
     0
  9
$DIMSAH
 70
     0
  9
$DIMBLK1
  1

  9
$DIMBLK2
  1

  9
$DIMSTYLE
  2
STANDARD
  9
$DIMCLRD
 70
     0
  9
$DIMCLRE
 70
     0
  9
$DIMCLRT
 70
     4
  9
$DIMTFAC
 40
1.0
  9
$DIMGAP
 40
1.0
  9
$LUNITS
 70
     2
  9
$LUPREC
 70
     4
  9
$SKETCHINC
 40
0.1
  9
$FILLETRAD
 40
2.0
  9
$AUNITS
 70
     0
  9
$AUPREC
 70
     0
  9
$MENU
  1
C:\R13\WIN\SUPPORT\ACAD-I
  9
$ELEVATION
 40
0.0
  9
$PELEVATION
 40
0.0
  9
$THICKNESS
 40
0.0
  9
$LIMCHECK
 70
     0
  9
$BLIPMODE
 70
     0
  9
$CHAMFERA
 40
0.0
  9
$CHAMFERB
 40
0.0
  9
$SKPOLY
 70
     0
  9
$TDCREATE
 40
2451963.5886705788
  9
$TDUPDATE
 40
2456602.6113359611
  9
$TDINDWG
 40
0.0322820139
  9
$TDUSRTIMER
 40
2456598.4439705671
  9
$USRTIMER
 70
     1
  9
$ANGBASE
 50
0.0
  9
$ANGDIR
 70
     0
  9
$PDMODE
 70
     0
  9
$PDSIZE
 40
0.0
  9
$PLINEWID
 40
0.0
  9
$COORDS
 70
     1
  9
$SPLFRAME
 70
     0
  9
$SPLINETYPE
 70
     6
  9
$SPLINESEGS
 70
     8
  9
$ATTDIA
 70
     0
  9
$ATTREQ
 70
     1
  9
$HANDLING
 70
     1
  9
$HANDSEED
  5
E8C8
  9
$SURFTAB1
 70
     6
  9
$SURFTAB2
 70
     6
  9
$SURFTYPE
 70
     6
  9
$SURFU
 70
     6
  9
$SURFV
 70
     6
  9
$UCSNAME
  2

  9
$UCSORG
 10
0.0
 20
0.0
 30
0.0
  9
$UCSXDIR
 10
1.0
 20
0.0
 30
0.0
  9
$UCSYDIR
 10
0.0
 20
1.0
 30
0.0
  9
$PUCSNAME
  2

  9
$PUCSORG
 10
0.0
 20
0.0
 30
0.0
  9
$PUCSXDIR
 10
1.0
 20
0.0
 30
0.0
  9
$PUCSYDIR
 10
0.0
 20
1.0
 30
0.0
  9
$USERI1
 70
     4
  9
$USERI2
 70
     1
  9
$USERI3
 70
     0
  9
$USERI4
 70
     0
  9
$USERI5
 70
     0
  9
$USERR1
 40
1.0
  9
$USERR2
 40
3.0
  9
$USERR3
 40
3.0
  9
$USERR4
 40
3.0
  9
$USERR5
 40
10.0
  9
$WORLDVIEW
 70
     1
  9
$SHADEDGE
 70
     3
  9
$SHADEDIF
 70
    70
  9
$TILEMODE
 70
     1
  9
$MAXACTVP
 70
    16
  9
$PLIMCHECK
 70
     0
  9
$PEXTMIN
 10
1.0000000000000000E+020
 20
1.0000000000000000E+020
 30
1.0000000000000000E+020
  9
$PEXTMAX
 10
-1.0000000000000000E+020
 20
-1.0000000000000000E+020
 30
-1.0000000000000000E+020
  9
$PLIMMIN
 10
0.0
 20
0.0
  9
$PLIMMAX
 10
12.0
 20
9.0
  9
$UNITMODE
 70
     0
  9
$VISRETAIN
 70
     0
  9
$PLINEGEN
 70
     0
  9
$PSLTSCALE
 70
     0
  0
ENDSEC
  0
SECTION
  2
TABLES
  0
TABLE
  2
VPORT
 70
     1
  0
VPORT
  2
*ACTIVE
 70
     0
 10
0.0
 20
0.0
 11
1.0
 21
1.0
 12
187.49427839065231
 22
169.9063198933564
 13
0.0
 23
0.0
 14
10.0
 24
10.0
 15
10.0
 25
10.0
 16
0.0
 26
0.0
 36
1.0
 17
0.0
 27
0.0
 37
0.0
 40
348.89937369551939
 41
1.831871345029239
 42
50.0
 43
0.0
 44
0.0
 50
0.0
 51
0.0
 71
     0
 72
   100
 73
     1
 74
     0
 75
     0
 76
     0
 77
     0
 78
     0
  0
ENDTAB
  0
TABLE
  2
LTYPE
 70
     3
  0
LTYPE
  2
CONTINUOUS
 70
     0
  3
Solid Line
 72
    65
 73
     0
 40
0.0
  0
LTYPE
  2
CENTER
 70
     0
  3
____ _ ____ _ ____ _ ____ _ ____ _ ____ _ ____
 72
    65
 73
     4
 40
2.0
 49
1.25
 49
-0.25
 49
0.25
 49
-0.25
  0
LTYPE
  2
PHANTOM2
 70
     0
  3
___ _ _ ___ _ _ ___ _ _ ___ _ _
 72
    65
 73
     6
 40
1.25
 49
0.625
 49
-0.125
 49
0.125
 49
-0.125
 49
0.125
 49
-0.125
  0
ENDTAB
  0
TABLE
  2
LAYER
 70
     3
  0
LAYER
  2
0
 70
     0
 62
     7
  6
CONTINUOUS
  0
LAYER
  2
1
 70
     0
 62
     1
  6
CENTER
  0
LAYER
  2
3
 70
     0
 62
     3
  6
CONTINUOUS
  0
ENDTAB
  0
TABLE
  2
STYLE
 70
     2
  0
STYLE
  2
STANDARD
 70
     0
 40
0.0
 41
1.0
 50
0.0
 71
     0
 42
0.2
  3
SIMPLEX
  4
BIGFONT
  0
STYLE
  2
STANDARD1
 70
     0
 40
0.0
 41
1.0
 50
0.0
 71
     0
 42
3.0
  3
txt
  4

  0
ENDTAB
  0
TABLE
  2
VIEW
 70
     0
  0
ENDTAB
  0
TABLE
  2
UCS
 70
     0
  0
ENDTAB
  0
TABLE
  2
APPID
 70
    29
  0
APPID
  2
ACAD
 70
     0
  0
APPID
  2
GENIUS_GENOREF_13
 70
     0
  0
APPID
  2
GENIUS_GENOENT_13
 70
     0
  0
APPID
  2
GENIUS_GENBH_13
 70
     0
  0
APPID
  2
GENIUS_GENOBJ_13
 70
     0
  0
APPID
  2
GENIUS_GENODEF_13
 70
     0
  0
APPID
  2
GENIUS_GENOLIS_13
 70
     0
  0
APPID
  2
GENIUS_GENOBJ-NBEHI-BHF_13
 70
     0
  0
APPID
  2
GENIUS_GENOBJ-NBEHI-BHB_13
 70
     0
  0
APPID
  2
GENIUS_GENOBJ-F-PART_13
 70
     0
  0
APPID
  2
GENIUS_GEFSTDP_13
 70
     0
  0
APPID
  2
GENIUS_GENOBJ-N-RSSYM_13
 70
     0
  0
APPID
  2
GENIUS_GENSYMENT_13
 70
     0
  0
APPID
  2
GENIUS_GENOBJ-N-TIT_13
 70
     0
  0
APPID
  2
GENIUS_GENTITLE_13
 70
     0
  0
APPID
  2
GENIUS_GENZVEED_13
 70
     0
  0
APPID
  2
GENIUS_GENOBJ-N-LEADER_13
 70
     0
  0
APPID
  2
GENIUS_GENOBJ-N-FIL_13
 70
     0
  0
APPID
  2
GENIUS_GENOBJ-N-SEC_13
 70
     0
  0
APPID
  2
GENIUS_GENOBJ-N-CRS_13
 70
     0
  0
APPID
  2
GENIUS_GENOBJ-N-ZOO_13
 70
     0
  0
APPID
  2
GENIUS_GENZOO_13
 70
     0
  0
APPID
  2
GENIUS_GENOBJ-F-TOL_13
 70
     0
  0
APPID
  2
GENIUS_GENFIL_13
 70
     0
  0
APPID
  2
GENIUS_GENOBJ-N-CHA_13
 70
     0
  0
APPID
  2
_CALL_MAC$
 70
     0
  0
APPID
  2
ACAD_EXEMPT_FROM_CAD_STANDARDS
 70
     0
  0
APPID
  2
ACAD_MLEADERVER
 70
     0
  0
APPID
  2
ACAD_NAV_VCDISPLAY
 70
     0
  0
ENDTAB
  0
TABLE
  2
DIMSTYLE
 70
     1
  0
DIMSTYLE
  2
STANDARD
 70
     0
  3

  4

  5

  6

  7

 40
1.0
 41
0.18
 42
0.0625
 43
0.38
 44
0.18
 45
0.0
 46
0.0
 47
0.0
 48
0.0
140
0.18
141
0.09
142
0.0
143
25.399999999999999
144
1.0
145
0.0
146
1.0
147
0.09
 71
     0
 72
     0
 73
     1
 74
     1
 75
     0
 76
     0
 77
     0
 78
     0
170
     0
171
     2
172
     0
173
     0
174
     0
175
     0
176
     0
177
     0
178
     0
  0
ENDTAB
  0
ENDSEC
  0
SECTION
  2
BLOCKS
  0
BLOCK
  8
0
  2
$MODEL_SPACE
 70
     0
 10
0.0
 20
0.0
 30
0.0
  3
$MODEL_SPACE
  1

  0
ENDBLK
  5
E4DB
  8
0
  0
BLOCK
 67
     1
  8
0
  2
$PAPER_SPACE
 70
     0
 10
0.0
 20
0.0
 30
0.0
  3
$PAPER_SPACE
  1

  0
ENDBLK
  5
E4D9
 67
     1
  8
0
  0
ENDSEC
  0
SECTION
  2
ENTITIES
  0
LINE
  5
E353
  8
0
 10
69.300231899708763
 20
66.985368975489223
 30
0.0
 11
69.300231899708763
 21
89.300000000000011
 31
0.0
  0
LINE
  5
E354
  8
3
 10
69.976731899708625
 20
66.985368975489209
 30
0.0
 11
69.976731899708625
 21
89.97649999999993
 31
0.0
  0
LINE
  5
E355
  8
0
 10
77.300231899708763
 20
66.985368975489209
 30
0.0
 11
77.300231899708763
 21
89.299999999999955
 31
0.0
  0
LINE
  5
E356
  8
3
 10
76.623731899708872
 20
66.985368975489223
 30
0.0
 11
76.623731899708844
 21
89.976499999999874
 31
0.0
  0
LINE
  5
E357
  8
0
 10
18.500000000000011
 20
66.985368975489223
 30
0.0
 11
18.500000000000028
 21
89.300000000000011
 31
0.0
  0
LINE
  5
E358
  8
3
 10
19.176499999999859
 20
66.985368975489223
 30
0.0
 11
19.176499999999891
 21
89.97649999999993
 31
0.0
  0
LINE
  5
E359
  8
3
 10
25.823500000000141
 20
66.985368975489223
 30
0.0
 11
25.823500000000141
 21
89.976499999999874
 31
0.0
  0
LINE
  5
E35A
  8
0
 10
26.50000000000006
 20
66.985368975489209
 30
0.0
 11
26.50000000000006
 21
89.299999999999955
 31
0.0
  0
CIRCLE
  5
E378
  8
0
 10
22.5
 20
128.45222595802329
 30
0.0
 40
4.0
  0
CIRCLE
  5
E379
  8
3
 10
22.5
 20
128.45222595802329
 30
0.0
 40
3.3235000000000001
  0
CIRCLE
  5
E37A
  8
0
 10
22.5
 20
128.45222595802329
 30
0.0
 40
6.25
  0
LINE
  5
E37B
  8
0
 10
14.99444650053522
 20
128.45222595802321
 30
0.0
 11
18.747223250267609
 21
121.9522259580234
 31
0.0
  0
LINE
  5
E37C
  8
0
 10
18.747223250267609
 20
134.95222595802301
 30
0.0
 11
14.99444650053522
 21
128.45222595802321
 31
0.0
  0
LINE
  5
E37D
  8
0
 10
26.252776749732391
 20
134.95222595802301
 30
0.0
 11
18.747223250267609
 21
134.95222595802301
 31
0.0
  0
LINE
  5
E37E
  8
0
 10
30.005553499464781
 20
128.45222595802321
 30
0.0
 11
26.252776749732391
 21
134.95222595802301
 31
0.0
  0
LINE
  5
E37F
  8
0
 10
26.252776749732391
 20
121.9522259580234
 30
0.0
 11
30.005553499464781
 21
128.45222595802321
 31
0.0
  0
LINE
  5
E380
  8
0
 10
18.747223250267609
 20
121.9522259580234
 30
0.0
 11
26.252776749732391
 21
121.9522259580234
 31
0.0
  0
LINE
  5
E381
  8
1
 10
38.122765000000022
 20
128.45222595802329
 30
0.0
 11
6.8772349999999838
 21
128.45222595802329
 31
0.0
  0
LINE
  5
E382
  8
1
 10
22.5
 20
144.07499095802319
 30
0.0
 11
22.5
 21
112.8294609580233
 31
0.0
  0
LINE
  5
E383
  8
3
 10
76.623731899708844
 20
54.500000000000057
 30
0.0
 11
77.300231899708706
 21
53.328267628679917
 31
0.0
  0
LINE
  5
E384
  8
3
 10
69.976731899708625
 20
54.500000000000057
 30
0.0
 11
69.300231899708706
 21
53.328267628679917
 31
0.0
  0
LINE
  5
E385
  8
0
 10
69.300231899708706
 20
54.500000000000092
 30
0.0
 11
77.300231899708763
 21
54.499999999999972
 31
0.0
  0
LINE
  5
E386
  8
0
 10
69.300231899708706
 20
89.300000000000054
 30
0.0
 11
77.300231899708763
 21
89.299999999999955
 31
0.0
  0
LINE
  5
E387
  8
0
 10
76.100231899708703
 20
90.5
 30
0.0
 11
77.300231899708763
 21
89.299999999999955
 31
0.0
  0
LINE
  5
E388
  8
0
 10
69.300231899708763
 20
89.300000000000011
 30
0.0
 11
70.500231899708751
 21
90.5
 31
0.0
  0
LINE
  5
E389
  8
0
 10
69.300231899708706
 20
50.5
 30
0.0
 11
69.300231899708763
 21
60.485368975489223
 31
0.0
  0
LINE
  5
E38A
  8
3
 10
69.976731899708625
 20
54.500000000000057
 30
0.0
 11
69.976731899708625
 21
60.485368975489223
 31
0.0
  0
LINE
  5
E38B
  8
3
 10
76.623731899708844
 20
54.5
 30
0.0
 11
76.623731899708844
 21
60.485368975489223
 31
0.0
  0
LINE
  5
E38C
  8
0
 10
77.300231899708706
 20
50.5
 30
0.0
 11
77.300231899708763
 21
60.485368975489223
 31
0.0
  0
LINE
  5
E38D
  8
0
 10
70.500231899708751
 20
90.5
 30
0.0
 11
76.100231899708703
 21
90.5
 31
0.0
  0
LINE
  5
E39B
  8
0
 10
19.700000000000021
 20
90.5
 30
0.0
 11
25.300000000000011
 21
90.5
 31
0.0
  0
LINE
  5
E39C
  8
0
 10
26.5
 20
50.5
 30
0.0
 11
26.50000000000006
 21
60.485368975489237
 31
0.0
  0
LINE
  5
E39D
  8
3
 10
25.823500000000141
 20
54.5
 30
0.0
 11
25.823500000000141
 21
60.485368975489223
 31
0.0
  0
LINE
  5
E39E
  8
3
 10
19.176499999999891
 20
54.500000000000057
 30
0.0
 11
19.176499999999891
 21
60.485368975489223
 31
0.0
  0
LINE
  5
E39F
  8
0
 10
18.5
 20
50.5
 30
0.0
 11
18.500000000000011
 21
60.485368975489223
 31
0.0
  0
LINE
  5
E3A0
  8
0
 10
18.500000000000028
 20
89.300000000000011
 30
0.0
 11
19.700000000000021
 21
90.5
 31
0.0
  0
LINE
  5
E3A1
  8
0
 10
25.300000000000011
 20
90.5
 30
0.0
 11
26.50000000000006
 21
89.299999999999955
 31
0.0
  0
LINE
  5
E3A2
  8
0
 10
18.499999999999972
 20
89.300000000000054
 30
0.0
 11
26.50000000000006
 21
89.299999999999955
 31
0.0
  0
LINE
  5
E3A3
  8
0
 10
18.499999999999972
 20
54.500000000000092
 30
0.0
 11
26.50000000000006
 21
54.499999999999972
 31
0.0
  0
LINE
  5
E3A4
  8
3
 10
19.176499999999891
 20
54.500000000000057
 30
0.0
 11
18.5
 21
53.328267628679917
 31
0.0
  0
LINE
  5
E3A5
  8
3
 10
25.823500000000141
 20
54.500000000000057
 30
0.0
 11
26.5
 21
53.328267628679917
 31
0.0
  0
CIRCLE
  5
E3A6
  8
0
 10
22.5
 20
128.45222595802329
 30
0.0
 40
12.5
  0
CIRCLE
  5
E3A7
  8
0
 10
22.5
 20
128.45222595802329
 30
0.0
 40
8.2499999999999858
  0
LINE
  5
E3B8
  8
0
 10
61.800231899708713
 20
30.0
 30
0.0
 11
84.800231899708706
 21
30.0
 31
0.0
  0
LINE
  5
E3B9
  8
0
 10
60.800231899708699
 20
34.70000000000001
 30
0.0
 11
85.800231899708706
 21
34.70000000000001
 31
0.0
  0
LINE
  5
E3BA
  8
0
 10
85.800231899708706
 20
35.5
 30
0.0
 11
81.550231899708706
 21
38.5
 31
0.0
  0
LINE
  5
E3BB
  8
0
 10
60.800231899708699
 20
35.5
 30
0.0
 11
85.800231899708706
 21
35.5
 31
0.0
  0
LINE
  5
E3BC
  8
0
 10
60.800231899708699
 20
35.5
 30
0.0
 11
65.050231899708706
 21
38.5
 31
0.0
  0
LINE
  5
E3BD
  8
0
 10
60.800231899708699
 20
31.0
 30
0.0
 11
60.800231899708699
 21
35.5
 31
0.0
  0
ARC
  5
E3BE
  8
0
 10
61.800231899708713
 20
31.0
 30
0.0
 40
1.0
 50
180.0
 51
270.0
  0
LINE
  5
E3C4
  8
0
 10
66.95023189970874
 20
43.0
 30
0.0
 11
79.650231899708729
 21
43.0
 31
0.0
  0
LINE
  5
E3C5
  8
0
 10
65.050231899708706
 20
38.5
 30
0.0
 11
81.550231899708706
 21
38.5
 31
0.0
  0
LINE
  5
E3C7
  8
0
 10
66.300231899708706
 20
43.0
 30
0.0
 11
65.050231899708706
 21
38.5
 31
0.0
  0
LINE
  5
E3C8
  8
0
 10
66.95023189970874
 20
43.0
 30
0.0
 11
66.300231899708706
 21
43.0
 31
0.0
  0
LINE
  5
E3D3
  8
0
 10
80.300231899708706
 20
43.0
 30
0.0
 11
81.550231899708706
 21
38.5
 31
0.0
  0
LINE
  5
E3D4
  8
0
 10
79.650231899708729
 20
43.0
 30
0.0
 11
80.300231899708706
 21
43.0
 31
0.0
  0
LINE
  5
E3E0
  8
0
 10
85.800231899708706
 20
35.5
 30
0.0
 11
85.800231899708706
 21
31.0
 31
0.0
  0
ARC
  5
E3E1
  8
0
 10
84.800231899708706
 20
31.0
 30
0.0
 40
1.0
 50
270.0
 51
0.0
  0
LINE
  5
E3E2
  8
1
 10
73.300231899708706
 20
27.0
 30
0.0
 11
73.300231899708706
 21
93.499999999999986
 31
0.0
  0
ARC
  5
E3E3
  8
0
 10
34.0
 20
31.0
 30
0.0
 40
1.0
 50
270.0
 51
0.0
  0
LINE
  5
E3E4
  8
0
 10
35.0
 20
35.5
 30
0.0
 11
35.0
 21
31.0
 31
0.0
  0
LINE
  5
E3E7
  8
0
 10
29.5
 20
43.0
 30
0.0
 11
30.75
 21
38.5
 31
0.0
  0
LINE
  5
E3EA
  8
0
 10
29.5
 20
43.0
 30
0.0
 11
15.500000000000011
 21
43.0
 31
0.0
  0
LINE
  5
E3EB
  8
0
 10
15.500000000000011
 20
43.0
 30
0.0
 11
14.250000000000011
 21
38.5
 31
0.0
  0
LINE
  5
E3EC
  8
0
 10
14.250000000000011
 20
38.5
 30
0.0
 11
30.75
 21
38.5
 31
0.0
  0
ARC
  5
E3EF
  8
0
 10
11.000000000000011
 20
31.0
 30
0.0
 40
1.0
 50
180.0
 51
270.0
  0
LINE
  5
E3F0
  8
0
 10
10.000000000000011
 20
31.0
 30
0.0
 11
10.000000000000011
 21
35.5
 31
0.0
  0
LINE
  5
E3F1
  8
0
 10
10.000000000000011
 20
35.5
 30
0.0
 11
14.250000000000011
 21
38.5
 31
0.0
  0
LINE
  5
E3F2
  8
0
 10
10.000000000000011
 20
35.5
 30
0.0
 11
35.0
 21
35.5
 31
0.0
  0
LINE
  5
E3F3
  8
0
 10
35.0
 20
35.5
 30
0.0
 11
30.75
 21
38.5
 31
0.0
  0
LINE
  5
E3F4
  8
0
 10
10.000000000000011
 20
34.70000000000001
 30
0.0
 11
35.0
 21
34.70000000000001
 31
0.0
  0
LINE
  5
E3F5
  8
0
 10
11.000000000000011
 20
30.0
 30
0.0
 11
34.0
 21
30.0
 31
0.0
  0
LINE
  5
E3F8
  8
1
 10
22.5
 20
27.0
 30
0.0
 11
22.5
 21
93.499999999999986
 31
0.0
  0
LINE
  5
E696
  8
0
 10
79.550231899707342
 20
60.485368975489223
 30
0.0
 11
67.05023189971007
 21
60.485368975489223
 31
0.0
  0
LINE
  5
E697
  8
0
 10
67.05023189971007
 20
66.985368975489223
 30
0.0
 11
79.550231899707342
 21
66.985368975489223
 31
0.0
  0
LINE
  5
E698
  8
0
 10
66.800231899708933
 20
66.841031408191157
 30
0.0
 11
67.05023189971007
 21
66.985368975489223
 31
0.0
  0
ARC
  5
E699
  8
0
 10
70.050231899708933
 20
57.453879272942451
 30
0.0
 40
9.3871521352487513
 50
69.743841999583111
 51
110.2561580004169
  0
ARC
  5
E69A
  8
0
 10
70.050231899708933
 20
70.016858678035973
 30
0.0
 40
9.3871521352487513
 50
249.74384199958311
 51
290.25615800041692
  0
LINE
  5
E69B
  8
0
 10
66.800231899708933
 20
60.629706542787282
 30
0.0
 11
67.05023189971007
 21
60.485368975489223
 31
0.0
  0
LINE
  5
E69C
  8
0
 10
66.800231899708933
 20
66.841031408191157
 30
0.0
 11
66.800231899708933
 21
60.629706542787282
 31
0.0
  0
LINE
  5
E69D
  8
0
 10
73.300231899708706
 20
66.260474824590005
 30
0.0
 11
73.300231899708706
 21
61.210263126388043
 31
0.0
  0
LINE
  5
E69E
  8
0
 10
79.800231899708479
 20
66.841031408191157
 30
0.0
 11
79.800231899708479
 21
60.629706542787282
 31
0.0
  0
LINE
  5
E69F
  8
0
 10
79.800231899708479
 20
60.629706542787282
 30
0.0
 11
79.550231899707342
 21
60.485368975489223
 31
0.0
  0
ARC
  5
E6A0
  8
0
 10
76.550231899708464
 20
70.016858678035973
 30
0.0
 40
9.3871521352487513
 50
249.74384199958311
 51
290.25615800041692
  0
ARC
  5
E6A1
  8
0
 10
76.550231899708464
 20
57.453879272942451
 30
0.0
 40
9.3871521352487513
 50
69.743841999583111
 51
110.2561580004169
  0
LINE
  5
E6A2
  8
0
 10
79.800231899708479
 20
66.841031408191157
 30
0.0
 11
79.550231899707342
 21
66.985368975489223
 31
0.0
  0
LINE
  5
E6A3
  8
0
 10
28.749999999999321
 20
60.485368975489223
 30
0.0
 11
16.25000000000227
 21
60.485368975489223
 31
0.0
  0
LINE
  5
E6A4
  8
0
 10
16.250000000000909
 20
66.985368975489223
 30
0.0
 11
28.749999999999091
 21
66.985368975489223
 31
0.0
  0
ARC
  5
E6A5
  8
0
 10
28.12916512459924
 20
63.518461835241162
 30
0.0
 40
3.3225695729499738
 50
64.384247467826142
 51
124.3842474680382
  0
LINE
  5
E6A6
  8
0
 10
30.005553499465581
 20
66.260474824590403
 30
0.0
 11
28.749999999999321
 21
66.985368975489223
 31
0.0
  0
LINE
  5
E6A7
  8
0
 10
30.005553499465581
 20
61.210263126388043
 30
0.0
 11
28.749999999999321
 21
60.485368975489223
 31
0.0
  0
ARC
  5
E6A8
  8
0
 10
28.12916512459924
 20
63.95227611573727
 30
0.0
 40
3.3225695729499738
 50
235.61575253195949
 51
295.61575253217387
  0
LINE
  5
E6A9
  8
0
 10
30.005553499465581
 20
66.260474824590403
 30
0.0
 11
30.005553499465581
 21
61.210263126388043
 31
0.0
  0
LINE
  5
E6AA
  8
0
 10
26.252776749731311
 20
66.260474824590403
 30
0.0
 11
26.25277674973313
 21
61.21026312638957
 31
0.0
  0
LINE
  5
E6AB
  8
0
 10
18.74722325027005
 20
66.260474824590403
 30
0.0
 11
18.747223250268231
 21
61.21026312638957
 31
0.0
  0
LINE
  5
E6AC
  8
0
 10
14.99444650053578
 20
66.260474824590403
 30
0.0
 11
14.99444650053578
 21
61.210263126388043
 31
0.0
  0
ARC
  5
E6AD
  8
0
 10
22.500000000001592
 20
73.049149959179658
 30
0.0
 40
12.41944341639239
 50
252.4120462259954
 51
287.58795377400469
  0
ARC
  5
E6AE
  8
0
 10
16.870834875402121
 20
63.95227611573727
 30
0.0
 40
3.3225695729499738
 50
244.3842474678261
 51
304.38424746804009
  0
LINE
  5
E6AF
  8
0
 10
14.99444650053578
 20
61.210263126388043
 30
0.0
 11
16.250000000002039
 21
60.485368975489223
 31
0.0
  0
LINE
  5
E6B0
  8
0
 10
14.99444650053578
 20
66.260474824590403
 30
0.0
 11
16.250000000002039
 21
66.985368975489223
 31
0.0
  0
ARC
  5
E6B1
  8
0
 10
22.500000000001592
 20
54.421587991798781
 30
0.0
 40
12.41944341639239
 50
72.412046225995397
 51
107.5879537740046
  0
ARC
  5
E6B2
  8
0
 10
16.870834875402121
 20
63.518461835241162
 30
0.0
 40
3.3225695729499738
 50
55.615752531961711
 51
115.6157525321738
  0
LINE
  5
E6D8
  8
0
 10
28.25001843632953
 20
45.499999999999993
 30
0.0
 11
16.749981563670531
 21
45.499999999999993
 31
0.0
  0
LINE
  5
E6D9
  8
0
 10
16.74998156367047
 20
50.5
 30
0.0
 11
28.25001843632964
 21
50.499999999999972
 31
0.0
  0
LINE
  5
E6DA
  8
0
 10
16.5
 20
50.355673076922407
 30
0.0
 11
16.74998156367047
 21
50.5
 31
0.0
  0
LINE
  5
E6DB
  8
0
 10
16.5
 20
45.644326923077607
 30
0.0
 11
16.74998156367047
 21
45.499999999999993
 31
0.0
  0
LINE
  5
E6DC
  8
0
 10
16.5
 20
50.355673076922407
 30
0.0
 11
16.5
 21
45.644326923077607
 31
0.0
  0
LINE
  5
E6DD
  8
0
 10
22.5
 20
49.775159306653869
 30
0.0
 11
22.5
 21
46.224840693345747
 31
0.0
  0
LINE
  5
E6DE
  8
0
 10
28.5
 20
50.355673076922407
 30
0.0
 11
28.5
 21
45.644326923077607
 31
0.0
  0
LINE
  5
E6DF
  8
0
 10
28.5
 20
45.644326923077607
 30
0.0
 11
28.25001843632959
 21
45.499999999999993
 31
0.0
  0
LINE
  5
E6E0
  8
0
 10
28.5
 20
50.355673076922407
 30
0.0
 11
28.25001843632959
 21
50.5
 31
0.0
  0
ARC
  5
E6FB
  8
0
 10
19.5
 20
42.314201694411963
 30
0.0
 40
8.0414607382899366
 50
68.095135980105169
 51
111.904864019893
  0
ARC
  5
E6FC
  8
0
 10
19.5
 20
53.68579830558815
 30
0.0
 40
8.0414607382900094
 50
248.0951359801069
 51
291.90486401989301
  0
ARC
  5
E6FD
  8
0
 10
25.50000000000006
 20
53.685798305588087
 30
0.0
 40
8.0414607382899579
 50
248.0951359801069
 51
291.90486401989301
  0
ARC
  5
E6FE
  8
0
 10
25.500066476911631
 20
42.313858178584717
 30
0.0
 40
8.0418042544366628
 50
68.096630573347127
 51
111.90439039070451
  0
LINE
  5
E6FF
  8
0
 10
78.972881630517634
 20
45.500000000000007
 30
0.0
 11
67.627582168899437
 21
45.499999999999979
 31
0.0
  0
LINE
  5
E700
  8
0
 10
67.627582168899551
 20
50.499999999999787
 30
0.0
 11
78.972881630518245
 21
50.499999999999751
 31
0.0
  0
ARC
  5
E701
  8
0
 10
78.496334951804613
 20
47.443239839414339
 30
0.0
 40
2.9047717092837142
 50
66.602713433843434
 51
126.6044818028361
  0
LINE
  5
E702
  8
0
 10
80.228435129984234
 20
49.775105849101131
 30
0.0
 11
78.972881630517975
 21
50.499999999999957
 31
0.0
  0
LINE
  5
E703
  8
0
 10
80.228435129984234
 20
46.224894150898997
 30
0.0
 11
78.972881630517975
 21
45.500000000000178
 31
0.0
  0
ARC
  5
E704
  8
0
 10
78.496345261795852
 20
48.518459877256973
 30
0.0
 40
2.8741223099590929
 50
232.94007193918
 51
292.94007193917491
  0
LINE
  5
E705
  8
0
 10
80.228435129984234
 20
49.775105849101131
 30
0.0
 11
80.228435129984234
 21
46.224894150898997
 31
0.0
  0
LINE
  5
E706
  8
0
 10
76.764255393606049
 20
49.77510584910096
 30
0.0
 11
76.764255393607868
 21
46.224894150900361
 31
0.0
  0
LINE
  5
E707
  8
0
 10
69.83613028457097
 20
49.77510584910096
 30
0.0
 11
69.836130284569151
 21
46.224894150900361
 31
0.0
  0
LINE
  5
E708
  8
0
 10
66.372028669433234
 20
49.77510584910096
 30
0.0
 11
66.372028669433234
 21
46.224894150898827
 31
0.0
  0
ARC
  5
E709
  8
0
 10
73.300192839088083
 20
56.269292718381777
 30
0.0
 40
10.624955151155669
 50
250.97196303024259
 51
289.02803696975911
  0
ARC
  5
E70A
  8
0
 10
68.104079477001221
 20
48.518343341258237
 30
0.0
 40
2.8740057739603291
 50
247.0607067521259
 51
307.06070675212072
  0
LINE
  5
E70B
  8
0
 10
66.372028669433234
 20
46.224894150898827
 30
0.0
 11
67.627582168899494
 21
45.500000000000007
 31
0.0
  0
LINE
  5
E70C
  8
0
 10
66.372028669433234
 20
49.77510584910096
 30
0.0
 11
67.627582168899494
 21
50.499999999999787
 31
0.0
  0
ARC
  5
E70D
  8
0
 10
73.300192839090187
 20
39.73070728031486
 30
0.0
 40
10.62495515238683
 50
70.971963032550804
 51
109.0280369674679
  0
ARC
  5
E70E
  8
0
 10
68.104079477001221
 20
47.481656658740611
 30
0.0
 40
2.8740057739610489
 50
52.939293247889537
 51
112.9392932478865
  0
LINE
  5
E70F
  8
0
 10
27.300000000000011
 20
45.443866786845518
 30
0.0
 11
27.300000000000011
 21
45.499999999999993
 31
0.0
  0
LINE
  5
E710
  8
0
 10
17.699999999999989
 20
45.499999999999993
 30
0.0
 11
17.699999999999989
 21
45.443866786845518
 31
0.0
  0
ARC
  5
E711
  8
0
 10
16.658333333333299
 20
45.443866786845518
 30
0.0
 40
1.0416666666666921
 50
323.23937733474639
 51
0.0
  0
ARC
  5
E712
  8
0
 10
28.341666666666701
 20
45.443866786845518
 30
0.0
 40
1.0416666666666741
 50
180.0
 51
216.76062266525341
  0
ARC
  5
E713
  8
0
 10
22.5
 20
41.079999999999977
 30
0.0
 40
6.2500000000000551
 50
143.23937598243799
 51
162.12817165369859
  0
ARC
  5
E714
  8
0
 10
22.49999999999994
 20
41.079999999999977
 30
0.0
 40
6.2500000000000764
 50
17.871828346301331
 51
36.76062401756198
  0
LINE
  5
E715
  8
0
 10
17.492857155468979
 20
44.820457262750409
 30
0.0
 11
27.507142844531021
 21
44.820457262750409
 31
0.0
  0
LINE
  5
E716
  8
0
 10
78.100231899708746
 20
45.443866786845518
 30
0.0
 11
78.100231899708746
 21
45.499999999999993
 31
0.0
  0
LINE
  5
E717
  8
0
 10
68.500231899708695
 20
45.499999999999993
 30
0.0
 11
68.500231899708695
 21
45.443866786845518
 31
0.0
  0
ARC
  5
E718
  8
0
 10
67.458565233042037
 20
45.443866786845518
 30
0.0
 40
1.0416666666666921
 50
323.23937733474662
 51
0.0
  0
ARC
  5
E719
  8
0
 10
79.141898566375431
 20
45.443866786845518
 30
0.0
 40
1.0416666666666901
 50
180.0
 51
216.76062266525341
  0
ARC
  5
E71A
  8
0
 10
73.300231899708791
 20
41.079999999999977
 30
0.0
 40
6.2500000000000551
 50
143.23937598243799
 51
162.12817165369859
  0
ARC
  5
E71B
  8
0
 10
73.300231899708677
 20
41.079999999999977
 30
0.0
 40
6.2500000000000764
 50
17.87182834630131
 51
36.760624017561959
  0
LINE
  5
E71C
  8
0
 10
68.293089055177774
 20
44.820457262750409
 30
0.0
 11
78.307374744239752
 21
44.820457262750409
 31
0.0
  0
LINE
  5
E71D
  8
0
 10
28.5
 20
124.9881243428855
 30
0.0
 11
28.5
 21
125.844530803437
 31
0.0
  0
LINE
  5
E71E
  8
0
 10
28.5
 20
131.0599211126094
 30
0.0
 11
28.5
 21
131.916327573161
 31
0.0
  0
LINE
  5
E71F
  8
0
 10
28.5
 20
131.916327573161
 30
0.0
 11
27.758330249197229
 21
132.3445308034367
 31
0.0
  0
LINE
  5
E720
  8
0
 10
23.241669750802661
 20
134.95222595802301
 30
0.0
 11
22.5
 21
135.38042918829871
 31
0.0
  0
LINE
  5
E721
  8
0
 10
22.5
 20
135.38042918829871
 30
0.0
 11
21.758330249197289
 21
134.95222595802301
 31
0.0
  0
LINE
  5
E722
  8
0
 10
17.241669750802831
 20
132.34453080343681
 30
0.0
 11
16.5
 21
131.916327573161
 31
0.0
  0
LINE
  5
E723
  8
0
 10
22.5
 20
121.52402272774771
 30
0.0
 11
23.241669750802661
 21
121.9522259580234
 31
0.0
  0
LINE
  5
E724
  8
0
 10
27.758330249197229
 20
124.5599211126097
 30
0.0
 11
28.5
 21
124.9881243428855
 31
0.0
  0
LINE
  5
E725
  8
0
 10
16.5
 20
124.9881243428855
 30
0.0
 11
17.241669750802771
 21
124.5599211126097
 31
0.0
  0
LINE
  5
E726
  8
0
 10
21.7583302491974
 20
121.9522259580234
 30
0.0
 11
22.5
 21
121.52402272774771
 31
0.0
  0
LINE
  5
E727
  8
0
 10
16.5
 20
131.916327573161
 30
0.0
 11
16.5
 21
131.05992111260929
 31
0.0
  0
LINE
  5
E728
  8
0
 10
16.5
 20
125.8445308034371
 30
0.0
 11
16.5
 21
124.9881243428855
 31
0.0
  0
ARC
  5
E751
  8
0
 10
22.5
 20
128.45222595802329
 30
0.0
 40
6.9999999999999849
 50
128.21321070173229
 51
171.78678929826859
  0
ARC
  5
E76B
  8
0
 10
22.5
 20
128.45222595802329
 30
0.0
 40
6.9999999999999849
 50
68.213210701732791
 51
111.78678929826719
  0
ARC
  5
E76C
  8
0
 10
22.5
 20
128.45222595802329
 30
0.0
 40
6.9999999999999849
 50
8.2132107017313896
 51
51.786789298267628
  0
ARC
  5
E76D
  8
0
 10
22.5
 20
128.45222595802329
 30
0.0
 40
6.9999999999999849
 50
308.21321070173298
 51
351.78678929826782
  0
ARC
  5
E76E
  8
0
 10
22.5
 20
128.45222595802329
 30
0.0
 40
6.9999999999999849
 50
248.2132107017346
 51
291.78678929826538
  0
ARC
  5
E76F
  8
0
 10
22.5
 20
128.45222595802329
 30
0.0
 40
6.9999999999999849
 50
188.21321070173209
 51
231.78678929826651
  0
TEXT
  5
E857
  8
0
 62
     3
 10
0.0
 20
0.0
 30
0.0
 40
10.0
  1
LM25BP-8A-SUS
  7
STANDARD1
  0
ENDSEC
  0
EOF
