  0
SECTION
  2
HEADER
  9
$ACADVER
  1
AC1009
  9
$INSBASE
 10
0.0
 20
0.0
 30
0.0
  9
$EXTMIN
 10
0.0
 20
-2.960436562073669
 30
0.0
  9
$EXTMAX
 10
109.4679399727148
 20
167.07499095802319
 30
0.0
  9
$LIMMIN
 10
0.0
 20
0.0
  9
$LIMMAX
 10
375.0
 20
270.0
  9
$ORTHOMODE
 70
     1
  9
$REGENMODE
 70
     1
  9
$FILLMODE
 70
     1
  9
$QTEXTMODE
 70
     0
  9
$MIRRTEXT
 70
     0
  9
$DRAGMODE
 70
     2
  9
$LTSCALE
 40
6.0
  9
$OSMODE
 70
  3071
  9
$ATTMODE
 70
     1
  9
$TEXTSIZE
 40
0.2
  9
$TRACEWID
 40
0.05
  9
$TEXTSTYLE
  7
STANDARD
  9
$CLAYER
  8
0
  9
$CELTYPE
  6
BYLAYER
  9
$CECOLOR
 62
   256
  9
$DIMSCALE
 40
1.0
  9
$DIMASZ
 40
3.0
  9
$DIMEXO
 40
1.0
  9
$DIMDLI
 40
6.0
  9
$DIMRND
 40
0.0
  9
$DIMDLE
 40
0.0
  9
$DIMEXE
 40
1.0
  9
$DIMTP
 40
495.0
  9
$DIMTM
 40
0.0
  9
$DIMTXT
 40
3.0
  9
$DIMCEN
 40
0.0
  9
$DIMTSZ
 40
0.0
  9
$DIMTOL
 70
     0
  9
$DIMLIM
 70
     0
  9
$DIMTIH
 70
     0
  9
$DIMTOH
 70
     0
  9
$DIMSE1
 70
     0
  9
$DIMSE2
 70
     0
  9
$DIMTAD
 70
     1
  9
$DIMZIN
 70
     0
  9
$DIMBLK
  1

  9
$DIMASO
 70
     0
  9
$DIMSHO
 70
     0
  9
$DIMPOST
  1

  9
$DIMAPOST
  1

  9
$DIMALT
 70
     0
  9
$DIMALTD
 70
     2
  9
$DIMALTF
 40
25.399999999999999
  9
$DIMLFAC
 40
1.0
  9
$DIMTOFL
 70
     1
  9
$DIMTVP
 40
0.0
  9
$DIMTIX
 70
     1
  9
$DIMSOXD
 70
     0
  9
$DIMSAH
 70
     0
  9
$DIMBLK1
  1

  9
$DIMBLK2
  1

  9
$DIMSTYLE
  2
STANDARD
  9
$DIMCLRD
 70
     0
  9
$DIMCLRE
 70
     0
  9
$DIMCLRT
 70
     4
  9
$DIMTFAC
 40
1.0
  9
$DIMGAP
 40
1.0
  9
$LUNITS
 70
     2
  9
$LUPREC
 70
     4
  9
$SKETCHINC
 40
0.1
  9
$FILLETRAD
 40
2.0
  9
$AUNITS
 70
     0
  9
$AUPREC
 70
     0
  9
$MENU
  1
C:\R13\WIN\SUPPORT\ACAD-I
  9
$ELEVATION
 40
0.0
  9
$PELEVATION
 40
0.0
  9
$THICKNESS
 40
0.0
  9
$LIMCHECK
 70
     0
  9
$BLIPMODE
 70
     0
  9
$CHAMFERA
 40
0.0
  9
$CHAMFERB
 40
0.0
  9
$SKPOLY
 70
     0
  9
$TDCREATE
 40
2451963.5929179979
  9
$TDUPDATE
 40
2456602.6137348269
  9
$TDINDWG
 40
0.0398650347
  9
$TDUSRTIMER
 40
2456598.4438381828
  9
$USRTIMER
 70
     1
  9
$ANGBASE
 50
0.0
  9
$ANGDIR
 70
     0
  9
$PDMODE
 70
     0
  9
$PDSIZE
 40
0.0
  9
$PLINEWID
 40
0.0
  9
$COORDS
 70
     1
  9
$SPLFRAME
 70
     0
  9
$SPLINETYPE
 70
     6
  9
$SPLINESEGS
 70
     8
  9
$ATTDIA
 70
     0
  9
$ATTREQ
 70
     1
  9
$HANDLING
 70
     1
  9
$HANDSEED
  5
E9FF
  9
$SURFTAB1
 70
     6
  9
$SURFTAB2
 70
     6
  9
$SURFTYPE
 70
     6
  9
$SURFU
 70
     6
  9
$SURFV
 70
     6
  9
$UCSNAME
  2

  9
$UCSORG
 10
0.0
 20
0.0
 30
0.0
  9
$UCSXDIR
 10
1.0
 20
0.0
 30
0.0
  9
$UCSYDIR
 10
0.0
 20
1.0
 30
0.0
  9
$PUCSNAME
  2

  9
$PUCSORG
 10
0.0
 20
0.0
 30
0.0
  9
$PUCSXDIR
 10
1.0
 20
0.0
 30
0.0
  9
$PUCSYDIR
 10
0.0
 20
1.0
 30
0.0
  9
$USERI1
 70
     4
  9
$USERI2
 70
     1
  9
$USERI3
 70
     0
  9
$USERI4
 70
     0
  9
$USERI5
 70
     0
  9
$USERR1
 40
1.0
  9
$USERR2
 40
3.0
  9
$USERR3
 40
3.0
  9
$USERR4
 40
3.0
  9
$USERR5
 40
10.0
  9
$WORLDVIEW
 70
     1
  9
$SHADEDGE
 70
     3
  9
$SHADEDIF
 70
    70
  9
$TILEMODE
 70
     1
  9
$MAXACTVP
 70
    16
  9
$PLIMCHECK
 70
     0
  9
$PEXTMIN
 10
1.0000000000000000E+020
 20
1.0000000000000000E+020
 30
1.0000000000000000E+020
  9
$PEXTMAX
 10
-1.0000000000000000E+020
 20
-1.0000000000000000E+020
 30
-1.0000000000000000E+020
  9
$PLIMMIN
 10
0.0
 20
0.0
  9
$PLIMMAX
 10
12.0
 20
9.0
  9
$UNITMODE
 70
     0
  9
$VISRETAIN
 70
     0
  9
$PLINEGEN
 70
     0
  9
$PSLTSCALE
 70
     0
  0
ENDSEC
  0
SECTION
  2
TABLES
  0
TABLE
  2
VPORT
 70
     1
  0
VPORT
  2
*ACTIVE
 70
     0
 10
0.0
 20
0.0
 11
1.0
 21
1.0
 12
259.81616961165412
 22
57.869052496916787
 13
0.0
 23
0.0
 14
10.0
 24
10.0
 15
10.0
 25
10.0
 16
0.0
 26
0.0
 36
1.0
 17
0.0
 27
0.0
 37
0.0
 40
346.05984632518351
 41
1.8318713450292401
 42
50.0
 43
0.0
 44
0.0
 50
0.0
 51
0.0
 71
    16
 72
   100
 73
     1
 74
     0
 75
     0
 76
     0
 77
     0
 78
     0
  0
ENDTAB
  0
TABLE
  2
LTYPE
 70
     3
  0
LTYPE
  2
CONTINUOUS
 70
     0
  3
Solid Line
 72
    65
 73
     0
 40
0.0
  0
LTYPE
  2
CENTER
 70
     0
  3
____ _ ____ _ ____ _ ____ _ ____ _ ____ _ ____
 72
    65
 73
     4
 40
2.0
 49
1.25
 49
-0.25
 49
0.25
 49
-0.25
  0
LTYPE
  2
PHANTOM2
 70
     0
  3
___ _ _ ___ _ _ ___ _ _ ___ _ _
 72
    65
 73
     6
 40
1.25
 49
0.625
 49
-0.125
 49
0.125
 49
-0.125
 49
0.125
 49
-0.125
  0
ENDTAB
  0
TABLE
  2
LAYER
 70
     3
  0
LAYER
  2
0
 70
     0
 62
     7
  6
CONTINUOUS
  0
LAYER
  2
1
 70
     0
 62
     1
  6
CENTER
  0
LAYER
  2
3
 70
     0
 62
     3
  6
CONTINUOUS
  0
ENDTAB
  0
TABLE
  2
STYLE
 70
     2
  0
STYLE
  2
STANDARD
 70
     0
 40
0.0
 41
1.0
 50
0.0
 71
     0
 42
0.2
  3
SIMPLEX
  4
BIGFONT
  0
STYLE
  2
STANDARD1
 70
     0
 40
0.0
 41
1.0
 50
0.0
 71
     0
 42
3.0
  3
txt
  4

  0
ENDTAB
  0
TABLE
  2
VIEW
 70
     0
  0
ENDTAB
  0
TABLE
  2
UCS
 70
     0
  0
ENDTAB
  0
TABLE
  2
APPID
 70
    29
  0
APPID
  2
ACAD
 70
     0
  0
APPID
  2
GENIUS_GENOREF_13
 70
     0
  0
APPID
  2
GENIUS_GENOENT_13
 70
     0
  0
APPID
  2
GENIUS_GENBH_13
 70
     0
  0
APPID
  2
GENIUS_GENOBJ_13
 70
     0
  0
APPID
  2
GENIUS_GENODEF_13
 70
     0
  0
APPID
  2
GENIUS_GENOLIS_13
 70
     0
  0
APPID
  2
GENIUS_GENOBJ-NBEHI-BHF_13
 70
     0
  0
APPID
  2
GENIUS_GENOBJ-NBEHI-BHB_13
 70
     0
  0
APPID
  2
GENIUS_GENOBJ-F-PART_13
 70
     0
  0
APPID
  2
GENIUS_GEFSTDP_13
 70
     0
  0
APPID
  2
GENIUS_GENOBJ-N-RSSYM_13
 70
     0
  0
APPID
  2
GENIUS_GENSYMENT_13
 70
     0
  0
APPID
  2
GENIUS_GENOBJ-N-TIT_13
 70
     0
  0
APPID
  2
GENIUS_GENTITLE_13
 70
     0
  0
APPID
  2
GENIUS_GENZVEED_13
 70
     0
  0
APPID
  2
GENIUS_GENOBJ-N-LEADER_13
 70
     0
  0
APPID
  2
GENIUS_GENOBJ-N-FIL_13
 70
     0
  0
APPID
  2
GENIUS_GENOBJ-N-SEC_13
 70
     0
  0
APPID
  2
GENIUS_GENOBJ-N-CRS_13
 70
     0
  0
APPID
  2
GENIUS_GENOBJ-N-ZOO_13
 70
     0
  0
APPID
  2
GENIUS_GENZOO_13
 70
     0
  0
APPID
  2
GENIUS_GENOBJ-F-TOL_13
 70
     0
  0
APPID
  2
GENIUS_GENFIL_13
 70
     0
  0
APPID
  2
GENIUS_GENOBJ-N-CHA_13
 70
     0
  0
APPID
  2
_CALL_MAC$
 70
     0
  0
APPID
  2
ACAD_EXEMPT_FROM_CAD_STANDARDS
 70
     0
  0
APPID
  2
ACAD_MLEADERVER
 70
     0
  0
APPID
  2
ACAD_NAV_VCDISPLAY
 70
     0
  0
ENDTAB
  0
TABLE
  2
DIMSTYLE
 70
     1
  0
DIMSTYLE
  2
STANDARD
 70
     0
  3

  4

  5

  6

  7

 40
1.0
 41
0.18
 42
0.0625
 43
0.38
 44
0.18
 45
0.0
 46
0.0
 47
0.0
 48
0.0
140
0.18
141
0.09
142
0.0
143
25.399999999999999
144
1.0
145
0.0
146
1.0
147
0.09
 71
     0
 72
     0
 73
     1
 74
     1
 75
     0
 76
     0
 77
     0
 78
     0
170
     0
171
     2
172
     0
173
     0
174
     0
175
     0
176
     0
177
     0
178
     0
  0
ENDTAB
  0
ENDSEC
  0
SECTION
  2
BLOCKS
  0
BLOCK
  8
0
  2
$MODEL_SPACE
 70
     0
 10
0.0
 20
0.0
 30
0.0
  3
$MODEL_SPACE
  1

  0
ENDBLK
  5
E716
  8
0
  0
BLOCK
 67
     1
  8
0
  2
$PAPER_SPACE
 70
     0
 10
0.0
 20
0.0
 30
0.0
  3
$PAPER_SPACE
  1

  0
ENDBLK
  5
E714
 67
     1
  8
0
  0
ENDSEC
  0
SECTION
  2
ENTITIES
  0
LINE
  5
E58B
  8
0
 10
69.300231899708763
 20
66.985368975489223
 30
0.0
 11
69.300231899708734
 21
112.3
 31
0.0
  0
LINE
  5
E58C
  8
3
 10
69.976731899708625
 20
66.985368975489209
 30
0.0
 11
69.976731899708597
 21
112.9764999999999
 31
0.0
  0
LINE
  5
E58D
  8
0
 10
77.300231899708734
 20
66.985368975489209
 30
0.0
 11
77.300231899708734
 21
112.2999999999999
 31
0.0
  0
LINE
  5
E58E
  8
3
 10
76.623731899708815
 20
66.985368975489209
 30
0.0
 11
76.623731899708815
 21
112.9764999999998
 31
0.0
  0
LINE
  5
E58F
  8
0
 10
18.499999999999972
 20
66.985368975489223
 30
0.0
 11
18.500000000000011
 21
112.3
 31
0.0
  0
LINE
  5
E590
  8
3
 10
19.176499999999859
 20
66.985368975489223
 30
0.0
 11
19.176499999999869
 21
112.9764999999999
 31
0.0
  0
LINE
  5
E591
  8
3
 10
25.823500000000109
 20
66.985368975489223
 30
0.0
 11
25.823500000000109
 21
112.9764999999998
 31
0.0
  0
LINE
  5
E592
  8
0
 10
26.500000000000028
 20
66.985368975489251
 30
0.0
 11
26.500000000000028
 21
112.2999999999999
 31
0.0
  0
LINE
  5
E5BB
  8
3
 10
76.623731899708815
 20
54.500000000000071
 30
0.0
 11
77.300231899708677
 21
53.328267628679939
 31
0.0
  0
LINE
  5
E5BC
  8
3
 10
69.976731899708597
 20
54.500000000000071
 30
0.0
 11
69.300231899708706
 21
53.328267628679939
 31
0.0
  0
LINE
  5
E5BD
  8
0
 10
69.300231899708663
 20
54.500000000000092
 30
0.0
 11
77.300231899708734
 21
54.499999999999993
 31
0.0
  0
LINE
  5
E5BE
  8
0
 10
69.300231899708663
 20
112.3
 30
0.0
 11
77.300231899708734
 21
112.2999999999999
 31
0.0
  0
LINE
  5
E5BF
  8
0
 10
76.100231899708703
 20
113.5
 30
0.0
 11
77.300231899708734
 21
112.2999999999999
 31
0.0
  0
LINE
  5
E5C0
  8
0
 10
69.300231899708734
 20
112.3
 30
0.0
 11
70.500231899708723
 21
113.5
 31
0.0
  0
LINE
  5
E5C1
  8
0
 10
69.300231899708706
 20
50.5
 30
0.0
 11
69.300231899708734
 21
60.485368975489223
 31
0.0
  0
LINE
  5
E5C2
  8
3
 10
69.976731899708597
 20
54.500000000000071
 30
0.0
 11
69.976731899708597
 21
60.485368975489223
 31
0.0
  0
LINE
  5
E5C3
  8
3
 10
76.623731899708815
 20
54.500000000000007
 30
0.0
 11
76.623731899708815
 21
60.485368975489223
 31
0.0
  0
LINE
  5
E5C4
  8
0
 10
77.300231899708706
 20
50.5
 30
0.0
 11
77.300231899708734
 21
60.485368975489223
 31
0.0
  0
LINE
  5
E5C5
  8
0
 10
70.500231899708723
 20
113.5
 30
0.0
 11
76.100231899708703
 21
113.5
 31
0.0
  0
LINE
  5
E5D3
  8
0
 10
19.699999999999999
 20
113.5
 30
0.0
 11
25.300000000000011
 21
113.5
 31
0.0
  0
LINE
  5
E5D4
  8
0
 10
26.5
 20
50.5
 30
0.0
 11
26.500000000000028
 21
60.485368975489237
 31
0.0
  0
LINE
  5
E5D5
  8
3
 10
25.823500000000109
 20
54.500000000000007
 30
0.0
 11
25.823500000000109
 21
60.485368975489223
 31
0.0
  0
LINE
  5
E5D6
  8
3
 10
19.176499999999869
 20
54.500000000000071
 30
0.0
 11
19.176499999999869
 21
60.485368975489223
 31
0.0
  0
LINE
  5
E5D7
  8
0
 10
18.499999999999979
 20
50.5
 30
0.0
 11
18.5
 21
60.485368975489223
 31
0.0
  0
LINE
  5
E5D8
  8
0
 10
18.500000000000011
 20
112.3
 30
0.0
 11
19.699999999999999
 21
113.5
 31
0.0
  0
LINE
  5
E5D9
  8
0
 10
25.300000000000011
 20
113.5
 30
0.0
 11
26.500000000000028
 21
112.2999999999999
 31
0.0
  0
LINE
  5
E5DA
  8
0
 10
18.499999999999961
 20
112.3
 30
0.0
 11
26.500000000000028
 21
112.2999999999999
 31
0.0
  0
LINE
  5
E5DB
  8
0
 10
18.499999999999961
 20
54.500000000000092
 30
0.0
 11
26.500000000000028
 21
54.499999999999993
 31
0.0
  0
LINE
  5
E5DC
  8
3
 10
19.176499999999869
 20
54.500000000000071
 30
0.0
 11
18.499999999999979
 21
53.328267628679939
 31
0.0
  0
LINE
  5
E5DD
  8
3
 10
25.823500000000109
 20
54.500000000000071
 30
0.0
 11
26.499999999999972
 21
53.328267628679939
 31
0.0
  0
LINE
  5
E5F0
  8
0
 10
61.800231899708713
 20
30.0
 30
0.0
 11
84.800231899708706
 21
30.0
 31
0.0
  0
LINE
  5
E5F1
  8
0
 10
60.800231899708699
 20
34.70000000000001
 30
0.0
 11
85.800231899708706
 21
34.70000000000001
 31
0.0
  0
LINE
  5
E5F2
  8
0
 10
85.800231899708706
 20
35.5
 30
0.0
 11
81.550231899708706
 21
38.5
 31
0.0
  0
LINE
  5
E5F3
  8
0
 10
60.800231899708699
 20
35.5
 30
0.0
 11
85.800231899708706
 21
35.5
 31
0.0
  0
LINE
  5
E5F4
  8
0
 10
60.800231899708699
 20
35.5
 30
0.0
 11
65.050231899708706
 21
38.5
 31
0.0
  0
LINE
  5
E5F5
  8
0
 10
60.800231899708699
 20
31.0
 30
0.0
 11
60.800231899708699
 21
35.5
 31
0.0
  0
ARC
  5
E5F6
  8
0
 10
61.800231899708713
 20
31.0
 30
0.0
 40
1.0
 50
180.0
 51
270.0
  0
LINE
  5
E5FC
  8
0
 10
66.300231899708734
 20
43.000000000000007
 30
0.0
 11
80.300231899708706
 21
43.0
 31
0.0
  0
LINE
  5
E5FD
  8
0
 10
65.050231899708706
 20
38.5
 30
0.0
 11
81.550231899708706
 21
38.5
 31
0.0
  0
LINE
  5
E5FF
  8
0
 10
66.300231899708706
 20
43.0
 30
0.0
 11
65.050231899708706
 21
38.5
 31
0.0
  0
LINE
  5
E60B
  8
0
 10
80.300231899708706
 20
43.0
 30
0.0
 11
81.550231899708706
 21
38.5
 31
0.0
  0
LINE
  5
E618
  8
0
 10
85.800231899708706
 20
35.5
 30
0.0
 11
85.800231899708706
 21
31.0
 31
0.0
  0
ARC
  5
E619
  8
0
 10
84.800231899708706
 20
31.0
 30
0.0
 40
1.0
 50
270.0
 51
0.0
  0
LINE
  5
E61A
  8
1
 10
73.300231899708706
 20
27.0
 30
0.0
 11
73.300231899708706
 21
116.5
 31
0.0
  0
ARC
  5
E61B
  8
0
 10
34.0
 20
31.0
 30
0.0
 40
1.0
 50
270.0
 51
0.0
  0
LINE
  5
E61C
  8
0
 10
35.0
 20
35.5
 30
0.0
 11
35.0
 21
31.0
 31
0.0
  0
LINE
  5
E61F
  8
0
 10
29.5
 20
43.0
 30
0.0
 11
30.75
 21
38.5
 31
0.0
  0
LINE
  5
E623
  8
0
 10
15.5
 20
43.0
 30
0.0
 11
14.25
 21
38.5
 31
0.0
  0
LINE
  5
E624
  8
0
 10
14.25
 20
38.5
 30
0.0
 11
30.75
 21
38.5
 31
0.0
  0
LINE
  5
E625
  8
0
 10
15.50000000000003
 20
43.000000000000007
 30
0.0
 11
29.500000000000028
 21
42.999999999999979
 31
0.0
  0
ARC
  5
E627
  8
0
 10
11.0
 20
31.0
 30
0.0
 40
1.0
 50
180.0
 51
270.0
  0
LINE
  5
E628
  8
0
 10
10.0
 20
31.0
 30
0.0
 11
10.0
 21
35.5
 31
0.0
  0
LINE
  5
E629
  8
0
 10
10.0
 20
35.5
 30
0.0
 11
14.25
 21
38.5
 31
0.0
  0
LINE
  5
E62A
  8
0
 10
10.0
 20
35.5
 30
0.0
 11
35.0
 21
35.5
 31
0.0
  0
LINE
  5
E62B
  8
0
 10
35.0
 20
35.5
 30
0.0
 11
30.75
 21
38.5
 31
0.0
  0
LINE
  5
E62C
  8
0
 10
10.0
 20
34.70000000000001
 30
0.0
 11
35.0
 21
34.70000000000001
 31
0.0
  0
LINE
  5
E62D
  8
0
 10
11.0
 20
30.0
 30
0.0
 11
34.0
 21
30.0
 31
0.0
  0
LINE
  5
E630
  8
1
 10
22.5
 20
27.0
 30
0.0
 11
22.5
 21
116.5
 31
0.0
  0
CIRCLE
  5
E830
  8
0
 10
22.499999999999972
 20
151.45222595802329
 30
0.0
 40
4.0
  0
CIRCLE
  5
E831
  8
3
 10
22.499999999999972
 20
151.45222595802329
 30
0.0
 40
3.3235000000000001
  0
CIRCLE
  5
E832
  8
0
 10
22.499999999999972
 20
151.45222595802329
 30
0.0
 40
6.25
  0
LINE
  5
E833
  8
0
 10
14.99444650053519
 20
151.45222595802321
 30
0.0
 11
18.747223250267581
 21
144.9522259580234
 31
0.0
  0
LINE
  5
E834
  8
0
 10
18.747223250267581
 20
157.95222595802301
 30
0.0
 11
14.99444650053519
 21
151.45222595802321
 31
0.0
  0
LINE
  5
E835
  8
0
 10
26.252776749732359
 20
157.95222595802301
 30
0.0
 11
18.747223250267581
 21
157.95222595802301
 31
0.0
  0
LINE
  5
E836
  8
0
 10
30.00555349946476
 20
151.45222595802321
 30
0.0
 11
26.252776749732359
 21
157.95222595802301
 31
0.0
  0
LINE
  5
E837
  8
0
 10
26.252776749732359
 20
144.9522259580234
 30
0.0
 11
30.00555349946476
 21
151.45222595802321
 31
0.0
  0
LINE
  5
E838
  8
0
 10
18.747223250267581
 20
144.9522259580234
 30
0.0
 11
26.252776749732359
 21
144.9522259580234
 31
0.0
  0
LINE
  5
E839
  8
1
 10
38.122764999999987
 20
151.45222595802329
 30
0.0
 11
6.8772349999999562
 21
151.45222595802329
 31
0.0
  0
LINE
  5
E83A
  8
1
 10
22.499999999999972
 20
167.07499095802319
 30
0.0
 11
22.499999999999972
 21
135.8294609580233
 31
0.0
  0
CIRCLE
  5
E851
  8
0
 10
22.499999999999972
 20
151.45222595802329
 30
0.0
 40
12.5
  0
CIRCLE
  5
E852
  8
0
 10
22.499999999999972
 20
151.45222595802329
 30
0.0
 40
8.2499999999999858
  0
LINE
  5
E871
  8
0
 10
79.550231899707342
 20
60.485368975489223
 30
0.0
 11
67.05023189971007
 21
60.485368975489223
 31
0.0
  0
LINE
  5
E872
  8
0
 10
67.05023189971007
 20
66.985368975489223
 30
0.0
 11
79.550231899707342
 21
66.985368975489223
 31
0.0
  0
LINE
  5
E873
  8
0
 10
66.800231899708933
 20
66.841031408191157
 30
0.0
 11
67.05023189971007
 21
66.985368975489223
 31
0.0
  0
ARC
  5
E874
  8
0
 10
70.050231899708933
 20
57.453879272942451
 30
0.0
 40
9.3871521352487513
 50
69.743841999583111
 51
110.2561580004169
  0
ARC
  5
E875
  8
0
 10
70.050231899708933
 20
70.016858678035973
 30
0.0
 40
9.3871521352487513
 50
249.74384199958311
 51
290.25615800041692
  0
LINE
  5
E876
  8
0
 10
66.800231899708933
 20
60.629706542787282
 30
0.0
 11
67.05023189971007
 21
60.485368975489223
 31
0.0
  0
LINE
  5
E877
  8
0
 10
66.800231899708933
 20
66.841031408191157
 30
0.0
 11
66.800231899708933
 21
60.629706542787282
 31
0.0
  0
LINE
  5
E878
  8
0
 10
73.300231899708706
 20
66.260474824590005
 30
0.0
 11
73.300231899708706
 21
61.210263126388043
 31
0.0
  0
LINE
  5
E879
  8
0
 10
79.800231899708479
 20
66.841031408191157
 30
0.0
 11
79.800231899708479
 21
60.629706542787282
 31
0.0
  0
LINE
  5
E87A
  8
0
 10
79.800231899708479
 20
60.629706542787282
 30
0.0
 11
79.550231899707342
 21
60.485368975489223
 31
0.0
  0
ARC
  5
E87B
  8
0
 10
76.550231899708464
 20
70.016858678035973
 30
0.0
 40
9.3871521352487513
 50
249.74384199958311
 51
290.25615800041692
  0
ARC
  5
E87C
  8
0
 10
76.550231899708464
 20
57.453879272942451
 30
0.0
 40
9.3871521352487513
 50
69.743841999583111
 51
110.2561580004169
  0
LINE
  5
E87D
  8
0
 10
79.800231899708479
 20
66.841031408191157
 30
0.0
 11
79.550231899707342
 21
66.985368975489223
 31
0.0
  0
LINE
  5
E87E
  8
0
 10
28.749999999999321
 20
60.485368975489223
 30
0.0
 11
16.25000000000227
 21
60.485368975489223
 31
0.0
  0
LINE
  5
E87F
  8
0
 10
16.250000000000909
 20
66.985368975489223
 30
0.0
 11
28.749999999999091
 21
66.985368975489223
 31
0.0
  0
ARC
  5
E880
  8
0
 10
28.12916512459924
 20
63.518461835241162
 30
0.0
 40
3.3225695729499738
 50
64.384247467826142
 51
124.3842474680382
  0
LINE
  5
E881
  8
0
 10
30.005553499465581
 20
66.260474824590403
 30
0.0
 11
28.749999999999321
 21
66.985368975489223
 31
0.0
  0
LINE
  5
E882
  8
0
 10
30.005553499465581
 20
61.210263126388043
 30
0.0
 11
28.749999999999321
 21
60.485368975489223
 31
0.0
  0
ARC
  5
E883
  8
0
 10
28.12916512459924
 20
63.95227611573727
 30
0.0
 40
3.3225695729499738
 50
235.61575253195949
 51
295.61575253217387
  0
LINE
  5
E884
  8
0
 10
30.005553499465581
 20
66.260474824590403
 30
0.0
 11
30.005553499465581
 21
61.210263126388043
 31
0.0
  0
LINE
  5
E885
  8
0
 10
26.252776749731311
 20
66.260474824590403
 30
0.0
 11
26.25277674973313
 21
61.21026312638957
 31
0.0
  0
LINE
  5
E886
  8
0
 10
18.74722325027005
 20
66.260474824590403
 30
0.0
 11
18.747223250268231
 21
61.21026312638957
 31
0.0
  0
LINE
  5
E887
  8
0
 10
14.99444650053578
 20
66.260474824590403
 30
0.0
 11
14.99444650053578
 21
61.210263126388043
 31
0.0
  0
ARC
  5
E888
  8
0
 10
22.500000000001592
 20
73.049149959179644
 30
0.0
 40
12.41944341639239
 50
252.4120462259954
 51
287.58795377400469
  0
ARC
  5
E889
  8
0
 10
16.870834875402121
 20
63.95227611573727
 30
0.0
 40
3.3225695729499738
 50
244.3842474678261
 51
304.38424746804009
  0
LINE
  5
E88A
  8
0
 10
14.99444650053578
 20
61.210263126388043
 30
0.0
 11
16.250000000002039
 21
60.485368975489223
 31
0.0
  0
LINE
  5
E88B
  8
0
 10
14.99444650053578
 20
66.260474824590403
 30
0.0
 11
16.250000000002039
 21
66.985368975489223
 31
0.0
  0
ARC
  5
E88C
  8
0
 10
22.500000000001592
 20
54.421587991798781
 30
0.0
 40
12.41944341639239
 50
72.412046225995397
 51
107.5879537740046
  0
ARC
  5
E88D
  8
0
 10
16.870834875402121
 20
63.518461835241162
 30
0.0
 40
3.3225695729499738
 50
55.615752531961711
 51
115.6157525321738
  0
LINE
  5
E88E
  8
0
 10
28.250018436329562
 20
45.499999999999993
 30
0.0
 11
16.749981563670559
 21
45.499999999999993
 31
0.0
  0
LINE
  5
E88F
  8
0
 10
16.749981563670499
 20
50.5
 30
0.0
 11
28.250018436329668
 21
50.499999999999972
 31
0.0
  0
LINE
  5
E890
  8
0
 10
16.500000000000028
 20
50.355673076922407
 30
0.0
 11
16.749981563670499
 21
50.5
 31
0.0
  0
LINE
  5
E891
  8
0
 10
16.500000000000028
 20
45.644326923077607
 30
0.0
 11
16.749981563670499
 21
45.499999999999993
 31
0.0
  0
LINE
  5
E892
  8
0
 10
16.500000000000028
 20
50.355673076922407
 30
0.0
 11
16.500000000000028
 21
45.644326923077607
 31
0.0
  0
LINE
  5
E893
  8
0
 10
22.500000000000028
 20
49.775159306653869
 30
0.0
 11
22.500000000000028
 21
46.224840693345747
 31
0.0
  0
LINE
  5
E894
  8
0
 10
28.500000000000028
 20
50.355673076922407
 30
0.0
 11
28.500000000000028
 21
45.644326923077607
 31
0.0
  0
LINE
  5
E895
  8
0
 10
28.500000000000028
 20
45.644326923077607
 30
0.0
 11
28.250018436329611
 21
45.499999999999993
 31
0.0
  0
LINE
  5
E896
  8
0
 10
28.500000000000028
 20
50.355673076922407
 30
0.0
 11
28.250018436329611
 21
50.5
 31
0.0
  0
ARC
  5
E897
  8
0
 10
19.500000000000028
 20
42.314201694411963
 30
0.0
 40
8.0414607382899366
 50
68.095135980105169
 51
111.904864019893
  0
ARC
  5
E898
  8
0
 10
19.500000000000028
 20
53.68579830558815
 30
0.0
 40
8.0414607382900094
 50
248.0951359801069
 51
291.90486401989301
  0
ARC
  5
E899
  8
0
 10
25.500000000000089
 20
53.685798305588087
 30
0.0
 40
8.0414607382899579
 50
248.0951359801069
 51
291.90486401989301
  0
ARC
  5
E89A
  8
0
 10
25.500066476911659
 20
42.313858178584717
 30
0.0
 40
8.0418042544366628
 50
68.096630573347127
 51
111.90439039070451
  0
LINE
  5
E89B
  8
0
 10
78.972881630517634
 20
45.500000000000028
 30
0.0
 11
67.627582168899437
 21
45.499999999999993
 31
0.0
  0
LINE
  5
E89C
  8
0
 10
67.627582168899551
 20
50.499999999999801
 30
0.0
 11
78.972881630518245
 21
50.499999999999773
 31
0.0
  0
ARC
  5
E89D
  8
0
 10
78.496334951804613
 20
47.44323983941436
 30
0.0
 40
2.9047717092837142
 50
66.602713433843434
 51
126.6044818028361
  0
LINE
  5
E89E
  8
0
 10
80.228435129984234
 20
49.775105849101152
 30
0.0
 11
78.972881630517975
 21
50.499999999999972
 31
0.0
  0
LINE
  5
E89F
  8
0
 10
80.228435129984234
 20
46.224894150899011
 30
0.0
 11
78.972881630517975
 21
45.500000000000199
 31
0.0
  0
ARC
  5
E8A0
  8
0
 10
78.496345261795852
 20
48.518459877256987
 30
0.0
 40
2.8741223099590929
 50
232.94007193918
 51
292.94007193917491
  0
LINE
  5
E8A1
  8
0
 10
80.228435129984234
 20
49.775105849101152
 30
0.0
 11
80.228435129984234
 21
46.224894150899011
 31
0.0
  0
LINE
  5
E8A2
  8
0
 10
76.764255393606049
 20
49.775105849100981
 30
0.0
 11
76.764255393607868
 21
46.224894150900383
 31
0.0
  0
LINE
  5
E8A3
  8
0
 10
69.83613028457097
 20
49.775105849100981
 30
0.0
 11
69.836130284569151
 21
46.224894150900383
 31
0.0
  0
LINE
  5
E8A4
  8
0
 10
66.372028669433234
 20
49.775105849100981
 30
0.0
 11
66.372028669433234
 21
46.224894150898841
 31
0.0
  0
ARC
  5
E8A5
  8
0
 10
73.300192839088083
 20
56.269292718381791
 30
0.0
 40
10.624955151155669
 50
250.97196303024259
 51
289.02803696975911
  0
ARC
  5
E8A6
  8
0
 10
68.104079477001221
 20
48.518343341258252
 30
0.0
 40
2.8740057739603291
 50
247.0607067521259
 51
307.06070675212072
  0
LINE
  5
E8A7
  8
0
 10
66.372028669433234
 20
46.224894150898841
 30
0.0
 11
67.627582168899494
 21
45.500000000000028
 31
0.0
  0
LINE
  5
E8A8
  8
0
 10
66.372028669433234
 20
49.775105849100981
 30
0.0
 11
67.627582168899494
 21
50.499999999999801
 31
0.0
  0
ARC
  5
E8A9
  8
0
 10
73.300192839090187
 20
39.730707280314867
 30
0.0
 40
10.62495515238683
 50
70.971963032550804
 51
109.0280369674679
  0
ARC
  5
E8AA
  8
0
 10
68.104079477001221
 20
47.481656658740633
 30
0.0
 40
2.8740057739610489
 50
52.939293247889537
 51
112.9392932478865
  0
LINE
  5
E8AB
  8
0
 10
27.30000000000004
 20
45.443866786845518
 30
0.0
 11
27.30000000000004
 21
45.499999999999993
 31
0.0
  0
LINE
  5
E8AC
  8
0
 10
17.700000000000021
 20
45.499999999999993
 30
0.0
 11
17.700000000000021
 21
45.443866786845518
 31
0.0
  0
ARC
  5
E8AD
  8
0
 10
16.658333333333331
 20
45.443866786845518
 30
0.0
 40
1.0416666666666921
 50
323.23937733474639
 51
0.0
  0
ARC
  5
E8AE
  8
0
 10
28.341666666666729
 20
45.443866786845518
 30
0.0
 40
1.0416666666666741
 50
180.0
 51
216.76062266525341
  0
ARC
  5
E8AF
  8
0
 10
22.500000000000028
 20
41.079999999999977
 30
0.0
 40
6.2500000000000551
 50
143.23937598243799
 51
162.12817165369859
  0
ARC
  5
E8B0
  8
0
 10
22.499999999999972
 20
41.079999999999977
 30
0.0
 40
6.2500000000000764
 50
17.871828346301331
 51
36.76062401756198
  0
LINE
  5
E8B1
  8
0
 10
17.492857155469011
 20
44.820457262750409
 30
0.0
 11
27.50714284453105
 21
44.820457262750409
 31
0.0
  0
LINE
  5
E8B2
  8
0
 10
78.100231899708774
 20
45.443866786845533
 30
0.0
 11
78.100231899708774
 21
45.500000000000007
 31
0.0
  0
LINE
  5
E8B3
  8
0
 10
68.500231899708695
 20
45.500000000000007
 30
0.0
 11
68.500231899708695
 21
45.443866786845533
 31
0.0
  0
ARC
  5
E8B4
  8
0
 10
67.458565233042009
 20
45.443866786845533
 30
0.0
 40
1.0416666666666921
 50
323.23937733474662
 51
0.0
  0
ARC
  5
E8B5
  8
0
 10
79.141898566375403
 20
45.443866786845533
 30
0.0
 40
1.0416666666666901
 50
180.0
 51
216.76062266525341
  0
ARC
  5
E8B6
  8
0
 10
73.30023189970882
 20
41.079999999999991
 30
0.0
 40
6.2500000000000551
 50
143.23937598243799
 51
162.12817165369859
  0
ARC
  5
E8B7
  8
0
 10
73.300231899708706
 20
41.079999999999991
 30
0.0
 40
6.2500000000000764
 50
17.87182834630131
 51
36.760624017561959
  0
LINE
  5
E8B8
  8
0
 10
68.293089055177802
 20
44.820457262750423
 30
0.0
 11
78.307374744239723
 21
44.820457262750423
 31
0.0
  0
LINE
  5
E8B9
  8
0
 10
28.499999999999972
 20
147.9881243428855
 30
0.0
 11
28.499999999999972
 21
148.84453080343701
 31
0.0
  0
LINE
  5
E8BA
  8
0
 10
28.499999999999972
 20
154.0599211126094
 30
0.0
 11
28.499999999999972
 21
154.916327573161
 31
0.0
  0
LINE
  5
E8BB
  8
0
 10
28.499999999999972
 20
154.916327573161
 30
0.0
 11
27.758330249197201
 21
155.3445308034367
 31
0.0
  0
LINE
  5
E8BC
  8
0
 10
23.241669750802629
 20
157.95222595802301
 30
0.0
 11
22.499999999999972
 21
158.38042918829871
 31
0.0
  0
LINE
  5
E8BD
  8
0
 10
22.499999999999972
 20
158.38042918829871
 30
0.0
 11
21.758330249197261
 21
157.95222595802301
 31
0.0
  0
LINE
  5
E8BE
  8
0
 10
17.241669750802799
 20
155.34453080343681
 30
0.0
 11
16.499999999999972
 21
154.916327573161
 31
0.0
  0
LINE
  5
E8BF
  8
0
 10
22.499999999999972
 20
144.52402272774771
 30
0.0
 11
23.241669750802629
 21
144.9522259580234
 31
0.0
  0
LINE
  5
E8C0
  8
0
 10
27.758330249197201
 20
147.55992111260969
 30
0.0
 11
28.499999999999972
 21
147.9881243428855
 31
0.0
  0
LINE
  5
E8C1
  8
0
 10
16.499999999999972
 20
147.9881243428855
 30
0.0
 11
17.241669750802739
 21
147.55992111260969
 31
0.0
  0
LINE
  5
E8C2
  8
0
 10
21.758330249197371
 20
144.9522259580234
 30
0.0
 11
22.499999999999972
 21
144.52402272774771
 31
0.0
  0
LINE
  5
E8C3
  8
0
 10
16.499999999999972
 20
154.916327573161
 30
0.0
 11
16.499999999999972
 21
154.05992111260929
 31
0.0
  0
LINE
  5
E8C4
  8
0
 10
16.499999999999972
 20
148.84453080343701
 30
0.0
 11
16.499999999999972
 21
147.9881243428855
 31
0.0
  0
ARC
  5
E8C5
  8
0
 10
22.499999999999972
 20
151.45222595802329
 30
0.0
 40
6.9999999999999849
 50
128.21321070173349
 51
171.78678929826859
  0
ARC
  5
E8C6
  8
0
 10
22.499999999999972
 20
151.45222595802329
 30
0.0
 40
6.9999999999999849
 50
188.21321070173209
 51
231.78678929826651
  0
ARC
  5
E8C7
  8
0
 10
22.499999999999972
 20
151.45222595802329
 30
0.0
 40
6.9999999999999849
 50
248.2132107017346
 51
291.78678929826538
  0
ARC
  5
E8C8
  8
0
 10
22.499999999999972
 20
151.45222595802329
 30
0.0
 40
6.9999999999999849
 50
308.21321070173349
 51
351.78678929826788
  0
ARC
  5
E8C9
  8
0
 10
22.499999999999972
 20
151.45222595802329
 30
0.0
 40
6.9999999999999849
 50
8.2132107017313896
 51
51.786789298266498
  0
ARC
  5
E8CA
  8
0
 10
22.499999999999972
 20
151.45222595802329
 30
0.0
 40
6.9999999999999849
 50
68.213210701732791
 51
111.78678929826719
  0
TEXT
  5
E98C
  8
0
 62
     3
 10
0.0
 20
0.0
 30
0.0
 40
10.0
  1
LM25NS-8B-SUS
  7
STANDARD1
  0
ENDSEC
  0
EOF
