  0
SECTION
  2
HEADER
  9
$ACADVER
  1
AC1009
  9
$INSBASE
 10
0.0
 20
0.0
 30
0.0
  9
$EXTMIN
 10
0.0
 20
-2.960436562073669
 30
0.0
  9
$EXTMAX
 10
97.830832196452931
 20
161.0100534656271
 30
0.0
  9
$LIMMIN
 10
0.0
 20
0.0
  9
$LIMMAX
 10
375.0
 20
270.0
  9
$ORTHOMODE
 70
     1
  9
$REGENMODE
 70
     1
  9
$FILLMODE
 70
     1
  9
$QTEXTMODE
 70
     0
  9
$MIRRTEXT
 70
     0
  9
$DRAGMODE
 70
     2
  9
$LTSCALE
 40
6.0
  9
$OSMODE
 70
  3071
  9
$ATTMODE
 70
     1
  9
$TEXTSIZE
 40
0.2
  9
$TRACEWID
 40
0.05
  9
$TEXTSTYLE
  7
STANDARD
  9
$CLAYER
  8
0
  9
$CELTYPE
  6
BYLAYER
  9
$CECOLOR
 62
   256
  9
$DIMSCALE
 40
1.0
  9
$DIMASZ
 40
3.0
  9
$DIMEXO
 40
1.0
  9
$DIMDLI
 40
6.0
  9
$DIMRND
 40
0.0
  9
$DIMDLE
 40
0.0
  9
$DIMEXE
 40
1.0
  9
$DIMTP
 40
495.0
  9
$DIMTM
 40
0.0
  9
$DIMTXT
 40
3.0
  9
$DIMCEN
 40
0.0
  9
$DIMTSZ
 40
0.0
  9
$DIMTOL
 70
     0
  9
$DIMLIM
 70
     0
  9
$DIMTIH
 70
     0
  9
$DIMTOH
 70
     0
  9
$DIMSE1
 70
     0
  9
$DIMSE2
 70
     0
  9
$DIMTAD
 70
     1
  9
$DIMZIN
 70
     0
  9
$DIMBLK
  1

  9
$DIMASO
 70
     0
  9
$DIMSHO
 70
     0
  9
$DIMPOST
  1

  9
$DIMAPOST
  1

  9
$DIMALT
 70
     0
  9
$DIMALTD
 70
     2
  9
$DIMALTF
 40
25.399999999999999
  9
$DIMLFAC
 40
1.0
  9
$DIMTOFL
 70
     1
  9
$DIMTVP
 40
0.0
  9
$DIMTIX
 70
     1
  9
$DIMSOXD
 70
     0
  9
$DIMSAH
 70
     0
  9
$DIMBLK1
  1

  9
$DIMBLK2
  1

  9
$DIMSTYLE
  2
STANDARD
  9
$DIMCLRD
 70
     0
  9
$DIMCLRE
 70
     0
  9
$DIMCLRT
 70
     4
  9
$DIMTFAC
 40
1.0
  9
$DIMGAP
 40
1.0
  9
$LUNITS
 70
     2
  9
$LUPREC
 70
     4
  9
$SKETCHINC
 40
0.1
  9
$FILLETRAD
 40
2.0
  9
$AUNITS
 70
     0
  9
$AUPREC
 70
     0
  9
$MENU
  1
C:\R13\WIN\SUPPORT\ACAD-I
  9
$ELEVATION
 40
0.0
  9
$PELEVATION
 40
0.0
  9
$THICKNESS
 40
0.0
  9
$LIMCHECK
 70
     0
  9
$BLIPMODE
 70
     0
  9
$CHAMFERA
 40
0.0
  9
$CHAMFERB
 40
0.0
  9
$SKPOLY
 70
     0
  9
$TDCREATE
 40
2451963.577218229
  9
$TDUPDATE
 40
2456602.6113059949
  9
$TDINDWG
 40
0.2773331134
  9
$TDUSRTIMER
 40
2456598.4435107638
  9
$USRTIMER
 70
     1
  9
$ANGBASE
 50
0.0
  9
$ANGDIR
 70
     0
  9
$PDMODE
 70
     0
  9
$PDSIZE
 40
0.0
  9
$PLINEWID
 40
0.0
  9
$COORDS
 70
     1
  9
$SPLFRAME
 70
     0
  9
$SPLINETYPE
 70
     6
  9
$SPLINESEGS
 70
     8
  9
$ATTDIA
 70
     0
  9
$ATTREQ
 70
     1
  9
$HANDLING
 70
     1
  9
$HANDSEED
  5
DE71
  9
$SURFTAB1
 70
     6
  9
$SURFTAB2
 70
     6
  9
$SURFTYPE
 70
     6
  9
$SURFU
 70
     6
  9
$SURFV
 70
     6
  9
$UCSNAME
  2

  9
$UCSORG
 10
0.0
 20
0.0
 30
0.0
  9
$UCSXDIR
 10
1.0
 20
0.0
 30
0.0
  9
$UCSYDIR
 10
0.0
 20
1.0
 30
0.0
  9
$PUCSNAME
  2

  9
$PUCSORG
 10
0.0
 20
0.0
 30
0.0
  9
$PUCSXDIR
 10
1.0
 20
0.0
 30
0.0
  9
$PUCSYDIR
 10
0.0
 20
1.0
 30
0.0
  9
$USERI1
 70
     4
  9
$USERI2
 70
     1
  9
$USERI3
 70
     0
  9
$USERI4
 70
     0
  9
$USERI5
 70
     0
  9
$USERR1
 40
1.0
  9
$USERR2
 40
3.0
  9
$USERR3
 40
3.0
  9
$USERR4
 40
3.0
  9
$USERR5
 40
10.0
  9
$WORLDVIEW
 70
     1
  9
$SHADEDGE
 70
     3
  9
$SHADEDIF
 70
    70
  9
$TILEMODE
 70
     1
  9
$MAXACTVP
 70
    16
  9
$PLIMCHECK
 70
     0
  9
$PEXTMIN
 10
1.0000000000000000E+020
 20
1.0000000000000000E+020
 30
1.0000000000000000E+020
  9
$PEXTMAX
 10
-1.0000000000000000E+020
 20
-1.0000000000000000E+020
 30
-1.0000000000000000E+020
  9
$PLIMMIN
 10
0.0
 20
0.0
  9
$PLIMMAX
 10
12.0
 20
9.0
  9
$UNITMODE
 70
     0
  9
$VISRETAIN
 70
     0
  9
$PLINEGEN
 70
     0
  9
$PSLTSCALE
 70
     0
  0
ENDSEC
  0
SECTION
  2
TABLES
  0
TABLE
  2
VPORT
 70
     1
  0
VPORT
  2
*ACTIVE
 70
     0
 10
0.0
 20
0.0
 11
1.0
 21
1.0
 12
198.4582157550831
 22
69.992530665874597
 13
0.0
 23
0.0
 14
10.0
 24
10.0
 15
10.0
 25
10.0
 16
0.0
 26
0.0
 36
1.0
 17
0.0
 27
0.0
 37
0.0
 40
276.8478770601468
 41
1.831871345029239
 42
50.0
 43
0.0
 44
0.0
 50
0.0
 51
0.0
 71
    16
 72
   100
 73
     1
 74
     0
 75
     0
 76
     0
 77
     0
 78
     0
  0
ENDTAB
  0
TABLE
  2
LTYPE
 70
     3
  0
LTYPE
  2
CONTINUOUS
 70
     0
  3
Solid Line
 72
    65
 73
     0
 40
0.0
  0
LTYPE
  2
CENTER
 70
     0
  3
____ _ ____ _ ____ _ ____ _ ____ _ ____ _ ____
 72
    65
 73
     4
 40
2.0
 49
1.25
 49
-0.25
 49
0.25
 49
-0.25
  0
LTYPE
  2
PHANTOM2
 70
     0
  3
___ _ _ ___ _ _ ___ _ _ ___ _ _
 72
    65
 73
     6
 40
1.25
 49
0.625
 49
-0.125
 49
0.125
 49
-0.125
 49
0.125
 49
-0.125
  0
ENDTAB
  0
TABLE
  2
LAYER
 70
     3
  0
LAYER
  2
0
 70
     0
 62
     7
  6
CONTINUOUS
  0
LAYER
  2
1
 70
     0
 62
     1
  6
CENTER
  0
LAYER
  2
3
 70
     0
 62
     3
  6
CONTINUOUS
  0
ENDTAB
  0
TABLE
  2
STYLE
 70
     2
  0
STYLE
  2
STANDARD
 70
     0
 40
0.0
 41
1.0
 50
0.0
 71
     0
 42
0.2
  3
SIMPLEX
  4
BIGFONT
  0
STYLE
  2
STANDARD1
 70
     0
 40
0.0
 41
1.0
 50
0.0
 71
     0
 42
3.0
  3
txt
  4

  0
ENDTAB
  0
TABLE
  2
VIEW
 70
     0
  0
ENDTAB
  0
TABLE
  2
UCS
 70
     0
  0
ENDTAB
  0
TABLE
  2
APPID
 70
    29
  0
APPID
  2
ACAD
 70
     0
  0
APPID
  2
GENIUS_GENOREF_13
 70
     0
  0
APPID
  2
GENIUS_GENOENT_13
 70
     0
  0
APPID
  2
GENIUS_GENBH_13
 70
     0
  0
APPID
  2
GENIUS_GENOBJ_13
 70
     0
  0
APPID
  2
GENIUS_GENODEF_13
 70
     0
  0
APPID
  2
GENIUS_GENOLIS_13
 70
     0
  0
APPID
  2
GENIUS_GENOBJ-NBEHI-BHF_13
 70
     0
  0
APPID
  2
GENIUS_GENOBJ-NBEHI-BHB_13
 70
     0
  0
APPID
  2
GENIUS_GENOBJ-F-PART_13
 70
     0
  0
APPID
  2
GENIUS_GEFSTDP_13
 70
     0
  0
APPID
  2
GENIUS_GENOBJ-N-RSSYM_13
 70
     0
  0
APPID
  2
GENIUS_GENSYMENT_13
 70
     0
  0
APPID
  2
GENIUS_GENOBJ-N-TIT_13
 70
     0
  0
APPID
  2
GENIUS_GENTITLE_13
 70
     0
  0
APPID
  2
GENIUS_GENZVEED_13
 70
     0
  0
APPID
  2
GENIUS_GENOBJ-N-LEADER_13
 70
     0
  0
APPID
  2
GENIUS_GENOBJ-N-FIL_13
 70
     0
  0
APPID
  2
GENIUS_GENOBJ-N-SEC_13
 70
     0
  0
APPID
  2
GENIUS_GENOBJ-N-CRS_13
 70
     0
  0
APPID
  2
GENIUS_GENOBJ-N-ZOO_13
 70
     0
  0
APPID
  2
GENIUS_GENZOO_13
 70
     0
  0
APPID
  2
GENIUS_GENOBJ-F-TOL_13
 70
     0
  0
APPID
  2
GENIUS_GENFIL_13
 70
     0
  0
APPID
  2
GENIUS_GENOBJ-N-CHA_13
 70
     0
  0
APPID
  2
_CALL_MAC$
 70
     0
  0
APPID
  2
ACAD_EXEMPT_FROM_CAD_STANDARDS
 70
     0
  0
APPID
  2
ACAD_MLEADERVER
 70
     0
  0
APPID
  2
ACAD_NAV_VCDISPLAY
 70
     0
  0
ENDTAB
  0
TABLE
  2
DIMSTYLE
 70
     1
  0
DIMSTYLE
  2
STANDARD
 70
     0
  3

  4

  5

  6

  7

 40
1.0
 41
0.18
 42
0.0625
 43
0.38
 44
0.18
 45
0.0
 46
0.0
 47
0.0
 48
0.0
140
0.18
141
0.09
142
0.0
143
25.399999999999999
144
1.0
145
0.0
146
1.0
147
0.09
 71
     0
 72
     0
 73
     1
 74
     1
 75
     0
 76
     0
 77
     0
 78
     0
170
     0
171
     2
172
     0
173
     0
174
     0
175
     0
176
     0
177
     0
178
     0
  0
ENDTAB
  0
ENDSEC
  0
SECTION
  2
BLOCKS
  0
BLOCK
  8
0
  2
$MODEL_SPACE
 70
     0
 10
0.0
 20
0.0
 30
0.0
  3
$MODEL_SPACE
  1

  0
ENDBLK
  5
D8CC
  8
0
  0
BLOCK
 67
     1
  8
0
  2
$PAPER_SPACE
 70
     0
 10
0.0
 20
0.0
 30
0.0
  3
$PAPER_SPACE
  1

  0
ENDBLK
  5
D8CA
 67
     1
  8
0
  0
ENDSEC
  0
SECTION
  2
ENTITIES
  0
CIRCLE
  5
D75C
  8
3
 10
26.000000000001219
 20
140.0100534656271
 30
0.0
 40
4.1879999999999988
  0
CIRCLE
  5
D75D
  8
0
 10
26.000000000001219
 20
140.0100534656271
 30
0.0
 40
5.0
  0
LINE
  5
D75E
  8
1
 10
47.000000000001222
 20
140.0100534656271
 30
0.0
 11
5.0000000000012221
 21
140.0100534656271
 31
0.0
  0
LINE
  5
D75F
  8
1
 10
26.000000000001219
 20
161.0100534656271
 30
0.0
 11
26.000000000001219
 21
119.0100534656271
 31
0.0
  0
LINE
  5
D76C
  8
1
 10
79.574974952494927
 20
25.0
 30
0.0
 11
79.574974952496262
 21
108.0
 31
0.0
  0
LINE
  5
D76D
  8
0
 10
74.574974952496177
 20
52.999999999999979
 30
0.0
 11
74.574974952496177
 21
67.144337567298024
 31
0.0
  0
LINE
  5
D76E
  8
0
 10
84.574974952496163
 20
52.999999999999979
 30
0.0
 11
84.574974952496163
 21
67.144337567298024
 31
0.0
  0
LINE
  5
D76F
  8
0
 10
74.574974952496177
 20
101.5000000000001
 30
0.0
 11
84.574974952496163
 21
101.4999999999999
 31
0.0
  0
LINE
  5
D770
  8
3
 10
83.762974952496251
 20
57.500000000000043
 30
0.0
 11
84.574974952496163
 21
56.093574744254269
 31
0.0
  0
LINE
  5
D771
  8
3
 10
75.386974952496075
 20
57.500000000000043
 30
0.0
 11
74.574974952496177
 21
56.093574744254269
 31
0.0
  0
LINE
  5
D772
  8
0
 10
74.574974952496177
 20
57.500000000000043
 30
0.0
 11
84.574974952496163
 21
57.499999999999922
 31
0.0
  0
LINE
  5
D773
  8
0
 10
83.074974952496177
 20
102.9999999999999
 30
0.0
 11
84.574974952496163
 21
101.4999999999999
 31
0.0
  0
LINE
  5
D774
  8
0
 10
74.574974952496177
 20
101.5000000000001
 30
0.0
 11
76.074974952496163
 21
103.0
 31
0.0
  0
LINE
  5
D775
  8
3
 10
75.386974952496075
 20
57.500000000000043
 30
0.0
 11
75.386974952496075
 21
67.144337567298024
 31
0.0
  0
LINE
  5
D776
  8
3
 10
83.762974952496279
 20
57.499999999999922
 30
0.0
 11
83.762974952496279
 21
67.144337567298024
 31
0.0
  0
LINE
  5
D777
  8
0
 10
76.074974952496163
 20
103.0
 30
0.0
 11
83.074974952496177
 21
102.9999999999999
 31
0.0
  0
LINE
  5
D779
  8
0
 10
84.574974952496163
 20
75.144337567297669
 30
0.0
 11
84.574974952496163
 21
101.4999999999999
 31
0.0
  0
LINE
  5
D77A
  8
3
 10
83.762974952496279
 20
75.144337567297697
 30
0.0
 11
83.762974952496279
 21
102.3119999999999
 31
0.0
  0
LINE
  5
D77B
  8
3
 10
75.386974952496075
 20
75.144337567297782
 30
0.0
 11
75.386974952496075
 21
102.312
 31
0.0
  0
LINE
  5
D77C
  8
0
 10
74.574974952496177
 20
75.144337567297796
 30
0.0
 11
74.574974952496177
 21
101.5000000000001
 31
0.0
  0
LINE
  5
D77D
  8
0
 10
21.0
 20
75.144337567297796
 30
0.0
 11
21.0
 21
101.5000000000001
 31
0.0
  0
LINE
  5
D77E
  8
3
 10
21.811999999999902
 20
75.144337567297782
 30
0.0
 11
21.811999999999902
 21
102.312
 31
0.0
  0
LINE
  5
D77F
  8
3
 10
30.188000000000098
 20
75.144337567297697
 30
0.0
 11
30.188000000000098
 21
102.3119999999999
 31
0.0
  0
LINE
  5
D780
  8
0
 10
31.0
 20
75.144337567297669
 30
0.0
 11
31.0
 21
101.4999999999999
 31
0.0
  0
LINE
  5
D791
  8
1
 10
25.999999999999918
 20
25.0
 30
0.0
 11
26.000000000001279
 21
108.0
 31
0.0
  0
LINE
  5
D792
  8
0
 10
22.5
 20
103.0
 30
0.0
 11
29.5
 21
102.9999999999999
 31
0.0
  0
LINE
  5
D793
  8
0
 10
31.0
 20
52.999999999999979
 30
0.0
 11
31.0
 21
67.144337567298024
 31
0.0
  0
LINE
  5
D794
  8
3
 10
30.188000000000098
 20
57.499999999999922
 30
0.0
 11
30.188000000000098
 21
67.144337567298024
 31
0.0
  0
LINE
  5
D795
  8
3
 10
21.811999999999902
 20
57.500000000000043
 30
0.0
 11
21.811999999999902
 21
67.144337567298024
 31
0.0
  0
LINE
  5
D796
  8
0
 10
21.0
 20
52.999999999999979
 30
0.0
 11
21.0
 21
67.144337567298024
 31
0.0
  0
LINE
  5
D797
  8
0
 10
21.0
 20
101.5000000000001
 30
0.0
 11
22.5
 21
103.0
 31
0.0
  0
LINE
  5
D798
  8
0
 10
29.5
 20
102.9999999999999
 30
0.0
 11
31.0
 21
101.4999999999999
 31
0.0
  0
LINE
  5
D799
  8
0
 10
21.0
 20
57.500000000000043
 30
0.0
 11
31.0
 21
57.499999999999922
 31
0.0
  0
LINE
  5
D79A
  8
3
 10
21.811999999999902
 20
57.500000000000043
 30
0.0
 11
21.0
 21
56.093574744254269
 31
0.0
  0
LINE
  5
D79B
  8
3
 10
30.188000000000081
 20
57.500000000000043
 30
0.0
 11
31.0
 21
56.093574744254269
 31
0.0
  0
LINE
  5
D79C
  8
0
 10
21.0
 20
101.5000000000001
 30
0.0
 11
31.0
 21
101.4999999999999
 31
0.0
  0
LINE
  5
D79D
  8
0
 10
71.074974952496632
 20
45.099999999999987
 30
0.0
 11
69.074974952496632
 21
39.0
 31
0.0
  0
LINE
  5
D79E
  8
0
 10
69.074974952496632
 20
39.0
 30
0.0
 11
90.074974952496646
 21
39.0
 31
0.0
  0
LINE
  5
D79F
  8
0
 10
95.074974952496646
 20
30.0
 30
0.0
 11
64.074974952496632
 21
30.0
 31
0.0
  0
LINE
  5
D7A0
  8
0
 10
63.574974952496632
 20
30.5
 30
0.0
 11
95.574974952496632
 21
30.5
 31
0.0
  0
LINE
  5
D7A1
  8
0
 10
95.574974952496632
 20
35.0
 30
0.0
 11
63.574974952496632
 21
35.0
 31
0.0
  0
LINE
  5
D7A2
  8
0
 10
63.574974952496632
 20
30.5
 30
0.0
 11
63.574974952496632
 21
35.0
 31
0.0
  0
LINE
  5
D7A3
  8
0
 10
63.574974952496632
 20
30.5
 30
0.0
 11
64.074974952496632
 21
30.0
 31
0.0
  0
LINE
  5
D7A4
  8
0
 10
69.074974952496632
 20
39.0
 30
0.0
 11
63.574974952496632
 21
35.0
 31
0.0
  0
LINE
  5
D7A5
  8
0
 10
95.574974952496632
 20
35.0
 30
0.0
 11
95.574974952496632
 21
30.5
 31
0.0
  0
LINE
  5
D7A6
  8
0
 10
95.574974952496632
 20
30.5
 30
0.0
 11
95.074974952496646
 21
30.0
 31
0.0
  0
LINE
  5
D7AB
  8
0
 10
88.074974952496632
 20
45.099999999999987
 30
0.0
 11
71.074974952496632
 21
45.099999999999987
 31
0.0
  0
LINE
  5
D7BD
  8
0
 10
88.074974952496632
 20
45.099999999999987
 30
0.0
 11
90.074974952496646
 21
39.0
 31
0.0
  0
LINE
  5
D7BE
  8
0
 10
90.074974952496646
 20
39.0
 30
0.0
 11
95.574974952496632
 21
35.0
 31
0.0
  0
LINE
  5
D7D3
  8
0
 10
36.5
 20
39.0
 30
0.0
 11
42.0
 21
35.0
 31
0.0
  0
LINE
  5
D7D4
  8
0
 10
34.5
 20
45.099999999999987
 30
0.0
 11
36.5
 21
39.0
 31
0.0
  0
LINE
  5
D7D8
  8
0
 10
34.5
 20
45.099999999999987
 30
0.0
 11
17.5
 21
45.099999999999987
 31
0.0
  0
LINE
  5
D7DA
  8
0
 10
42.0
 20
30.5
 30
0.0
 11
41.5
 21
30.0
 31
0.0
  0
LINE
  5
D7DB
  8
0
 10
42.0
 20
35.0
 30
0.0
 11
42.0
 21
30.5
 31
0.0
  0
LINE
  5
D7DC
  8
0
 10
15.5
 20
39.0
 30
0.0
 11
10.0
 21
35.0
 31
0.0
  0
LINE
  5
D7DD
  8
0
 10
10.0
 20
30.5
 30
0.0
 11
10.5
 21
30.0
 31
0.0
  0
LINE
  5
D7DE
  8
0
 10
10.0
 20
30.5
 30
0.0
 11
10.0
 21
35.0
 31
0.0
  0
LINE
  5
D7DF
  8
0
 10
42.0
 20
35.0
 30
0.0
 11
10.0
 21
35.0
 31
0.0
  0
LINE
  5
D7E0
  8
0
 10
10.0
 20
30.5
 30
0.0
 11
42.0
 21
30.5
 31
0.0
  0
LINE
  5
D7E1
  8
0
 10
41.5
 20
30.0
 30
0.0
 11
10.5
 21
30.0
 31
0.0
  0
LINE
  5
D7E2
  8
0
 10
15.5
 20
39.0
 30
0.0
 11
36.5
 21
39.0
 31
0.0
  0
LINE
  5
D7E3
  8
0
 10
17.5
 20
45.099999999999987
 30
0.0
 11
15.5
 21
39.0
 31
0.0
  0
CIRCLE
  5
D7E4
  8
0
 10
26.000000000001219
 20
140.0100534656271
 30
0.0
 40
10.5
  0
CIRCLE
  5
D7E5
  8
0
 10
26.000000000001219
 20
140.0100534656271
 30
0.0
 40
16.0
  0
ARC
  5
DBE7
  8
0
 10
29.749999999999659
 20
42.668942416069001
 30
0.0
 40
10.19517523098923
 50
68.418701944009086
 51
111.58129805598389
  0
LINE
  5
DBE8
  8
0
 10
33.500000000000171
 20
52.864117647058258
 30
0.0
 11
33.264644860853032
 21
53.0
 31
0.0
  0
LINE
  5
DBE9
  8
0
 10
33.500000000000171
 20
48.135882352941159
 30
0.0
 11
33.264644860853032
 21
47.999999999999417
 31
0.0
  0
ARC
  5
DBEA
  8
0
 10
29.750000000000121
 20
58.331057583933131
 30
0.0
 40
10.19517523099198
 50
248.41870194401781
 51
291.58129805598219
  0
LINE
  5
DBEB
  8
0
 10
33.500000000000171
 20
52.864117647058258
 30
0.0
 11
33.500000000000171
 21
48.135882352941159
 31
0.0
  0
LINE
  5
DBEC
  8
0
 10
26.0
 20
52.14940115974656
 30
0.0
 11
26.0
 21
48.850598840252587
 31
0.0
  0
LINE
  5
DBED
  8
0
 10
18.50000000000011
 20
52.864117647058258
 30
0.0
 11
18.50000000000022
 21
48.135882352941159
 31
0.0
  0
LINE
  5
DBEE
  8
0
 10
18.50000000000011
 20
48.135882352941159
 30
0.0
 11
18.735355139147259
 21
47.999999999999417
 31
0.0
  0
ARC
  5
DBEF
  8
0
 10
22.250000000000231
 20
58.331057583930878
 30
0.0
 40
10.195175230989729
 50
248.41870194401429
 51
291.58129805598389
  0
LINE
  5
DBF0
  8
0
 10
18.50000000000011
 20
52.864117647058258
 30
0.0
 11
18.735355139147259
 21
53.0
 31
0.0
  0
ARC
  5
DBF1
  8
0
 10
22.25
 20
42.668942416067011
 30
0.0
 40
10.195175230991209
 50
68.418701944017855
 51
111.5812980559821
  0
LINE
  5
DBF2
  8
0
 10
33.264644860853082
 20
53.0
 30
0.0
 11
18.735355139147259
 21
52.999999999999943
 31
0.0
  0
LINE
  5
DBF3
  8
0
 10
18.735355139146229
 20
48.0
 30
0.0
 11
33.264644860853991
 21
48.0
 31
0.0
  0
LINE
  5
DBF4
  8
0
 10
88.23522899034117
 20
52.14940115974656
 30
0.0
 11
86.8396198133496
 21
53.0
 31
0.0
  0
LINE
  5
DBF5
  8
0
 10
86.839619813350495
 20
48.0
 30
0.0
 11
88.23522899034117
 21
48.850598840252587
 31
0.0
  0
LINE
  5
DBF6
  8
0
 10
88.23522899034117
 20
48.850598840252587
 30
0.0
 11
88.23522899034117
 21
52.14940115974656
 31
0.0
  0
ARC
  5
DBF9
  8
0
 10
79.57497396992585
 20
39.389664134032181
 30
0.0
 40
13.4744535130261
 50
71.254908620169914
 51
108.74508241372931
  0
LINE
  5
DBFA
  8
0
 10
83.905101971418958
 20
48.850598840252587
 30
0.0
 11
83.905101971418958
 21
52.14940115974656
 31
0.0
  0
LINE
  5
DBFB
  8
0
 10
70.914720914652435
 20
52.14940115974656
 30
0.0
 11
72.310330091643891
 21
53.0
 31
0.0
  0
ARC
  5
DBFC
  8
0
 10
73.079784897159925
 20
49.22748564131075
 30
0.0
 40
3.636632005747535
 50
53.4625268374378
 51
116.1856300968346
  0
LINE
  5
DBFD
  8
0
 10
72.310330091643891
 20
48.0
 30
0.0
 11
70.914720914652321
 21
48.850598840252587
 31
0.0
  0
ARC
  5
DBFE
  8
0
 10
73.079784439915329
 20
51.772512973575893
 30
0.0
 40
3.6366306206347478
 50
243.81437710717111
 51
306.53749829871941
  0
LINE
  5
DBFF
  8
0
 10
70.914720914652321
 20
48.850598840252587
 30
0.0
 11
70.914720914652321
 21
52.14940115974656
 31
0.0
  0
LINE
  5
DC00
  8
0
 10
75.244847933574533
 20
48.850598840252587
 30
0.0
 11
75.244847933574533
 21
52.14940115974656
 31
0.0
  0
LINE
  5
DC01
  8
0
 10
86.839619813350495
 20
48.0
 30
0.0
 11
72.310330091643891
 21
48.0
 31
0.0
  0
ARC
  5
DC02
  8
0
 10
79.574974952496746
 20
61.610329913041909
 30
0.0
 40
13.474447560100771
 50
251.2549044421076
 51
288.74509555789228
  0
LINE
  5
DC03
  8
0
 10
86.8396198133496
 20
53.0
 30
0.0
 11
72.310330091643891
 21
53.0
 31
0.0
  0
ARC
  5
DC04
  8
0
 10
86.070165480880163
 20
49.227487074292469
 30
0.0
 40
3.6366305727657409
 50
63.814377356091903
 51
126.5374985476963
  0
ARC
  5
DC06
  8
0
 10
86.070165480880064
 20
51.772512925708071
 30
0.0
 40
3.6366305727669159
 50
233.46250145232
 51
296.18562264390101
  0
ARC
  5
DC1D
  8
0
 10
19.071796769725442
 20
71.107886903594974
 30
0.0
 40
3.8921130964050881
 50
53.60461506406795
 51
113.6046150640713
  0
ARC
  5
DC1E
  8
0
 10
25.999999999999261
 20
60.571259885289763
 30
0.0
 40
14.42878895339766
 50
71.330412083453595
 51
108.66958791653769
  0
LINE
  5
DC1F
  8
0
 10
16.76239569296666
 20
74.240810621445974
 30
0.0
 11
18.327350269190159
 21
75.144337567298194
 31
0.0
  0
LINE
  5
DC20
  8
0
 10
16.76239569296666
 20
68.047864513150003
 30
0.0
 11
18.327350269190159
 21
67.144337567297796
 31
0.0
  0
ARC
  5
DC21
  8
0
 10
19.071796769725442
 20
71.180788230998601
 30
0.0
 40
3.892113096403127
 50
246.39538493594461
 51
306.3953849359545
  0
ARC
  5
DC22
  8
0
 10
25.999999999999829
 20
81.691712844273368
 30
0.0
 40
14.40444135036255
 50
251.2976855897351
 51
288.70231441026999
  0
LINE
  5
DC23
  8
0
 10
16.76239569296666
 20
74.240810621445931
 30
0.0
 11
16.76239569296666
 21
68.04786451315006
 31
0.0
  0
LINE
  5
DC24
  8
0
 10
21.3811978464833
 20
74.240810621445974
 30
0.0
 11
21.381197846483872
 21
68.047864513149833
 31
0.0
  0
LINE
  5
DC25
  8
0
 10
30.618802153518288
 20
74.240810621445974
 30
0.0
 11
30.61880215351761
 21
68.047864513149833
 31
0.0
  0
LINE
  5
DC26
  8
0
 10
35.237604307034701
 20
74.240810621445931
 30
0.0
 11
35.237604307034701
 21
68.04786451315006
 31
0.0
  0
ARC
  5
DC27
  8
0
 10
32.928203230275869
 20
71.18078823099826
 30
0.0
 40
3.892113096402773
 50
233.60461506404539
 51
293.6046150640571
  0
LINE
  5
DC28
  8
0
 10
35.237604307034701
 20
68.047864513150003
 30
0.0
 11
33.672649730811088
 21
67.144337567297796
 31
0.0
  0
LINE
  5
DC29
  8
0
 10
35.237604307034701
 20
74.240810621445974
 30
0.0
 11
33.672649730811088
 21
75.144337567298194
 31
0.0
  0
ARC
  5
DC2A
  8
0
 10
32.928203230275983
 20
71.107886903595258
 30
0.0
 40
3.8921130964047972
 50
66.395384935927012
 51
126.3953849359342
  0
LINE
  5
DC2B
  8
0
 10
18.327350269190159
 20
75.144337567298194
 30
0.0
 11
33.672649730811543
 21
75.144337567297967
 31
0.0
  0
LINE
  5
DC2C
  8
0
 10
33.672649730811543
 20
67.144337567298024
 30
0.0
 11
18.327350269189711
 21
67.144337567298024
 31
0.0
  0
LINE
  5
DC35
  8
0
 10
71.902325221686056
 20
75.144337567297967
 30
0.0
 11
87.247624683305148
 21
75.14433756729774
 31
0.0
  0
ARC
  5
DC42
  8
0
 10
83.574974952494927
 20
64.082850089340795
 30
0.0
 40
10.917149910659139
 50
68.506480123552095
 51
111.49351987644791
  0
LINE
  5
DC43
  8
0
 10
87.574974952494927
 20
74.999999999999957
 30
0.0
 11
87.247624683305148
 21
75.14433756729774
 31
0.0
  0
LINE
  5
DC44
  8
0
 10
87.574974952494927
 20
67.288675134595394
 30
0.0
 11
87.247624683305148
 21
67.144337567298024
 31
0.0
  0
ARC
  5
DC45
  8
0
 10
83.574974952494927
 20
78.205825045254542
 30
0.0
 40
10.91714991065915
 50
248.506480123552
 51
291.49351987644792
  0
LINE
  5
DC46
  8
0
 10
87.574974952494927
 20
74.999999999999957
 30
0.0
 11
87.574974952494927
 21
67.288675134595394
 31
0.0
  0
LINE
  5
DC47
  8
0
 10
79.574974952495154
 20
74.240810621445576
 30
0.0
 11
79.574974952495154
 21
68.047864513149491
 31
0.0
  0
LINE
  5
DC48
  8
0
 10
71.574974952494856
 20
74.999999999999957
 30
0.0
 11
71.574974952494856
 21
67.288675134595394
 31
0.0
  0
LINE
  5
DC49
  8
0
 10
71.574974952494856
 20
67.288675134595394
 30
0.0
 11
71.902325221686056
 21
67.144337567298024
 31
0.0
  0
ARC
  5
DC4A
  8
0
 10
75.57497495249504
 20
78.205825045255963
 30
0.0
 40
10.917149910660561
 50
248.5064801235539
 51
291.4935198764461
  0
LINE
  5
DC4B
  8
0
 10
71.574974952494856
 20
74.999999999999957
 30
0.0
 11
71.902325221686056
 21
75.144337567297967
 31
0.0
  0
ARC
  5
DC4C
  8
0
 10
75.57497495249504
 20
64.082850089339459
 30
0.0
 40
10.917149910660459
 50
68.506480123553871
 51
111.493519876446
  0
LINE
  5
DC4D
  8
0
 10
71.902325221686056
 20
67.144337567298024
 30
0.0
 11
87.247624683305148
 21
67.144337567298024
 31
0.0
  0
CIRCLE
  5
DC52
  8
0
 10
26.000000000001219
 20
140.0100534656271
 30
0.0
 40
7.6726497308095531
  0
LINE
  5
DC53
  8
0
 10
21.38119784648288
 20
132.0100534656271
 30
0.0
 11
30.618802153516899
 21
132.0100534656271
 31
0.0
  0
LINE
  5
DC54
  8
0
 10
21.38119784648288
 20
148.0100534656271
 30
0.0
 11
30.618802153516949
 21
148.0100534656271
 31
0.0
  0
LINE
  5
DC55
  8
0
 10
35.237604307033941
 20
140.0100534656271
 30
0.0
 11
30.618802153516899
 21
132.0100534656271
 31
0.0
  0
LINE
  5
DC56
  8
0
 10
16.762395692965889
 20
140.0100534656271
 30
0.0
 11
21.38119784648288
 21
148.0100534656271
 31
0.0
  0
LINE
  5
DC57
  8
0
 10
35.237604307033941
 20
140.0100534656271
 30
0.0
 11
30.618802153516949
 21
148.0100534656271
 31
0.0
  0
LINE
  5
DC58
  8
0
 10
16.762395692965889
 20
140.0100534656271
 30
0.0
 11
21.38119784648288
 21
132.0100534656271
 31
0.0
  0
LINE
  5
DC59
  8
0
 10
32.521739130434753
 20
47.299991863831451
 30
0.0
 11
32.521739130434753
 21
48.0
 31
0.0
  0
LINE
  5
DC5A
  8
0
 10
19.47826086956519
 20
48.0
 30
0.0
 11
19.47826086956519
 21
47.299991863831451
 31
0.0
  0
ARC
  5
DC5B
  8
0
 10
18.186594202898561
 20
47.29999186383148
 30
0.0
 40
1.2916666666666721
 50
329.78640946338191
 51
0.0
  0
ARC
  5
DC5C
  8
0
 10
33.813405797101439
 20
47.29999186383148
 30
0.0
 40
1.2916666666666681
 50
180.0
 51
210.21359053661811
  0
ARC
  5
DC5D
  8
0
 10
26.000000000000121
 20
42.749999999999943
 30
0.0
 40
7.7500000000001164
 50
149.7864119019753
 51
162.36374042888019
  0
ARC
  5
DC5E
  8
0
 10
25.999999999999829
 20
42.749999999999908
 30
0.0
 40
7.7500000000001616
 50
17.63625957111978
 51
30.213588098024669
  0
LINE
  5
DC5F
  8
0
 10
19.30279500734315
 20
46.649992985420852
 30
0.0
 11
32.69720499265685
 21
46.649992985420852
 31
0.0
  0
LINE
  5
DC60
  8
0
 10
86.096714082931385
 20
47.299991863831451
 30
0.0
 11
86.096714082931385
 21
48.0
 31
0.0
  0
LINE
  5
DC61
  8
0
 10
73.053235822061822
 20
48.0
 30
0.0
 11
73.053235822061822
 21
47.299991863831451
 31
0.0
  0
ARC
  5
DC62
  8
0
 10
71.761569155395193
 20
47.29999186383148
 30
0.0
 40
1.2916666666666721
 50
329.78640946338169
 51
0.0
  0
ARC
  5
DC63
  8
0
 10
87.388380749598056
 20
47.29999186383148
 30
0.0
 40
1.2916666666666681
 50
180.0
 51
210.21359053661811
  0
ARC
  5
DC64
  8
0
 10
79.574974952496746
 20
42.749999999999943
 30
0.0
 40
7.7500000000001164
 50
149.7864119019753
 51
162.36374042888019
  0
ARC
  5
DC65
  8
0
 10
79.574974952496461
 20
42.749999999999908
 30
0.0
 40
7.7500000000001616
 50
17.636259571119759
 51
30.213588098024669
  0
LINE
  5
DC66
  8
0
 10
72.877769959839782
 20
46.649992985420852
 30
0.0
 11
86.272179945153482
 21
46.649992985420852
 31
0.0
  0
LINE
  5
DC67
  8
0
 10
18.500000000001219
 20
144.34018048454931
 30
0.0
 11
18.500000000001219
 21
143.01967240886279
 31
0.0
  0
LINE
  5
DC68
  8
0
 10
18.500000000001219
 20
137.0004345223914
 30
0.0
 11
18.500000000001219
 21
135.67992644670491
 31
0.0
  0
LINE
  5
DC69
  8
0
 10
33.500000000001222
 20
144.34018048454931
 30
0.0
 11
33.500000000001222
 21
143.0196724088583
 31
0.0
  0
LINE
  5
DC6A
  8
0
 10
33.500000000001222
 20
137.00043452239589
 30
0.0
 11
33.500000000001222
 21
135.679926446705
 31
0.0
  0
LINE
  5
DC6B
  8
0
 10
26.000000000001219
 20
148.67030750347149
 30
0.0
 11
24.856406460552279
 21
148.0100534656271
 31
0.0
  0
LINE
  5
DC6C
  8
0
 10
19.643593539448229
 20
145.0004345223926
 30
0.0
 11
18.500000000001219
 21
144.34018048454931
 31
0.0
  0
LINE
  5
DC6D
  8
0
 10
33.500000000001222
 20
135.679926446705
 30
0.0
 11
32.356406460550289
 21
135.01967240885949
 31
0.0
  0
LINE
  5
DC6E
  8
0
 10
27.143593539450109
 20
132.0100534656271
 30
0.0
 11
26.000000000001219
 21
131.3497994277827
 31
0.0
  0
LINE
  5
DC6F
  8
0
 10
26.000000000001219
 20
148.67030750347149
 30
0.0
 11
27.143593539450169
 21
148.0100534656271
 31
0.0
  0
LINE
  5
DC70
  8
0
 10
32.356406460550289
 20
145.00043452239481
 30
0.0
 11
33.500000000001222
 21
144.34018048454931
 31
0.0
  0
LINE
  5
DC71
  8
0
 10
18.500000000001219
 20
135.67992644670491
 30
0.0
 11
19.643593539448229
 21
135.0196724088616
 31
0.0
  0
LINE
  5
DC72
  8
0
 10
24.856406460552218
 20
132.0100534656271
 30
0.0
 11
26.000000000001219
 21
131.3497994277827
 31
0.0
  0
ARC
  5
DD62
  8
0
 10
26.000000000001219
 20
140.0100534656271
 30
0.0
 40
8.5000000000012221
 50
130.2500772043573
 51
148.0724869358682
  0
ARC
  5
DD63
  8
0
 10
26.000000000001219
 20
140.0100534656271
 30
0.0
 40
8.5000000000012221
 50
70.25007720433446
 51
88.072486935869094
  0
ARC
  5
DD64
  8
0
 10
26.000000000001219
 20
140.0100534656271
 30
0.0
 40
8.5000000000012221
 50
10.250077204312261
 51
28.072486935868511
  0
ARC
  5
DD65
  8
0
 10
26.000000000001219
 20
140.0100534656271
 30
0.0
 40
8.5000000000012221
 50
310.25007720431188
 51
328.07248693586871
  0
ARC
  5
DD66
  8
0
 10
26.000000000001219
 20
140.0100534656271
 30
0.0
 40
8.5000000000012221
 50
250.25007720433501
 51
268.07248693586843
  0
ARC
  5
DD67
  8
0
 10
26.000000000001219
 20
140.0100534656271
 30
0.0
 40
8.5000000000012221
 50
190.25007720435701
 51
208.07248693586831
  0
ARC
  5
DD68
  8
0
 10
26.000000000001219
 20
140.0100534656271
 30
0.0
 40
8.5000000000012221
 50
151.92751306413149
 51
169.74992279564259
  0
ARC
  5
DD69
  8
0
 10
26.000000000001219
 20
140.0100534656271
 30
0.0
 40
8.5000000000012221
 50
91.927513064131077
 51
109.7499227956655
  0
ARC
  5
DD6A
  8
0
 10
26.000000000001219
 20
140.0100534656271
 30
0.0
 40
8.5000000000012221
 50
31.92751306413172
 51
49.749922795687731
  0
ARC
  5
DD6B
  8
0
 10
26.000000000001219
 20
140.0100534656271
 30
0.0
 40
8.5000000000012221
 50
331.92751306413169
 51
349.74992279568812
  0
ARC
  5
DD6C
  8
0
 10
26.000000000001219
 20
140.0100534656271
 30
0.0
 40
8.5000000000012221
 50
271.92751306413152
 51
289.74992279566499
  0
ARC
  5
DD6D
  8
0
 10
26.000000000001219
 20
140.0100534656271
 30
0.0
 40
8.5000000000012221
 50
211.927513064132
 51
229.74992279564219
  0
TEXT
  5
DE04
  8
0
 62
     3
 10
0.0
 20
0.0
 30
0.0
 40
10.0
  1
LM32-10A-SUS
  7
STANDARD1
  0
ENDSEC
  0
EOF
