  0
SECTION
  2
HEADER
  9
$ACADVER
  1
AC1009
  9
$INSBASE
 10
0.0
 20
0.0
 30
0.0
  9
$EXTMIN
 10
0.0
 20
-2.960436562073669
 30
0.0
  9
$EXTMAX
 10
97.830832196452931
 20
191.0100534656271
 30
0.0
  9
$LIMMIN
 10
0.0
 20
0.0
  9
$LIMMAX
 10
375.0
 20
270.0
  9
$ORTHOMODE
 70
     1
  9
$REGENMODE
 70
     1
  9
$FILLMODE
 70
     1
  9
$QTEXTMODE
 70
     0
  9
$MIRRTEXT
 70
     0
  9
$DRAGMODE
 70
     2
  9
$LTSCALE
 40
6.0
  9
$OSMODE
 70
  3071
  9
$ATTMODE
 70
     1
  9
$TEXTSIZE
 40
0.2
  9
$TRACEWID
 40
0.05
  9
$TEXTSTYLE
  7
STANDARD
  9
$CLAYER
  8
0
  9
$CELTYPE
  6
BYLAYER
  9
$CECOLOR
 62
   256
  9
$DIMSCALE
 40
1.0
  9
$DIMASZ
 40
3.0
  9
$DIMEXO
 40
1.0
  9
$DIMDLI
 40
6.0
  9
$DIMRND
 40
0.0
  9
$DIMDLE
 40
0.0
  9
$DIMEXE
 40
1.0
  9
$DIMTP
 40
495.0
  9
$DIMTM
 40
0.0
  9
$DIMTXT
 40
3.0
  9
$DIMCEN
 40
0.0
  9
$DIMTSZ
 40
0.0
  9
$DIMTOL
 70
     0
  9
$DIMLIM
 70
     0
  9
$DIMTIH
 70
     0
  9
$DIMTOH
 70
     0
  9
$DIMSE1
 70
     0
  9
$DIMSE2
 70
     0
  9
$DIMTAD
 70
     1
  9
$DIMZIN
 70
     0
  9
$DIMBLK
  1

  9
$DIMASO
 70
     0
  9
$DIMSHO
 70
     0
  9
$DIMPOST
  1

  9
$DIMAPOST
  1

  9
$DIMALT
 70
     0
  9
$DIMALTD
 70
     2
  9
$DIMALTF
 40
25.399999999999999
  9
$DIMLFAC
 40
1.0
  9
$DIMTOFL
 70
     1
  9
$DIMTVP
 40
0.0
  9
$DIMTIX
 70
     1
  9
$DIMSOXD
 70
     0
  9
$DIMSAH
 70
     0
  9
$DIMBLK1
  1

  9
$DIMBLK2
  1

  9
$DIMSTYLE
  2
STANDARD
  9
$DIMCLRD
 70
     0
  9
$DIMCLRE
 70
     0
  9
$DIMCLRT
 70
     4
  9
$DIMTFAC
 40
1.0
  9
$DIMGAP
 40
1.0
  9
$LUNITS
 70
     2
  9
$LUPREC
 70
     4
  9
$SKETCHINC
 40
0.1
  9
$FILLETRAD
 40
2.0
  9
$AUNITS
 70
     0
  9
$AUPREC
 70
     0
  9
$MENU
  1
C:\R13\WIN\SUPPORT\ACAD-I
  9
$ELEVATION
 40
0.0
  9
$PELEVATION
 40
0.0
  9
$THICKNESS
 40
0.0
  9
$LIMCHECK
 70
     0
  9
$BLIPMODE
 70
     0
  9
$CHAMFERA
 40
0.0
  9
$CHAMFERB
 40
0.0
  9
$SKPOLY
 70
     0
  9
$TDCREATE
 40
2451963.579255532
  9
$TDUPDATE
 40
2456602.610094456
  9
$TDINDWG
 40
0.0654499537
  9
$TDUSRTIMER
 40
2456598.4432413429
  9
$USRTIMER
 70
     1
  9
$ANGBASE
 50
0.0
  9
$ANGDIR
 70
     0
  9
$PDMODE
 70
     0
  9
$PDSIZE
 40
0.0
  9
$PLINEWID
 40
0.0
  9
$COORDS
 70
     1
  9
$SPLFRAME
 70
     0
  9
$SPLINETYPE
 70
     6
  9
$SPLINESEGS
 70
     8
  9
$ATTDIA
 70
     0
  9
$ATTREQ
 70
     1
  9
$HANDLING
 70
     1
  9
$HANDSEED
  5
DE5A
  9
$SURFTAB1
 70
     6
  9
$SURFTAB2
 70
     6
  9
$SURFTYPE
 70
     6
  9
$SURFU
 70
     6
  9
$SURFV
 70
     6
  9
$UCSNAME
  2

  9
$UCSORG
 10
0.0
 20
0.0
 30
0.0
  9
$UCSXDIR
 10
1.0
 20
0.0
 30
0.0
  9
$UCSYDIR
 10
0.0
 20
1.0
 30
0.0
  9
$PUCSNAME
  2

  9
$PUCSORG
 10
0.0
 20
0.0
 30
0.0
  9
$PUCSXDIR
 10
1.0
 20
0.0
 30
0.0
  9
$PUCSYDIR
 10
0.0
 20
1.0
 30
0.0
  9
$USERI1
 70
     4
  9
$USERI2
 70
     1
  9
$USERI3
 70
     0
  9
$USERI4
 70
     0
  9
$USERI5
 70
     0
  9
$USERR1
 40
1.0
  9
$USERR2
 40
3.0
  9
$USERR3
 40
3.0
  9
$USERR4
 40
3.0
  9
$USERR5
 40
10.0
  9
$WORLDVIEW
 70
     1
  9
$SHADEDGE
 70
     3
  9
$SHADEDIF
 70
    70
  9
$TILEMODE
 70
     1
  9
$MAXACTVP
 70
    16
  9
$PLIMCHECK
 70
     0
  9
$PEXTMIN
 10
1.0000000000000000E+020
 20
1.0000000000000000E+020
 30
1.0000000000000000E+020
  9
$PEXTMAX
 10
-1.0000000000000000E+020
 20
-1.0000000000000000E+020
 30
-1.0000000000000000E+020
  9
$PLIMMIN
 10
0.0
 20
0.0
  9
$PLIMMAX
 10
12.0
 20
9.0
  9
$UNITMODE
 70
     0
  9
$VISRETAIN
 70
     0
  9
$PLINEGEN
 70
     0
  9
$PSLTSCALE
 70
     0
  0
ENDSEC
  0
SECTION
  2
TABLES
  0
TABLE
  2
VPORT
 70
     1
  0
VPORT
  2
*ACTIVE
 70
     0
 10
0.0
 20
0.0
 11
1.0
 21
1.0
 12
180.48491765894269
 22
60.77210301354836
 13
0.0
 23
0.0
 14
10.0
 24
10.0
 15
10.0
 25
10.0
 16
0.0
 26
0.0
 36
1.0
 17
0.0
 27
0.0
 37
0.0
 40
276.8478770601468
 41
1.831871345029239
 42
50.0
 43
0.0
 44
0.0
 50
0.0
 51
0.0
 71
    16
 72
   100
 73
     1
 74
     0
 75
     0
 76
     0
 77
     0
 78
     0
  0
ENDTAB
  0
TABLE
  2
LTYPE
 70
     3
  0
LTYPE
  2
CONTINUOUS
 70
     0
  3
Solid Line
 72
    65
 73
     0
 40
0.0
  0
LTYPE
  2
CENTER
 70
     0
  3
____ _ ____ _ ____ _ ____ _ ____ _ ____ _ ____
 72
    65
 73
     4
 40
2.0
 49
1.25
 49
-0.25
 49
0.25
 49
-0.25
  0
LTYPE
  2
PHANTOM2
 70
     0
  3
___ _ _ ___ _ _ ___ _ _ ___ _ _
 72
    65
 73
     6
 40
1.25
 49
0.625
 49
-0.125
 49
0.125
 49
-0.125
 49
0.125
 49
-0.125
  0
ENDTAB
  0
TABLE
  2
LAYER
 70
     3
  0
LAYER
  2
0
 70
     0
 62
     7
  6
CONTINUOUS
  0
LAYER
  2
1
 70
     0
 62
     1
  6
CENTER
  0
LAYER
  2
3
 70
     0
 62
     3
  6
CONTINUOUS
  0
ENDTAB
  0
TABLE
  2
STYLE
 70
     2
  0
STYLE
  2
STANDARD
 70
     0
 40
0.0
 41
1.0
 50
0.0
 71
     0
 42
0.2
  3
SIMPLEX
  4
BIGFONT
  0
STYLE
  2
STANDARD1
 70
     0
 40
0.0
 41
1.0
 50
0.0
 71
     0
 42
3.0
  3
txt
  4

  0
ENDTAB
  0
TABLE
  2
VIEW
 70
     0
  0
ENDTAB
  0
TABLE
  2
UCS
 70
     0
  0
ENDTAB
  0
TABLE
  2
APPID
 70
    29
  0
APPID
  2
ACAD
 70
     0
  0
APPID
  2
GENIUS_GENOREF_13
 70
     0
  0
APPID
  2
GENIUS_GENOENT_13
 70
     0
  0
APPID
  2
GENIUS_GENBH_13
 70
     0
  0
APPID
  2
GENIUS_GENOBJ_13
 70
     0
  0
APPID
  2
GENIUS_GENODEF_13
 70
     0
  0
APPID
  2
GENIUS_GENOLIS_13
 70
     0
  0
APPID
  2
GENIUS_GENOBJ-NBEHI-BHF_13
 70
     0
  0
APPID
  2
GENIUS_GENOBJ-NBEHI-BHB_13
 70
     0
  0
APPID
  2
GENIUS_GENOBJ-F-PART_13
 70
     0
  0
APPID
  2
GENIUS_GEFSTDP_13
 70
     0
  0
APPID
  2
GENIUS_GENOBJ-N-RSSYM_13
 70
     0
  0
APPID
  2
GENIUS_GENSYMENT_13
 70
     0
  0
APPID
  2
GENIUS_GENOBJ-N-TIT_13
 70
     0
  0
APPID
  2
GENIUS_GENTITLE_13
 70
     0
  0
APPID
  2
GENIUS_GENZVEED_13
 70
     0
  0
APPID
  2
GENIUS_GENOBJ-N-LEADER_13
 70
     0
  0
APPID
  2
GENIUS_GENOBJ-N-FIL_13
 70
     0
  0
APPID
  2
GENIUS_GENOBJ-N-SEC_13
 70
     0
  0
APPID
  2
GENIUS_GENOBJ-N-CRS_13
 70
     0
  0
APPID
  2
GENIUS_GENOBJ-N-ZOO_13
 70
     0
  0
APPID
  2
GENIUS_GENZOO_13
 70
     0
  0
APPID
  2
GENIUS_GENOBJ-F-TOL_13
 70
     0
  0
APPID
  2
GENIUS_GENFIL_13
 70
     0
  0
APPID
  2
GENIUS_GENOBJ-N-CHA_13
 70
     0
  0
APPID
  2
_CALL_MAC$
 70
     0
  0
APPID
  2
ACAD_EXEMPT_FROM_CAD_STANDARDS
 70
     0
  0
APPID
  2
ACAD_MLEADERVER
 70
     0
  0
APPID
  2
ACAD_NAV_VCDISPLAY
 70
     0
  0
ENDTAB
  0
TABLE
  2
DIMSTYLE
 70
     1
  0
DIMSTYLE
  2
STANDARD
 70
     0
  3

  4

  5

  6

  7

 40
1.0
 41
0.18
 42
0.0625
 43
0.38
 44
0.18
 45
0.0
 46
0.0
 47
0.0
 48
0.0
140
0.18
141
0.09
142
0.0
143
25.399999999999999
144
1.0
145
0.0
146
1.0
147
0.09
 71
     0
 72
     0
 73
     1
 74
     1
 75
     0
 76
     0
 77
     0
 78
     0
170
     0
171
     2
172
     0
173
     0
174
     0
175
     0
176
     0
177
     0
178
     0
  0
ENDTAB
  0
ENDSEC
  0
SECTION
  2
BLOCKS
  0
BLOCK
  8
0
  2
$MODEL_SPACE
 70
     0
 10
0.0
 20
0.0
 30
0.0
  3
$MODEL_SPACE
  1

  0
ENDBLK
  5
DA18
  8
0
  0
BLOCK
 67
     1
  8
0
  2
$PAPER_SPACE
 70
     0
 10
0.0
 20
0.0
 30
0.0
  3
$PAPER_SPACE
  1

  0
ENDBLK
  5
DA16
 67
     1
  8
0
  0
ENDSEC
  0
SECTION
  2
ENTITIES
  0
CIRCLE
  5
D8B0
  8
0
 10
26.000000000001251
 20
170.0100534656271
 30
0.0
 40
16.0
  0
CIRCLE
  5
D8B1
  8
0
 10
26.000000000001251
 20
170.0100534656271
 30
0.0
 40
10.5
  0
LINE
  5
D8B2
  8
0
 10
17.5
 20
45.099999999999987
 30
0.0
 11
15.5
 21
39.0
 31
0.0
  0
LINE
  5
D8B3
  8
0
 10
15.5
 20
39.0
 30
0.0
 11
36.5
 21
39.0
 31
0.0
  0
LINE
  5
D8B4
  8
0
 10
41.5
 20
30.0
 30
0.0
 11
10.5
 21
30.0
 31
0.0
  0
LINE
  5
D8B5
  8
0
 10
10.0
 20
30.5
 30
0.0
 11
42.0
 21
30.5
 31
0.0
  0
LINE
  5
D8B6
  8
0
 10
42.0
 20
35.0
 30
0.0
 11
10.0
 21
35.0
 31
0.0
  0
LINE
  5
D8B7
  8
0
 10
10.0
 20
30.5
 30
0.0
 11
10.0
 21
35.0
 31
0.0
  0
LINE
  5
D8B8
  8
0
 10
10.0
 20
30.5
 30
0.0
 11
10.5
 21
30.0
 31
0.0
  0
LINE
  5
D8B9
  8
0
 10
15.5
 20
39.0
 30
0.0
 11
10.0
 21
35.0
 31
0.0
  0
LINE
  5
D8BA
  8
0
 10
42.0
 20
35.0
 30
0.0
 11
42.0
 21
30.5
 31
0.0
  0
LINE
  5
D8BB
  8
0
 10
42.0
 20
30.5
 30
0.0
 11
41.5
 21
30.0
 31
0.0
  0
LINE
  5
D8BD
  8
0
 10
34.5
 20
45.099999999999987
 30
0.0
 11
17.5
 21
45.099999999999987
 31
0.0
  0
LINE
  5
D8C1
  8
0
 10
34.5
 20
45.099999999999987
 30
0.0
 11
36.5
 21
39.0
 31
0.0
  0
LINE
  5
D8C2
  8
0
 10
36.5
 20
39.0
 30
0.0
 11
42.0
 21
35.0
 31
0.0
  0
ARC
  5
D8C5
  8
0
 10
29.749999999999659
 20
42.66894241606898
 30
0.0
 40
10.19517523098923
 50
68.418701944009086
 51
111.58129805598389
  0
LINE
  5
D8C6
  8
0
 10
33.500000000000171
 20
52.864117647058258
 30
0.0
 11
33.264644860853032
 21
53.0
 31
0.0
  0
LINE
  5
D8C7
  8
0
 10
33.500000000000171
 20
48.135882352941159
 30
0.0
 11
33.264644860853032
 21
47.999999999999417
 31
0.0
  0
ARC
  5
D8C8
  8
0
 10
29.750000000000121
 20
58.331057583933131
 30
0.0
 40
10.19517523099198
 50
248.41870194401801
 51
291.58129805598202
  0
LINE
  5
D8C9
  8
0
 10
33.500000000000171
 20
52.864117647058258
 30
0.0
 11
33.500000000000171
 21
48.135882352941159
 31
0.0
  0
LINE
  5
D8CA
  8
0
 10
26.0
 20
52.14940115974656
 30
0.0
 11
26.0
 21
48.850598840252587
 31
0.0
  0
LINE
  5
D8CB
  8
0
 10
18.500000000000139
 20
52.864117647058251
 30
0.0
 11
18.500000000000249
 21
48.135882352941152
 31
0.0
  0
LINE
  5
D8CC
  8
0
 10
18.500000000000139
 20
48.135882352941152
 30
0.0
 11
18.735355139147291
 21
47.999999999999417
 31
0.0
  0
ARC
  5
D8CD
  8
0
 10
22.250000000000259
 20
58.331057583930878
 30
0.0
 40
10.195175230989729
 50
248.41870194401429
 51
291.58129805598372
  0
LINE
  5
D8CE
  8
0
 10
18.500000000000139
 20
52.864117647058251
 30
0.0
 11
18.735355139147291
 21
52.999999999999979
 31
0.0
  0
ARC
  5
D8CF
  8
0
 10
22.25
 20
42.668942416067019
 30
0.0
 40
10.195175230991209
 50
68.418701944017855
 51
111.5812980559821
  0
LINE
  5
D8D0
  8
0
 10
33.264644860853082
 20
52.999999999999979
 30
0.0
 11
18.735355139147291
 21
52.999999999999957
 31
0.0
  0
LINE
  5
D8D1
  8
0
 10
18.735355139146229
 20
47.999999999999979
 30
0.0
 11
33.26464486085402
 21
48.0
 31
0.0
  0
LINE
  5
D8D2
  8
0
 10
88.235228990341156
 20
52.14940115974656
 30
0.0
 11
86.839619813349586
 21
53.0
 31
0.0
  0
LINE
  5
D8D5
  8
0
 10
86.839619813350481
 20
48.0
 30
0.0
 11
88.235228990341156
 21
48.850598840252587
 31
0.0
  0
LINE
  5
D8D6
  8
0
 10
88.235228990341156
 20
48.850598840252587
 30
0.0
 11
88.235228990341156
 21
52.14940115974656
 31
0.0
  0
LINE
  5
D8D7
  8
0
 10
90.074974952496646
 20
39.0
 30
0.0
 11
95.574974952496632
 21
35.0
 31
0.0
  0
LINE
  5
D8D8
  8
0
 10
88.074974952496632
 20
45.099999999999987
 30
0.0
 11
90.074974952496646
 21
39.0
 31
0.0
  0
ARC
  5
D8D9
  8
0
 10
79.574973969925821
 20
39.389664134032181
 30
0.0
 40
13.4744535130261
 50
71.254908620169914
 51
108.74508241372931
  0
LINE
  5
D8DB
  8
0
 10
83.905101971418915
 20
48.850598840252587
 30
0.0
 11
83.905101971418915
 21
52.14940115974656
 31
0.0
  0
LINE
  5
D8DC
  8
0
 10
70.914720914652406
 20
52.14940115974656
 30
0.0
 11
72.310330091643863
 21
53.0
 31
0.0
  0
ARC
  5
D8DD
  8
0
 10
73.079784897159897
 20
49.227485641310729
 30
0.0
 40
3.636632005747535
 50
53.4625268374378
 51
116.1856300968346
  0
LINE
  5
D8DE
  8
0
 10
72.310330091643863
 20
48.0
 30
0.0
 11
70.914720914652335
 21
48.850598840252587
 31
0.0
  0
ARC
  5
D8E1
  8
0
 10
73.079784439915301
 20
51.772512973575871
 30
0.0
 40
3.6366306206347478
 50
243.81437710717131
 51
306.53749829871941
  0
LINE
  5
D8E2
  8
0
 10
70.914720914652335
 20
48.850598840252587
 30
0.0
 11
70.914720914652335
 21
52.14940115974656
 31
0.0
  0
LINE
  5
D8E3
  8
0
 10
75.244847933574562
 20
48.850598840252587
 30
0.0
 11
75.244847933574562
 21
52.14940115974656
 31
0.0
  0
LINE
  5
D8E6
  8
0
 10
86.839619813350481
 20
48.0
 30
0.0
 11
72.310330091643863
 21
48.0
 31
0.0
  0
ARC
  5
D8E7
  8
0
 10
79.574974952496717
 20
61.610329913041909
 30
0.0
 40
13.474447560100771
 50
251.2549044421076
 51
288.74509555789228
  0
LINE
  5
D8E8
  8
0
 10
86.839619813349586
 20
53.0
 30
0.0
 11
72.310330091643863
 21
53.0
 31
0.0
  0
ARC
  5
D8E9
  8
0
 10
86.070165480880149
 20
49.227487074292483
 30
0.0
 40
3.6366305727657409
 50
63.814377356091903
 51
126.537498547696
  0
LINE
  5
D8EA
  8
0
 10
88.074974952496632
 20
45.099999999999987
 30
0.0
 11
71.074974952496632
 21
45.099999999999987
 31
0.0
  0
ARC
  5
D8EC
  8
0
 10
86.070165480880036
 20
51.772512925708071
 30
0.0
 40
3.6366305727669159
 50
233.46250145232
 51
296.18562264390101
  0
LINE
  5
D8EF
  8
0
 10
95.574974952496632
 20
30.5
 30
0.0
 11
95.074974952496646
 21
30.0
 31
0.0
  0
LINE
  5
D8F0
  8
0
 10
95.574974952496632
 20
35.0
 30
0.0
 11
95.574974952496632
 21
30.5
 31
0.0
  0
LINE
  5
D8F1
  8
0
 10
69.074974952496632
 20
39.0
 30
0.0
 11
63.574974952496632
 21
35.0
 31
0.0
  0
LINE
  5
D8F2
  8
0
 10
63.574974952496632
 20
30.5
 30
0.0
 11
64.074974952496632
 21
30.0
 31
0.0
  0
LINE
  5
D8F3
  8
0
 10
63.574974952496632
 20
30.5
 30
0.0
 11
63.574974952496632
 21
35.0
 31
0.0
  0
LINE
  5
D8F4
  8
0
 10
95.574974952496632
 20
35.0
 30
0.0
 11
63.574974952496632
 21
35.0
 31
0.0
  0
LINE
  5
D8F5
  8
0
 10
63.574974952496632
 20
30.5
 30
0.0
 11
95.574974952496632
 21
30.5
 31
0.0
  0
LINE
  5
D8F6
  8
0
 10
95.074974952496646
 20
30.0
 30
0.0
 11
64.074974952496632
 21
30.0
 31
0.0
  0
LINE
  5
D8F7
  8
0
 10
69.074974952496632
 20
39.0
 30
0.0
 11
90.074974952496646
 21
39.0
 31
0.0
  0
LINE
  5
D8F8
  8
0
 10
71.074974952496632
 20
45.099999999999987
 30
0.0
 11
69.074974952496632
 21
39.0
 31
0.0
  0
LINE
  5
D8F9
  8
0
 10
21.0
 20
131.5
 30
0.0
 11
31.0
 21
131.49999999999989
 31
0.0
  0
LINE
  5
D8FA
  8
3
 10
30.188000000000098
 20
57.500000000000057
 30
0.0
 11
31.0
 21
56.093574744254283
 31
0.0
  0
LINE
  5
D8FB
  8
3
 10
21.811999999999902
 20
57.500000000000057
 30
0.0
 11
21.0
 21
56.093574744254283
 31
0.0
  0
LINE
  5
D8FC
  8
0
 10
21.0
 20
57.500000000000057
 30
0.0
 11
31.0
 21
57.499999999999943
 31
0.0
  0
LINE
  5
D8FD
  8
0
 10
29.5
 20
132.99999999999989
 30
0.0
 11
31.0
 21
131.49999999999989
 31
0.0
  0
LINE
  5
D8FE
  8
0
 10
21.0
 20
131.5
 30
0.0
 11
22.5
 21
133.0
 31
0.0
  0
LINE
  5
D8FF
  8
0
 10
21.0
 20
53.0
 30
0.0
 11
21.0
 21
67.14433756729801
 31
0.0
  0
LINE
  5
D900
  8
3
 10
21.811999999999902
 20
57.500000000000057
 30
0.0
 11
21.811999999999902
 21
67.14433756729801
 31
0.0
  0
LINE
  5
D901
  8
3
 10
30.188000000000098
 20
57.499999999999943
 30
0.0
 11
30.188000000000098
 21
67.14433756729801
 31
0.0
  0
LINE
  5
D902
  8
0
 10
31.0
 20
53.0
 30
0.0
 11
31.0
 21
67.14433756729801
 31
0.0
  0
LINE
  5
D903
  8
0
 10
22.5
 20
133.0
 30
0.0
 11
29.5
 21
132.99999999999989
 31
0.0
  0
LINE
  5
D904
  8
1
 10
25.99999999999989
 20
25.0
 30
0.0
 11
26.000000000001251
 21
138.0
 31
0.0
  0
ARC
  5
D905
  8
0
 10
19.071796769724699
 20
71.107886903594959
 30
0.0
 40
3.8921130964050881
 50
53.604615064067659
 51
113.6046150640712
  0
ARC
  5
D906
  8
0
 10
25.999999999998519
 20
60.571259885289727
 30
0.0
 40
14.42878895339766
 50
71.330412083453481
 51
108.66958791653791
  0
LINE
  5
D907
  8
0
 10
16.762395692965889
 20
74.240810621445974
 30
0.0
 11
18.327350269189392
 21
75.14433756729818
 31
0.0
  0
LINE
  5
D908
  8
0
 10
16.762395692965889
 20
68.047864513149989
 30
0.0
 11
18.327350269189392
 21
67.144337567297782
 31
0.0
  0
ARC
  5
D909
  8
0
 10
19.071796769724699
 20
71.180788230998601
 30
0.0
 40
3.892113096403127
 50
246.39538493594461
 51
306.39538493595421
  0
ARC
  5
D90A
  8
0
 10
25.999999999999059
 20
81.691712844273354
 30
0.0
 40
14.40444135036255
 50
251.2976855897351
 51
288.70231441026999
  0
LINE
  5
D90B
  8
0
 10
16.762395692965889
 20
74.240810621445917
 30
0.0
 11
16.762395692965889
 21
68.047864513150046
 31
0.0
  0
LINE
  5
D90C
  8
0
 10
21.381197846482571
 20
74.240810621445974
 30
0.0
 11
21.381197846483129
 21
68.047864513149804
 31
0.0
  0
LINE
  5
D90D
  8
0
 10
30.618802153517549
 20
74.240810621445974
 30
0.0
 11
30.618802153516871
 21
68.047864513149804
 31
0.0
  0
LINE
  5
D90E
  8
0
 10
35.23760430703399
 20
74.240810621445917
 30
0.0
 11
35.23760430703399
 21
68.047864513150046
 31
0.0
  0
ARC
  5
D90F
  8
0
 10
32.928203230275159
 20
71.180788230998232
 30
0.0
 40
3.892113096402773
 50
233.60461506404519
 51
293.6046150640571
  0
LINE
  5
D910
  8
0
 10
35.23760430703399
 20
68.047864513149989
 30
0.0
 11
33.672649730810377
 21
67.144337567297782
 31
0.0
  0
LINE
  5
D911
  8
0
 10
35.23760430703399
 20
74.240810621445974
 30
0.0
 11
33.672649730810377
 21
75.14433756729818
 31
0.0
  0
ARC
  5
D912
  8
0
 10
32.928203230275251
 20
71.107886903595244
 30
0.0
 40
3.8921130964047972
 50
66.395384935927012
 51
126.3953849359342
  0
LINE
  5
D913
  8
0
 10
18.327350269189392
 20
75.144337567298166
 30
0.0
 11
33.672649730810768
 21
75.144337567297967
 31
0.0
  0
LINE
  5
D914
  8
0
 10
33.672649730810768
 20
67.14433756729801
 30
0.0
 11
18.327350269189001
 21
67.14433756729801
 31
0.0
  0
LINE
  5
D915
  8
0
 10
31.0
 20
75.144337567297995
 30
0.0
 11
31.0
 21
131.49999999999989
 31
0.0
  0
LINE
  5
D916
  8
3
 10
30.188000000000098
 20
75.144337567298066
 30
0.0
 11
30.188000000000098
 21
132.3119999999999
 31
0.0
  0
LINE
  5
D917
  8
3
 10
21.811999999999902
 20
75.144337567298123
 30
0.0
 11
21.811999999999902
 21
132.3119999999999
 31
0.0
  0
LINE
  5
D918
  8
0
 10
21.0
 20
75.144337567298152
 30
0.0
 11
21.0
 21
131.5
 31
0.0
  0
LINE
  5
D919
  8
0
 10
74.574974952496177
 20
75.144337567298152
 30
0.0
 11
74.574974952496177
 21
131.5
 31
0.0
  0
LINE
  5
D91A
  8
3
 10
75.386974952496075
 20
75.144337567298123
 30
0.0
 11
75.386974952496075
 21
132.3119999999999
 31
0.0
  0
LINE
  5
D91B
  8
3
 10
83.762974952496279
 20
75.144337567298066
 30
0.0
 11
83.762974952496279
 21
132.3119999999999
 31
0.0
  0
LINE
  5
D91C
  8
0
 10
84.574974952496163
 20
75.144337567297995
 30
0.0
 11
84.574974952496163
 21
131.49999999999989
 31
0.0
  0
LINE
  5
D91D
  8
0
 10
71.90232522168813
 20
75.144337567298052
 30
0.0
 11
87.247624683307237
 21
75.144337567297853
 31
0.0
  0
LINE
  5
D91E
  8
0
 10
76.074974952496163
 20
133.0
 30
0.0
 11
83.074974952496177
 21
132.99999999999989
 31
0.0
  0
LINE
  5
D91F
  8
3
 10
83.762974952496279
 20
57.499999999999943
 30
0.0
 11
83.762974952496279
 21
67.14433756729801
 31
0.0
  0
LINE
  5
D920
  8
3
 10
75.386974952496075
 20
57.500000000000057
 30
0.0
 11
75.386974952496075
 21
67.14433756729801
 31
0.0
  0
LINE
  5
D921
  8
0
 10
74.574974952496177
 20
131.5
 30
0.0
 11
76.074974952496163
 21
133.0
 31
0.0
  0
LINE
  5
D922
  8
0
 10
83.074974952496177
 20
132.99999999999989
 30
0.0
 11
84.574974952496163
 21
131.49999999999989
 31
0.0
  0
LINE
  5
D923
  8
0
 10
74.574974952496177
 20
57.500000000000057
 30
0.0
 11
84.574974952496163
 21
57.499999999999943
 31
0.0
  0
LINE
  5
D924
  8
3
 10
75.386974952496075
 20
57.500000000000057
 30
0.0
 11
74.574974952496177
 21
56.093574744254283
 31
0.0
  0
LINE
  5
D925
  8
3
 10
83.762974952496279
 20
57.500000000000057
 30
0.0
 11
84.574974952496163
 21
56.093574744254283
 31
0.0
  0
LINE
  5
D926
  8
0
 10
74.574974952496177
 20
131.5
 30
0.0
 11
84.574974952496163
 21
131.49999999999989
 31
0.0
  0
LINE
  5
D927
  8
0
 10
84.574974952496163
 20
53.0
 30
0.0
 11
84.574974952496163
 21
67.14433756729801
 31
0.0
  0
LINE
  5
D928
  8
0
 10
74.574974952496177
 20
53.0
 30
0.0
 11
74.574974952496177
 21
67.14433756729801
 31
0.0
  0
LINE
  5
D929
  8
1
 10
79.574974952496376
 20
25.0
 30
0.0
 11
79.57497495249774
 21
138.0
 31
0.0
  0
ARC
  5
D92A
  8
0
 10
83.574974952496973
 20
64.082850089340894
 30
0.0
 40
10.917149910659139
 50
68.506480123552095
 51
111.49351987644791
  0
LINE
  5
D92B
  8
0
 10
87.574974952496945
 20
75.000000000000057
 30
0.0
 11
87.247624683307237
 21
75.144337567297853
 31
0.0
  0
LINE
  5
D92C
  8
0
 10
87.574974952496945
 20
67.288675134595508
 30
0.0
 11
87.247624683307237
 21
67.144337567298123
 31
0.0
  0
ARC
  5
D92D
  8
0
 10
83.574974952497016
 20
78.205825045254628
 30
0.0
 40
10.91714991065915
 50
248.50648012355231
 51
291.49351987644781
  0
LINE
  5
D92E
  8
0
 10
87.574974952496945
 20
75.000000000000057
 30
0.0
 11
87.574974952496945
 21
67.288675134595508
 31
0.0
  0
LINE
  5
D92F
  8
0
 10
79.574974952497172
 20
74.240810621445689
 30
0.0
 11
79.574974952497172
 21
68.047864513149591
 31
0.0
  0
LINE
  5
D930
  8
0
 10
71.574974952496916
 20
75.000000000000043
 30
0.0
 11
71.574974952496916
 21
67.288675134595493
 31
0.0
  0
LINE
  5
D931
  8
0
 10
71.574974952496916
 20
67.288675134595493
 30
0.0
 11
71.90232522168813
 21
67.144337567298123
 31
0.0
  0
ARC
  5
D932
  8
0
 10
75.574974952497115
 20
78.205825045256049
 30
0.0
 40
10.917149910660561
 50
248.50648012355381
 51
291.49351987644633
  0
LINE
  5
D933
  8
0
 10
71.574974952496916
 20
75.000000000000043
 30
0.0
 11
71.90232522168813
 21
75.144337567298052
 31
0.0
  0
ARC
  5
D934
  8
0
 10
75.574974952497115
 20
64.082850089339559
 30
0.0
 40
10.917149910660459
 50
68.506480123553786
 51
111.4935198764462
  0
LINE
  5
D935
  8
0
 10
71.90232522168813
 20
67.144337567298123
 30
0.0
 11
87.247624683307237
 21
67.144337567298123
 31
0.0
  0
LINE
  5
D936
  8
1
 10
26.000000000001219
 20
191.0100534656271
 30
0.0
 11
26.000000000001219
 21
149.0100534656271
 31
0.0
  0
LINE
  5
D937
  8
1
 10
47.000000000001222
 20
170.0100534656271
 30
0.0
 11
5.0000000000012221
 21
170.0100534656271
 31
0.0
  0
CIRCLE
  5
D938
  8
0
 10
26.000000000001219
 20
170.0100534656271
 30
0.0
 40
5.0
  0
CIRCLE
  5
D939
  8
3
 10
26.000000000001219
 20
170.0100534656271
 30
0.0
 40
4.1879999999999988
  0
CIRCLE
  5
D940
  8
0
 10
26.000000000001219
 20
170.0100534656271
 30
0.0
 40
7.6726497308095531
  0
LINE
  5
DBD6
  8
0
 10
21.381197846482898
 20
162.0100534656271
 30
0.0
 11
30.618802153516921
 21
162.0100534656271
 31
0.0
  0
LINE
  5
DBD7
  8
0
 10
21.381197846482898
 20
178.0100534656271
 30
0.0
 11
30.618802153516949
 21
178.0100534656271
 31
0.0
  0
LINE
  5
DBE0
  8
0
 10
35.237604307033962
 20
170.0100534656271
 30
0.0
 11
30.618802153516921
 21
162.0100534656271
 31
0.0
  0
LINE
  5
DBE1
  8
0
 10
16.762395692965921
 20
170.0100534656271
 30
0.0
 11
21.381197846482898
 21
178.0100534656271
 31
0.0
  0
LINE
  5
DBE2
  8
0
 10
35.237604307033962
 20
170.0100534656271
 30
0.0
 11
30.618802153516949
 21
178.0100534656271
 31
0.0
  0
LINE
  5
DBE3
  8
0
 10
16.762395692965889
 20
170.0100534656271
 30
0.0
 11
21.381197846482898
 21
162.0100534656271
 31
0.0
  0
LINE
  5
DBFB
  8
0
 10
32.521739130434753
 20
47.299991863831451
 30
0.0
 11
32.521739130434753
 21
48.0
 31
0.0
  0
LINE
  5
DBFC
  8
0
 10
19.47826086956519
 20
48.0
 30
0.0
 11
19.47826086956519
 21
47.299991863831451
 31
0.0
  0
ARC
  5
DBFD
  8
0
 10
18.186594202898561
 20
47.29999186383148
 30
0.0
 40
1.2916666666666721
 50
329.7864094633822
 51
0.0
  0
ARC
  5
DBFE
  8
0
 10
33.813405797101439
 20
47.29999186383148
 30
0.0
 40
1.2916666666666681
 50
180.0
 51
210.21359053661789
  0
ARC
  5
DBFF
  8
0
 10
26.000000000000121
 20
42.749999999999943
 30
0.0
 40
7.7500000000001164
 50
149.7864119019749
 51
162.36374042888019
  0
ARC
  5
DC00
  8
0
 10
25.999999999999829
 20
42.749999999999908
 30
0.0
 40
7.7500000000001616
 50
17.63625957111978
 51
30.213588098025021
  0
LINE
  5
DC02
  8
0
 10
19.30279500734315
 20
46.649992985420852
 30
0.0
 11
32.69720499265685
 21
46.649992985420852
 31
0.0
  0
LINE
  5
DC03
  8
0
 10
86.096714082931385
 20
47.299991863831451
 30
0.0
 11
86.096714082931385
 21
48.0
 31
0.0
  0
LINE
  5
DC04
  8
0
 10
73.053235822061822
 20
48.0
 30
0.0
 11
73.053235822061822
 21
47.299991863831451
 31
0.0
  0
ARC
  5
DC05
  8
0
 10
71.761569155395193
 20
47.29999186383148
 30
0.0
 40
1.2916666666666721
 50
329.78640946338231
 51
0.0
  0
ARC
  5
DC06
  8
0
 10
87.388380749598056
 20
47.29999186383148
 30
0.0
 40
1.2916666666666681
 50
180.0
 51
210.21359053661769
  0
ARC
  5
DC07
  8
0
 10
79.574974952496746
 20
42.749999999999943
 30
0.0
 40
7.7500000000001164
 50
149.78641190197499
 51
162.36374042888019
  0
ARC
  5
DC08
  8
0
 10
79.574974952496461
 20
42.749999999999908
 30
0.0
 40
7.7500000000001616
 50
17.636259571119759
 51
30.213588098025049
  0
LINE
  5
DC0A
  8
0
 10
72.877769959839782
 20
46.649992985420852
 30
0.0
 11
86.272179945153482
 21
46.649992985420852
 31
0.0
  0
LINE
  5
DC1B
  8
0
 10
18.500000000001251
 20
174.34018048454931
 30
0.0
 11
18.500000000001251
 21
173.01967240886279
 31
0.0
  0
LINE
  5
DC1C
  8
0
 10
33.500000000001222
 20
174.34018048454931
 30
0.0
 11
33.500000000001222
 21
173.01967240885841
 31
0.0
  0
LINE
  5
DC1E
  8
0
 10
26.000000000001219
 20
178.67030750347149
 30
0.0
 11
24.856406460552279
 21
178.01005346562721
 31
0.0
  0
LINE
  5
DC1F
  8
0
 10
33.500000000001222
 20
165.67992644670491
 30
0.0
 11
32.356406460550318
 21
165.01967240885941
 31
0.0
  0
LINE
  5
DC20
  8
0
 10
26.000000000001219
 20
178.67030750347149
 30
0.0
 11
27.143593539450169
 21
178.01005346562721
 31
0.0
  0
LINE
  5
DC21
  8
0
 10
18.500000000001251
 20
165.67992644670491
 30
0.0
 11
19.64359353944829
 21
165.0196724088616
 31
0.0
  0
LINE
  5
DC37
  8
0
 10
32.356406460550318
 20
175.0004345223947
 30
0.0
 11
33.500000000001222
 21
174.34018048454931
 31
0.0
  0
LINE
  5
DC38
  8
0
 10
19.643593539448229
 20
175.0004345223926
 30
0.0
 11
18.500000000001251
 21
174.34018048454931
 31
0.0
  0
LINE
  5
DC39
  8
0
 10
18.500000000001279
 20
167.0004345223914
 30
0.0
 11
18.500000000001251
 21
165.67992644670491
 31
0.0
  0
LINE
  5
DC3A
  8
0
 10
24.85640646055225
 20
162.0100534656271
 30
0.0
 11
26.000000000001219
 21
161.3497994277827
 31
0.0
  0
LINE
  5
DC3B
  8
0
 10
27.143593539450141
 20
162.0100534656271
 30
0.0
 11
26.000000000001219
 21
161.3497994277827
 31
0.0
  0
LINE
  5
DC3C
  8
0
 10
33.500000000001222
 20
167.00043452239589
 30
0.0
 11
33.500000000001222
 21
165.67992644670491
 31
0.0
  0
ARC
  5
DD47
  8
0
 10
26.000000000001219
 20
170.0100534656271
 30
0.0
 40
8.5000000000012221
 50
190.25007720435741
 51
208.07248693586891
  0
ARC
  5
DD48
  8
0
 10
26.000000000001219
 20
170.0100534656271
 30
0.0
 40
8.5000000000012221
 50
130.25007720435701
 51
148.0724869358684
  0
ARC
  5
DD49
  8
0
 10
26.000000000001219
 20
170.0100534656271
 30
0.0
 40
8.5000000000012221
 50
70.250077204334488
 51
88.07248693586871
  0
ARC
  5
DD4A
  8
0
 10
26.000000000001219
 20
170.0100534656271
 30
0.0
 40
8.5000000000012221
 50
10.250077204312451
 51
28.072486935868319
  0
ARC
  5
DD4B
  8
0
 10
26.000000000001219
 20
170.0100534656271
 30
0.0
 40
8.5000000000012221
 50
310.25007720431222
 51
328.07248693586831
  0
ARC
  5
DD4C
  8
0
 10
26.000000000001219
 20
170.0100534656271
 30
0.0
 40
8.5000000000012221
 50
250.25007720433501
 51
268.0724869358686
  0
ARC
  5
DD4D
  8
0
 10
26.000000000001219
 20
170.0100534656271
 30
0.0
 40
8.5000000000012221
 50
91.927513064131304
 51
109.7499227956655
  0
ARC
  5
DD4E
  8
0
 10
26.000000000001219
 20
170.0100534656271
 30
0.0
 40
8.5000000000012221
 50
31.927513064131531
 51
49.749922795687517
  0
ARC
  5
DD4F
  8
0
 10
26.000000000001219
 20
170.0100534656271
 30
0.0
 40
8.5000000000012221
 50
331.92751306413169
 51
349.7499227956875
  0
ARC
  5
DD50
  8
0
 10
26.000000000001219
 20
170.0100534656271
 30
0.0
 40
8.5000000000012221
 50
271.92751306413152
 51
289.74992279566499
  0
ARC
  5
DD51
  8
0
 10
26.000000000001219
 20
170.0100534656271
 30
0.0
 40
8.5000000000012221
 50
211.92751306413129
 51
229.74992279564239
  0
ARC
  5
DD52
  8
0
 10
26.000000000001219
 20
170.0100534656271
 30
0.0
 40
8.5000000000012221
 50
151.9275130641312
 51
169.7499227956433
  0
TEXT
  5
DDE9
  8
0
 62
     3
 10
0.0
 20
0.0
 30
0.0
 40
10.0
  1
LM32-10B-SUS
  7
STANDARD1
  0
ENDSEC
  0
EOF
