  0
SECTION
  2
HEADER
  9
$ACADVER
  1
AC1009
  9
$INSBASE
 10
0.0
 20
0.0
 30
0.0
  9
$EXTMIN
 10
0.0
 20
-2.960436562073669
 30
0.0
  9
$EXTMAX
 10
114.28556208581659
 20
235.64137659314071
 30
0.0
  9
$LIMMIN
 10
0.0
 20
0.0
  9
$LIMMAX
 10
375.0
 20
270.0
  9
$ORTHOMODE
 70
     1
  9
$REGENMODE
 70
     1
  9
$FILLMODE
 70
     1
  9
$QTEXTMODE
 70
     0
  9
$MIRRTEXT
 70
     0
  9
$DRAGMODE
 70
     2
  9
$LTSCALE
 40
6.0
  9
$OSMODE
 70
  3071
  9
$ATTMODE
 70
     1
  9
$TEXTSIZE
 40
0.2
  9
$TRACEWID
 40
0.05
  9
$TEXTSTYLE
  7
STANDARD
  9
$CLAYER
  8
0
  9
$CELTYPE
  6
BYLAYER
  9
$CECOLOR
 62
   256
  9
$DIMSCALE
 40
1.0
  9
$DIMASZ
 40
3.0
  9
$DIMEXO
 40
1.0
  9
$DIMDLI
 40
6.0
  9
$DIMRND
 40
0.0
  9
$DIMDLE
 40
0.0
  9
$DIMEXE
 40
1.0
  9
$DIMTP
 40
495.0
  9
$DIMTM
 40
0.0
  9
$DIMTXT
 40
3.0
  9
$DIMCEN
 40
0.0
  9
$DIMTSZ
 40
0.0
  9
$DIMTOL
 70
     0
  9
$DIMLIM
 70
     0
  9
$DIMTIH
 70
     0
  9
$DIMTOH
 70
     0
  9
$DIMSE1
 70
     0
  9
$DIMSE2
 70
     0
  9
$DIMTAD
 70
     1
  9
$DIMZIN
 70
     0
  9
$DIMBLK
  1

  9
$DIMASO
 70
     0
  9
$DIMSHO
 70
     0
  9
$DIMPOST
  1

  9
$DIMAPOST
  1

  9
$DIMALT
 70
     0
  9
$DIMALTD
 70
     2
  9
$DIMALTF
 40
25.399999999999999
  9
$DIMLFAC
 40
1.0
  9
$DIMTOFL
 70
     1
  9
$DIMTVP
 40
0.0
  9
$DIMTIX
 70
     1
  9
$DIMSOXD
 70
     0
  9
$DIMSAH
 70
     0
  9
$DIMBLK1
  1

  9
$DIMBLK2
  1

  9
$DIMSTYLE
  2
STANDARD
  9
$DIMCLRD
 70
     0
  9
$DIMCLRE
 70
     0
  9
$DIMCLRT
 70
     4
  9
$DIMTFAC
 40
1.0
  9
$DIMGAP
 40
1.0
  9
$LUNITS
 70
     2
  9
$LUPREC
 70
     4
  9
$SKETCHINC
 40
0.1
  9
$FILLETRAD
 40
2.0
  9
$AUNITS
 70
     0
  9
$AUPREC
 70
     0
  9
$MENU
  1
C:\R13\WIN\SUPPORT\ACAD-I
  9
$ELEVATION
 40
0.0
  9
$PELEVATION
 40
0.0
  9
$THICKNESS
 40
0.0
  9
$LIMCHECK
 70
     0
  9
$BLIPMODE
 70
     0
  9
$CHAMFERA
 40
0.0
  9
$CHAMFERB
 40
0.0
  9
$SKPOLY
 70
     0
  9
$TDCREATE
 40
2451963.5801378251
  9
$TDUPDATE
 40
2456602.6101740859
  9
$TDINDWG
 40
0.0607937616
  9
$TDUSRTIMER
 40
2456598.4454525928
  9
$USRTIMER
 70
     1
  9
$ANGBASE
 50
0.0
  9
$ANGDIR
 70
     0
  9
$PDMODE
 70
     0
  9
$PDSIZE
 40
0.0
  9
$PLINEWID
 40
0.0
  9
$COORDS
 70
     1
  9
$SPLFRAME
 70
     0
  9
$SPLINETYPE
 70
     6
  9
$SPLINESEGS
 70
     8
  9
$ATTDIA
 70
     0
  9
$ATTREQ
 70
     1
  9
$HANDLING
 70
     1
  9
$HANDSEED
  5
E0AA
  9
$SURFTAB1
 70
     6
  9
$SURFTAB2
 70
     6
  9
$SURFTYPE
 70
     6
  9
$SURFU
 70
     6
  9
$SURFV
 70
     6
  9
$UCSNAME
  2

  9
$UCSORG
 10
0.0
 20
0.0
 30
0.0
  9
$UCSXDIR
 10
1.0
 20
0.0
 30
0.0
  9
$UCSYDIR
 10
0.0
 20
1.0
 30
0.0
  9
$PUCSNAME
  2

  9
$PUCSORG
 10
0.0
 20
0.0
 30
0.0
  9
$PUCSXDIR
 10
1.0
 20
0.0
 30
0.0
  9
$PUCSYDIR
 10
0.0
 20
1.0
 30
0.0
  9
$USERI1
 70
     4
  9
$USERI2
 70
     1
  9
$USERI3
 70
     0
  9
$USERI4
 70
     0
  9
$USERI5
 70
     0
  9
$USERR1
 40
1.0
  9
$USERR2
 40
3.0
  9
$USERR3
 40
3.0
  9
$USERR4
 40
3.0
  9
$USERR5
 40
10.0
  9
$WORLDVIEW
 70
     1
  9
$SHADEDGE
 70
     3
  9
$SHADEDIF
 70
    70
  9
$TILEMODE
 70
     1
  9
$MAXACTVP
 70
    16
  9
$PLIMCHECK
 70
     0
  9
$PEXTMIN
 10
1.0000000000000000E+020
 20
1.0000000000000000E+020
 30
1.0000000000000000E+020
  9
$PEXTMAX
 10
-1.0000000000000000E+020
 20
-1.0000000000000000E+020
 30
-1.0000000000000000E+020
  9
$PLIMMIN
 10
0.0
 20
0.0
  9
$PLIMMAX
 10
12.0
 20
9.0
  9
$UNITMODE
 70
     0
  9
$VISRETAIN
 70
     0
  9
$PLINEGEN
 70
     0
  9
$PSLTSCALE
 70
     0
  0
ENDSEC
  0
SECTION
  2
TABLES
  0
TABLE
  2
VPORT
 70
     1
  0
VPORT
  2
*ACTIVE
 70
     0
 10
0.0
 20
0.0
 11
1.0
 21
1.0
 12
187.49427839065231
 22
169.9063198933564
 13
0.0
 23
0.0
 14
10.0
 24
10.0
 15
10.0
 25
10.0
 16
0.0
 26
0.0
 36
1.0
 17
0.0
 27
0.0
 37
0.0
 40
348.89937369551939
 41
1.831871345029239
 42
50.0
 43
0.0
 44
0.0
 50
0.0
 51
0.0
 71
     0
 72
   100
 73
     1
 74
     0
 75
     0
 76
     0
 77
     0
 78
     0
  0
ENDTAB
  0
TABLE
  2
LTYPE
 70
     3
  0
LTYPE
  2
CONTINUOUS
 70
     0
  3
Solid Line
 72
    65
 73
     0
 40
0.0
  0
LTYPE
  2
CENTER
 70
     0
  3
____ _ ____ _ ____ _ ____ _ ____ _ ____ _ ____
 72
    65
 73
     4
 40
2.0
 49
1.25
 49
-0.25
 49
0.25
 49
-0.25
  0
LTYPE
  2
PHANTOM2
 70
     0
  3
___ _ _ ___ _ _ ___ _ _ ___ _ _
 72
    65
 73
     6
 40
1.25
 49
0.625
 49
-0.125
 49
0.125
 49
-0.125
 49
0.125
 49
-0.125
  0
ENDTAB
  0
TABLE
  2
LAYER
 70
     3
  0
LAYER
  2
0
 70
     0
 62
     7
  6
CONTINUOUS
  0
LAYER
  2
1
 70
     0
 62
     1
  6
CENTER
  0
LAYER
  2
3
 70
     0
 62
     3
  6
CONTINUOUS
  0
ENDTAB
  0
TABLE
  2
STYLE
 70
     2
  0
STYLE
  2
STANDARD
 70
     0
 40
0.0
 41
1.0
 50
0.0
 71
     0
 42
0.2
  3
SIMPLEX
  4
BIGFONT
  0
STYLE
  2
STANDARD1
 70
     0
 40
0.0
 41
1.0
 50
0.0
 71
     0
 42
3.0
  3
txt
  4

  0
ENDTAB
  0
TABLE
  2
VIEW
 70
     0
  0
ENDTAB
  0
TABLE
  2
UCS
 70
     0
  0
ENDTAB
  0
TABLE
  2
APPID
 70
    29
  0
APPID
  2
ACAD
 70
     0
  0
APPID
  2
GENIUS_GENOREF_13
 70
     0
  0
APPID
  2
GENIUS_GENOENT_13
 70
     0
  0
APPID
  2
GENIUS_GENBH_13
 70
     0
  0
APPID
  2
GENIUS_GENOBJ_13
 70
     0
  0
APPID
  2
GENIUS_GENODEF_13
 70
     0
  0
APPID
  2
GENIUS_GENOLIS_13
 70
     0
  0
APPID
  2
GENIUS_GENOBJ-NBEHI-BHF_13
 70
     0
  0
APPID
  2
GENIUS_GENOBJ-NBEHI-BHB_13
 70
     0
  0
APPID
  2
GENIUS_GENOBJ-F-PART_13
 70
     0
  0
APPID
  2
GENIUS_GEFSTDP_13
 70
     0
  0
APPID
  2
GENIUS_GENOBJ-N-RSSYM_13
 70
     0
  0
APPID
  2
GENIUS_GENSYMENT_13
 70
     0
  0
APPID
  2
GENIUS_GENOBJ-N-TIT_13
 70
     0
  0
APPID
  2
GENIUS_GENTITLE_13
 70
     0
  0
APPID
  2
GENIUS_GENZVEED_13
 70
     0
  0
APPID
  2
GENIUS_GENOBJ-N-LEADER_13
 70
     0
  0
APPID
  2
GENIUS_GENOBJ-N-FIL_13
 70
     0
  0
APPID
  2
GENIUS_GENOBJ-N-SEC_13
 70
     0
  0
APPID
  2
GENIUS_GENOBJ-N-CRS_13
 70
     0
  0
APPID
  2
GENIUS_GENOBJ-N-ZOO_13
 70
     0
  0
APPID
  2
GENIUS_GENZOO_13
 70
     0
  0
APPID
  2
GENIUS_GENOBJ-F-TOL_13
 70
     0
  0
APPID
  2
GENIUS_GENFIL_13
 70
     0
  0
APPID
  2
GENIUS_GENOBJ-N-CHA_13
 70
     0
  0
APPID
  2
_CALL_MAC$
 70
     0
  0
APPID
  2
ACAD_EXEMPT_FROM_CAD_STANDARDS
 70
     0
  0
APPID
  2
ACAD_MLEADERVER
 70
     0
  0
APPID
  2
ACAD_NAV_VCDISPLAY
 70
     0
  0
ENDTAB
  0
TABLE
  2
DIMSTYLE
 70
     1
  0
DIMSTYLE
  2
STANDARD
 70
     0
  3

  4

  5

  6

  7

 40
1.0
 41
0.18
 42
0.0625
 43
0.38
 44
0.18
 45
0.0
 46
0.0
 47
0.0
 48
0.0
140
0.18
141
0.09
142
0.0
143
25.399999999999999
144
1.0
145
0.0
146
1.0
147
0.09
 71
     0
 72
     0
 73
     1
 74
     1
 75
     0
 76
     0
 77
     0
 78
     0
170
     0
171
     2
172
     0
173
     0
174
     0
175
     0
176
     0
177
     0
178
     0
  0
ENDTAB
  0
ENDSEC
  0
SECTION
  2
BLOCKS
  0
BLOCK
  8
0
  2
$MODEL_SPACE
 70
     0
 10
0.0
 20
0.0
 30
0.0
  3
$MODEL_SPACE
  1

  0
ENDBLK
  5
DD28
  8
0
  0
BLOCK
 67
     1
  8
0
  2
$PAPER_SPACE
 70
     0
 10
0.0
 20
0.0
 30
0.0
  3
$PAPER_SPACE
  1

  0
ENDBLK
  5
DD26
 67
     1
  8
0
  0
ENDSEC
  0
SECTION
  2
ENTITIES
  0
LINE
  5
DBA3
  8
0
 10
23.999999999999911
 20
77.000000000000171
 30
0.0
 11
23.999999999999972
 21
153.9999999999992
 31
0.0
  0
LINE
  5
DBA4
  8
3
 10
24.946999999999921
 20
77.000000000000171
 30
0.0
 11
24.946999999999949
 21
154.94699999999921
 31
0.0
  0
LINE
  5
DBA5
  8
0
 10
35.999999999999943
 20
77.000000000000171
 30
0.0
 11
35.999999999999972
 21
153.99999999999909
 31
0.0
  0
LINE
  5
DBA6
  8
3
 10
35.052999999999997
 20
77.000000000000199
 30
0.0
 11
35.052999999999997
 21
154.94699999999909
 31
0.0
  0
LINE
  5
DBA7
  8
0
 10
88.285562085816494
 20
76.999999999998948
 30
0.0
 11
88.285562085816565
 21
153.99999999999909
 31
0.0
  0
LINE
  5
DBA8
  8
3
 10
89.232562085816483
 20
76.999999999998963
 30
0.0
 11
89.232562085816525
 21
154.94699999999909
 31
0.0
  0
LINE
  5
DBA9
  8
3
 10
99.338562085816577
 20
76.999999999998948
 30
0.0
 11
99.338562085816591
 21
154.94699999999901
 31
0.0
  0
LINE
  5
DBAA
  8
0
 10
100.28556208581649
 20
76.999999999998963
 30
0.0
 11
100.28556208581649
 21
153.99999999999901
 31
0.0
  0
LINE
  5
DBAB
  8
1
 10
94.28556208581648
 20
22.94176858361493
 30
0.0
 11
94.285562085817944
 21
160.99999999999849
 31
0.0
  0
LINE
  5
DBAC
  8
1
 10
29.99999999999989
 20
22.941768583615598
 30
0.0
 11
30.000000000001371
 21
160.9999999999992
 31
0.0
  0
LINE
  5
DBAD
  8
3
 10
99.338562085816477
 20
61.499999999999019
 30
0.0
 11
100.28556208581639
 21
59.8597478852313
 31
0.0
  0
LINE
  5
DBAE
  8
3
 10
89.232562085816426
 20
61.499999999999019
 30
0.0
 11
88.285562085816451
 21
59.8597478852313
 31
0.0
  0
LINE
  5
DBAF
  8
0
 10
100.28556208581639
 20
61.499999999999019
 30
0.0
 11
88.285562085816423
 21
61.499999999999019
 31
0.0
  0
LINE
  5
DBB0
  8
0
 10
90.285562085816565
 20
155.99999999999909
 30
0.0
 11
88.285562085816565
 21
153.99999999999909
 31
0.0
  0
LINE
  5
DBB1
  8
0
 10
88.285562085816537
 20
55.999999999999098
 30
0.0
 11
88.285562085816537
 21
66.999999999998948
 31
0.0
  0
LINE
  5
DBB2
  8
3
 10
89.232562085816511
 20
61.499999999999027
 30
0.0
 11
89.232562085816483
 21
66.999999999998934
 31
0.0
  0
LINE
  5
DBB3
  8
0
 10
88.285562085816537
 20
153.99999999999909
 30
0.0
 11
100.28556208581659
 21
153.99999999999901
 31
0.0
  0
LINE
  5
DBB4
  8
0
 10
98.285562085816565
 20
155.99999999999901
 30
0.0
 11
100.28556208581649
 21
153.99999999999901
 31
0.0
  0
LINE
  5
DBB5
  8
3
 10
99.338562085816591
 20
61.499999999999027
 30
0.0
 11
99.338562085816591
 21
66.999999999998934
 31
0.0
  0
LINE
  5
DBB6
  8
0
 10
100.28556208581649
 20
55.999999999999098
 30
0.0
 11
100.28556208581649
 21
66.999999999998934
 31
0.0
  0
LINE
  5
DBB7
  8
0
 10
90.285562085816565
 20
155.99999999999909
 30
0.0
 11
98.285562085816565
 21
155.99999999999901
 31
0.0
  0
LINE
  5
DBD5
  8
0
 10
25.999999999999972
 20
155.9999999999992
 30
0.0
 11
33.999999999999972
 21
155.99999999999909
 31
0.0
  0
LINE
  5
DBD6
  8
0
 10
35.999999999999943
 20
55.999999999999218
 30
0.0
 11
35.999999999999972
 21
66.999999999998948
 31
0.0
  0
LINE
  5
DBD7
  8
3
 10
35.052999999999997
 20
61.499999999999147
 30
0.0
 11
35.052999999999997
 21
66.999999999998934
 31
0.0
  0
LINE
  5
DBD8
  8
3
 10
24.946999999999921
 20
61.499999999999147
 30
0.0
 11
24.946999999999921
 21
66.999999999998934
 31
0.0
  0
LINE
  5
DBD9
  8
0
 10
23.99999999999995
 20
55.999999999999218
 30
0.0
 11
23.999999999999911
 21
66.999999999998934
 31
0.0
  0
LINE
  5
DBDA
  8
0
 10
25.999999999999972
 20
155.9999999999992
 30
0.0
 11
23.999999999999972
 21
153.9999999999992
 31
0.0
  0
LINE
  5
DBDB
  8
0
 10
33.999999999999972
 20
155.99999999999909
 30
0.0
 11
35.999999999999972
 21
153.99999999999909
 31
0.0
  0
LINE
  5
DBDC
  8
0
 10
23.99999999999995
 20
153.9999999999992
 30
0.0
 11
36.0
 21
153.99999999999909
 31
0.0
  0
LINE
  5
DBDD
  8
0
 10
35.999999999999972
 20
61.499999999999147
 30
0.0
 11
23.999999999999911
 21
61.499999999999147
 31
0.0
  0
LINE
  5
DBDE
  8
3
 10
24.946999999999921
 20
61.499999999999147
 30
0.0
 11
23.99999999999995
 21
59.859747885231428
 31
0.0
  0
LINE
  5
DBDF
  8
3
 10
35.052999999999969
 20
61.499999999999147
 30
0.0
 11
35.999999999999943
 21
59.859747885231428
 31
0.0
  0
LINE
  5
DBFD
  8
0
 10
113.28556208581659
 20
29.999999999999059
 30
0.0
 11
75.285562085816593
 21
29.999999999999059
 31
0.0
  0
LINE
  5
DBFE
  8
0
 10
74.285562085816593
 20
35.999999999999062
 30
0.0
 11
114.28556208581649
 21
35.999999999999069
 31
0.0
  0
LINE
  5
DBFF
  8
0
 10
74.285562085816593
 20
30.999999999999059
 30
0.0
 11
114.28556208581659
 21
30.999999999999059
 31
0.0
  0
LINE
  5
DC00
  8
0
 10
82.584232085816595
 20
40.999999999999062
 30
0.0
 11
74.285562085816593
 21
35.999999999999062
 31
0.0
  0
LINE
  5
DC01
  8
0
 10
74.285562085816593
 20
30.999999999999059
 30
0.0
 11
75.285562085816593
 21
29.999999999999059
 31
0.0
  0
LINE
  5
DC02
  8
0
 10
74.285562085816593
 20
30.999999999999059
 30
0.0
 11
74.285562085816593
 21
35.999999999999062
 31
0.0
  0
LINE
  5
DC03
  8
0
 10
103.9355610858166
 20
46.635982999999058
 30
0.0
 11
84.635563085816614
 21
46.635982999999058
 31
0.0
  0
LINE
  5
DC07
  8
0
 10
82.584232085816595
 20
40.999999999999062
 30
0.0
 11
105.98689208581651
 21
40.999999999999062
 31
0.0
  0
LINE
  5
DC08
  8
0
 10
84.635563085816614
 20
46.635982999999058
 30
0.0
 11
82.584232085816595
 21
40.999999999999062
 31
0.0
  0
LINE
  5
DC1A
  8
0
 10
114.28556208581659
 20
30.999999999999059
 30
0.0
 11
113.28556208581659
 21
29.999999999999059
 31
0.0
  0
LINE
  5
DC1B
  8
0
 10
105.98689208581651
 20
40.999999999999062
 30
0.0
 11
114.28556208581659
 21
35.999999999999062
 31
0.0
  0
LINE
  5
DC1C
  8
0
 10
103.9355610858166
 20
46.635982999999058
 30
0.0
 11
105.98689208581651
 21
40.999999999999062
 31
0.0
  0
LINE
  5
DC25
  8
0
 10
114.28556208581659
 20
30.999999999999059
 30
0.0
 11
114.28556208581659
 21
35.999999999999062
 31
0.0
  0
LINE
  5
DC37
  8
0
 10
50.0
 20
31.0
 30
0.0
 11
50.0
 21
36.0
 31
0.0
  0
LINE
  5
DC3A
  8
0
 10
39.64999899999998
 20
46.635982999999989
 30
0.0
 11
41.701329999999977
 21
41.0
 31
0.0
  0
LINE
  5
DC3B
  8
0
 10
41.701329999999977
 20
41.0
 30
0.0
 11
50.0
 21
36.0
 31
0.0
  0
LINE
  5
DC3C
  8
0
 10
50.0
 20
31.0
 30
0.0
 11
49.0
 21
30.0
 31
0.0
  0
LINE
  5
DC3F
  8
0
 10
20.35000099999996
 20
46.635982999999989
 30
0.0
 11
18.298669999999959
 21
41.0
 31
0.0
  0
LINE
  5
DC40
  8
0
 10
18.298669999999959
 20
41.0
 30
0.0
 11
41.701329999999949
 21
41.0
 31
0.0
  0
LINE
  5
DC42
  8
0
 10
39.649999000000008
 20
46.635982999999989
 30
0.0
 11
20.35000099999996
 21
46.635982999999989
 31
0.0
  0
LINE
  5
DC43
  8
0
 10
10.0
 20
31.0
 30
0.0
 11
10.0
 21
36.0
 31
0.0
  0
LINE
  5
DC44
  8
0
 10
10.0
 20
31.0
 30
0.0
 11
11.0
 21
30.0
 31
0.0
  0
LINE
  5
DC45
  8
0
 10
18.298669999999959
 20
41.0
 30
0.0
 11
10.0
 21
36.0
 31
0.0
  0
LINE
  5
DC46
  8
0
 10
10.0
 20
31.0
 30
0.0
 11
50.0
 21
31.0
 31
0.0
  0
LINE
  5
DC47
  8
0
 10
10.0
 20
36.0
 30
0.0
 11
50.0
 21
36.0
 31
0.0
  0
LINE
  5
DC48
  8
0
 10
49.000000000000028
 20
30.0
 30
0.0
 11
11.0
 21
30.0
 31
0.0
  0
CIRCLE
  5
DE42
  8
3
 10
29.999999999999972
 20
210.64137659314079
 30
0.0
 40
5.052999999999999
  0
CIRCLE
  5
DE43
  8
0
 10
29.999999999999972
 20
210.64137659314079
 30
0.0
 40
6.0
  0
CIRCLE
  5
DE44
  8
0
 10
29.999999999999972
 20
210.64137659314079
 30
0.0
 40
8.4226497308114006
  0
LINE
  5
DE45
  8
1
 10
54.999999999999851
 20
210.64137659314079
 30
0.0
 11
5.0000000000000853
 21
210.64137659314079
 31
0.0
  0
LINE
  5
DE46
  8
1
 10
29.999999999999972
 20
235.64137659314071
 30
0.0
 11
29.999999999999972
 21
185.6413765931409
 31
0.0
  0
CIRCLE
  5
DE47
  8
0
 10
30.000000000000139
 20
210.64137659314079
 30
0.0
 40
11.70133000000018
  0
CIRCLE
  5
DE48
  8
0
 10
29.999999999999972
 20
210.64137659314079
 30
0.0
 40
19.999999999999911
  0
LINE
  5
DE53
  8
0
 10
21.499999999999861
 20
205.7338993050291
 30
0.0
 11
21.499999999999911
 21
207.36380845747669
 31
0.0
  0
LINE
  5
DE54
  8
0
 10
21.500000000000028
 20
213.91894472880509
 30
0.0
 11
21.500000000000089
 21
215.5488538812526
 31
0.0
  0
LINE
  5
DE55
  8
0
 10
38.499999999999858
 20
205.73389930502901
 30
0.0
 11
38.499999999999858
 21
207.36380845747581
 31
0.0
  0
LINE
  5
DE56
  8
0
 10
38.499999999999972
 20
213.91894472880571
 30
0.0
 11
38.499999999999972
 21
215.5488538812526
 31
0.0
  0
LINE
  5
DE62
  8
0
 10
35.196152422703079
 20
75.862819089374355
 30
0.0
 11
35.196152422707172
 21
68.137180910625673
 31
0.0
  0
LINE
  5
DE63
  8
0
 10
40.392304845413463
 20
75.862819089374355
 30
0.0
 11
40.392304845413463
 21
68.137180910625901
 31
0.0
  0
LINE
  5
DE64
  8
0
 10
24.80384757729562
 20
75.862819089374355
 30
0.0
 11
24.803847577291521
 21
68.137180910625673
 31
0.0
  0
LINE
  5
DE65
  8
0
 10
19.607695154586711
 20
75.862819089374355
 30
0.0
 11
19.607695154586711
 21
68.137180910625901
 31
0.0
  0
LINE
  5
DE66
  8
0
 10
19.607695154586711
 20
68.137180910626014
 30
0.0
 11
21.577350269188369
 21
67.000000000000185
 31
0.0
  0
ARC
  5
DE67
  8
0
 10
22.22793674596468
 20
71.622871053139946
 30
0.0
 40
4.3342072378418903
 50
242.85779730186141
 51
306.46425027470502
  0
ARC
  5
DE68
  8
0
 10
29.999999999998611
 20
83.623249886482157
 30
0.0
 40
16.334574751887139
 50
251.45148071741059
 51
288.5485192825825
  0
ARC
  5
DE69
  8
0
 10
37.772318585664408
 20
71.626002798339584
 30
0.0
 40
4.3368779396447952
 50
233.55762654201331
 51
297.12032588147281
  0
LINE
  5
DE6A
  8
0
 10
40.392304845413463
 20
68.137180910626014
 30
0.0
 11
38.422649730811798
 21
67.000000000000185
 31
0.0
  0
LINE
  5
DE6B
  8
0
 10
21.577350269188489
 20
67.000000000000185
 30
0.0
 11
38.422649730811798
 21
67.000000000000199
 31
0.0
  0
LINE
  5
DE6C
  8
0
 10
21.577350269188489
 20
77.000000000000185
 30
0.0
 11
38.422649730811798
 21
77.000000000000185
 31
0.0
  0
LINE
  5
DE6D
  8
0
 10
40.392304845413463
 20
75.862819089374355
 30
0.0
 11
38.422649730811798
 21
77.000000000000185
 31
0.0
  0
ARC
  5
DE6E
  8
0
 10
37.772318585668224
 20
72.373997201680666
 30
0.0
 40
4.336877939625416
 50
62.879674118450318
 51
126.4423734581282
  0
ARC
  5
DE6F
  8
0
 10
30.000000000001108
 20
60.376750113533816
 30
0.0
 40
16.33457475187155
 50
71.451480717407151
 51
108.5485192825996
  0
ARC
  5
DE70
  8
0
 10
22.227976603567729
 20
72.377617816361919
 30
0.0
 40
4.3337903948739553
 50
53.532332292842881
 51
117.145620130616
  0
LINE
  5
DE71
  8
0
 10
19.607695154586711
 20
75.862819089374355
 30
0.0
 11
21.577350269188369
 21
77.000000000000185
 31
0.0
  0
LINE
  5
DE72
  8
0
 10
94.285562085815542
 20
75.862819089373104
 30
0.0
 11
94.285562085818725
 21
68.137180910624764
 31
0.0
  0
LINE
  5
DE73
  8
0
 10
102.7082118166292
 20
66.999999999998934
 30
0.0
 11
85.862912355005875
 21
66.999999999998934
 31
0.0
  0
LINE
  5
DE74
  8
0
 10
85.862912355007794
 20
76.999999999998948
 30
0.0
 11
102.70821181663101
 21
76.999999999998948
 31
0.0
  0
LINE
  5
DE75
  8
0
 10
85.285562085817034
 20
76.711324865404393
 30
0.0
 11
85.862912355007794
 21
76.99999999999801
 31
0.0
  0
ARC
  5
DE76
  8
0
 10
89.785562085819294
 20
64.354330579495624
 30
0.0
 40
12.356994285908479
 50
68.643720031951034
 51
111.35627996807
  0
LINE
  5
DE77
  8
0
 10
85.862912355005875
 20
66.999999999997996
 30
0.0
 11
85.285562085817034
 21
67.360471904319368
 31
0.0
  0
LINE
  5
DE78
  8
0
 10
85.285562085817034
 20
67.360471904319368
 30
0.0
 11
85.285562085817034
 21
76.711324865404393
 31
0.0
  0
ARC
  5
DE79
  8
0
 10
89.785562085817247
 20
79.64566942051303
 30
0.0
 40
12.35699428591928
 50
248.64372003196141
 51
291.35627996803839
  0
ARC
  5
DE7A
  8
0
 10
98.785562085818498
 20
79.645669420504447
 30
0.0
 40
12.356994285910689
 50
248.64372003195081
 51
291.35627996804891
  0
LINE
  5
DE7B
  8
0
 10
103.28556208581701
 20
67.360471904318686
 30
0.0
 11
103.28556208581701
 21
76.711324865403711
 31
0.0
  0
LINE
  5
DE7C
  8
0
 10
102.7082118166292
 20
66.999999999998934
 30
0.0
 11
103.28556208581701
 21
67.360471904318686
 31
0.0
  0
ARC
  5
DE7D
  8
0
 10
98.785562085818498
 20
64.354330579493407
 30
0.0
 40
12.3569942859107
 50
68.643720031951034
 51
111.3562799680489
  0
LINE
  5
DE7E
  8
0
 10
103.28556208581701
 20
76.711324865403711
 30
0.0
 11
102.70821181663101
 21
76.999999999998948
 31
0.0
  0
ARC
  5
DE8A
  8
0
 10
94.285562085816437
 20
40.355149368067131
 30
0.0
 40
15.37116642140661
 50
71.381512266611225
 51
108.61848773338529
  0
ARC
  5
DE8B
  8
0
 10
94.285562085816437
 20
67.062579568794433
 30
0.0
 40
16.720827000845478
 50
252.93269415092681
 51
287.06730584907331
  0
LINE
  5
DE8C
  8
0
 10
89.378084797704929
 20
51.078127010097802
 30
0.0
 11
89.378084797704929
 21
54.921872989901303
 31
0.0
  0
LINE
  5
DE8D
  8
0
 10
84.470607509592725
 20
55.191709999999063
 30
0.0
 11
84.470607509592725
 21
50.808289999999062
 31
0.0
  0
ARC
  5
DE95
  8
0
 10
86.924346222031744
 20
54.798100189697116
 30
0.0
 40
4.456347621748141
 50
236.59067946386429
 51
303.40932053613579
  0
LINE
  5
DE96
  8
0
 10
86.259597043677005
 20
49.999999999999062
 30
0.0
 11
102.3115271279556
 21
49.999999999999041
 31
0.0
  0
ARC
  5
DE99
  8
0
 10
86.924346222031801
 20
51.581857563793598
 30
0.0
 40
4.1444582256801148
 50
53.69717260552634
 51
126.3028273944736
  0
LINE
  5
DE9A
  8
0
 10
102.3115271279556
 20
55.999999999999062
 30
0.0
 11
86.259597043676962
 21
55.999999999999062
 31
0.0
  0
LINE
  5
DE9B
  8
0
 10
84.470607509592725
 20
55.191709999999063
 30
0.0
 11
86.259597043677005
 21
55.999999999999062
 31
0.0
  0
LINE
  5
DE9C
  8
0
 10
104.10051666204021
 20
55.191709999999063
 30
0.0
 11
104.10051666204021
 21
50.808289999999062
 31
0.0
  0
LINE
  5
DE9D
  8
0
 10
99.193039373928201
 20
51.078127010097802
 30
0.0
 11
99.193039373928201
 21
54.921872989901303
 31
0.0
  0
ARC
  5
DEA1
  8
0
 10
101.6467779496011
 20
54.798100189696768
 30
0.0
 40
4.4563476217477671
 50
236.59067946386409
 51
303.40932053613977
  0
LINE
  5
DEA2
  8
0
 10
104.10051666204021
 20
50.808289999999062
 30
0.0
 11
102.3115271279556
 21
49.999999999999062
 31
0.0
  0
ARC
  5
DEA4
  8
0
 10
101.6467779496012
 20
51.581857563793918
 30
0.0
 40
4.1444582256797791
 50
53.697172605526347
 51
126.3028273944736
  0
LINE
  5
DEA5
  8
0
 10
104.10051666204021
 20
55.191709999999063
 30
0.0
 11
102.3115271279556
 21
55.999999999999083
 31
0.0
  0
LINE
  5
DEA6
  8
0
 10
29.99999999999725
 20
54.921872989902489
 30
0.0
 11
30.000000000000199
 21
51.078127010097703
 31
0.0
  0
LINE
  5
DEA7
  8
0
 10
38.025965042139688
 20
50.000000000000099
 30
0.0
 11
21.974034957861448
 21
50.000000000000099
 31
0.0
  0
LINE
  5
DEA8
  8
0
 10
21.974034957861559
 20
56.000000000000121
 30
0.0
 11
38.025965042139688
 21
56.000000000000099
 31
0.0
  0
LINE
  5
DEA9
  8
0
 10
21.5000000000006
 20
55.726315789473723
 30
0.0
 11
21.974034957861509
 21
56.000000000000078
 31
0.0
  0
ARC
  5
DEAA
  8
0
 10
25.749999999999631
 20
44.097379445113098
 30
0.0
 40
11.628936344360611
 50
68.563634687485958
 51
111.4363653125106
  0
LINE
  5
DEAB
  8
0
 10
21.974034957861509
 20
50.000000000000078
 30
0.0
 11
21.5000000000006
 21
50.341752567948951
 31
0.0
  0
LINE
  5
DEAC
  8
0
 10
21.5000000000006
 20
50.341752567948951
 30
0.0
 11
21.5000000000006
 21
55.726315789473723
 31
0.0
  0
ARC
  5
DEAD
  8
0
 10
25.749999999999918
 20
62.974420307449897
 30
0.0
 40
12.63266773950094
 50
250.34052150748241
 51
289.65947849251762
  0
ARC
  5
DEAE
  8
0
 10
34.250000000000817
 20
62.974420307452412
 30
0.0
 40
12.63266773950345
 50
250.3405215074857
 51
289.65947849251762
  0
LINE
  5
DEAF
  8
0
 10
38.500000000000597
 20
50.341752567948973
 30
0.0
 11
38.500000000000597
 21
55.72631578947373
 31
0.0
  0
LINE
  5
DEB0
  8
0
 10
38.025965042139688
 20
50.000000000000099
 30
0.0
 11
38.500000000000597
 21
50.341752567948973
 31
0.0
  0
ARC
  5
DEB1
  8
0
 10
34.250000000000767
 20
44.097379445112928
 30
0.0
 40
11.62893634436079
 50
68.563634687485987
 51
111.4363653125105
  0
LINE
  5
DEB2
  8
0
 10
38.500000000000597
 20
55.72631578947373
 30
0.0
 11
38.025965042139688
 21
56.000000000000099
 31
0.0
  0
LINE
  5
DEC0
  8
0
 10
37.391304347826093
 20
49.308613009126141
 30
0.0
 11
37.391304347826093
 21
50.0
 31
0.0
  0
LINE
  5
DEC1
  8
0
 10
22.60869565217396
 20
50.0
 30
0.0
 11
22.60869565217396
 21
49.308613009126141
 31
0.0
  0
ARC
  5
DEC2
  8
0
 10
21.150362318840589
 20
49.308613009126141
 30
0.0
 40
1.458333333333345
 50
330.10075103467909
 51
0.0
  0
ARC
  5
DEC3
  8
0
 10
38.849637681159471
 20
49.308613009126141
 30
0.0
 40
1.4583333333333419
 50
180.0
 51
209.89924896532091
  0
ARC
  5
DEC4
  8
0
 10
29.999999999999861
 20
44.220000000000027
 30
0.0
 40
8.7499999999999147
 50
150.10075103467921
 51
163.9443170435589
  0
ARC
  5
DEC5
  8
0
 10
30.000000000000199
 20
44.220000000000077
 30
0.0
 40
8.7499999999998188
 50
16.055682956441121
 51
29.899248965320758
  0
LINE
  5
DEC6
  8
0
 10
22.414596273291949
 20
48.581668293536687
 30
0.0
 11
37.585403726708108
 21
48.581668293536687
 31
0.0
  0
LINE
  5
DEC7
  8
0
 10
29.999999999999972
 20
200.82642201691709
 30
0.0
 11
28.58845726811964
 21
201.6413765931409
 31
0.0
  0
LINE
  5
DEC8
  8
0
 10
22.91154273188047
 20
204.91894472880529
 30
0.0
 11
21.499999999999861
 21
205.7338993050291
 31
0.0
  0
LINE
  5
DEC9
  8
0
 10
38.500000000000028
 20
215.5488538812526
 30
0.0
 11
37.088457268120102
 21
216.3638084574761
 31
0.0
  0
LINE
  5
DECA
  8
0
 10
31.41154273188031
 20
219.64137659314079
 30
0.0
 11
29.999999999999972
 21
220.4563311693646
 31
0.0
  0
LINE
  5
DECB
  8
0
 10
29.999999999999918
 20
200.82642201691709
 30
0.0
 11
31.411542731880189
 21
201.6413765931409
 31
0.0
  0
LINE
  5
DECC
  8
0
 10
37.088457268120209
 20
204.91894472880571
 30
0.0
 11
38.499999999999922
 21
205.73389930502901
 31
0.0
  0
LINE
  5
DECD
  8
0
 10
21.500000000000028
 20
215.5488538812526
 30
0.0
 11
22.91154273188042
 21
216.36380845747649
 31
0.0
  0
LINE
  5
DECE
  8
0
 10
28.588457268119811
 20
219.6413765931409
 30
0.0
 11
29.999999999999972
 21
220.4563311693646
 31
0.0
  0
LINE
  5
DECF
  8
0
 10
101.6768664336425
 20
49.308613009125189
 30
0.0
 11
101.6768664336425
 21
49.999999999999062
 31
0.0
  0
LINE
  5
DED0
  8
0
 10
86.894257737990444
 20
49.999999999999062
 30
0.0
 11
86.894257737990444
 21
49.308613009125189
 31
0.0
  0
ARC
  5
DED1
  8
0
 10
85.435924404657058
 20
49.308613009125189
 30
0.0
 40
1.458333333333345
 50
330.10075103467909
 51
0.0
  0
ARC
  5
DED2
  8
0
 10
103.1351997669759
 20
49.308613009125189
 30
0.0
 40
1.4583333333333579
 50
180.0
 51
209.8992489653206
  0
ARC
  5
DED3
  8
0
 10
94.285562085816437
 20
44.219999999999089
 30
0.0
 40
8.7499999999999147
 50
150.10075103467921
 51
163.9443170435589
  0
ARC
  5
DED4
  8
0
 10
94.285562085816665
 20
44.219999999999139
 30
0.0
 40
8.7499999999998188
 50
16.055682956441121
 51
29.899248965320758
  0
LINE
  5
DED5
  8
0
 10
86.700158359108428
 20
48.581668293535749
 30
0.0
 11
101.8709658125246
 21
48.581668293535749
 31
0.0
  0
LINE
  5
DED6
  8
0
 10
84.47060750959352
 20
50.808289999999317
 30
0.0
 11
86.259597043678042
 21
49.999999999999261
 31
0.0
  0
LINE
  5
DED7
  8
0
 10
35.196152422706717
 20
201.64137659314079
 30
0.0
 11
24.80384757729357
 21
201.6413765931409
 31
0.0
  0
LINE
  5
DED8
  8
0
 10
35.196152422706781
 20
219.64137659314079
 30
0.0
 11
24.803847577293681
 21
219.64137659314099
 31
0.0
  0
LINE
  5
DED9
  8
0
 10
40.392304845413513
 20
210.6413765931409
 30
0.0
 11
35.196152422706717
 21
201.64137659314079
 31
0.0
  0
LINE
  5
DEDA
  8
0
 10
24.803847577293681
 20
219.64137659314099
 30
0.0
 11
19.607695154586821
 21
210.64137659314079
 31
0.0
  0
LINE
  5
DEDB
  8
0
 10
40.392304845413513
 20
210.6413765931409
 30
0.0
 11
35.196152422706781
 21
219.64137659314079
 31
0.0
  0
LINE
  5
DEDC
  8
0
 10
24.80384757729357
 20
201.6413765931409
 30
0.0
 11
19.607695154586821
 21
210.64137659314079
 31
0.0
  0
ARC
  5
DEDD
  8
0
 10
29.999999999999972
 20
210.64137659314079
 30
0.0
 40
9.6499990000000082
 50
128.85056541294989
 51
148.25745963175251
  0
ARC
  5
DEDE
  8
0
 10
29.999999999999972
 20
210.64137659314079
 30
0.0
 40
9.6499990000000082
 50
151.74254036824439
 51
171.14943458705011
  0
ARC
  5
DEDF
  8
0
 10
29.999999999999972
 20
210.64137659314079
 30
0.0
 40
9.6499990000000082
 50
188.85056541294929
 51
208.25745963175061
  0
ARC
  5
DEE0
  8
0
 10
29.999999999999972
 20
210.64137659314079
 30
0.0
 40
9.6499990000000082
 50
211.74254036824749
 51
231.14943458705
  0
ARC
  5
DEE1
  8
0
 10
29.999999999999972
 20
210.64137659314079
 30
0.0
 40
9.6499990000000082
 50
248.85056541294961
 51
268.25745963175092
  0
ARC
  5
DEE2
  8
0
 10
29.999999999999972
 20
210.64137659314079
 30
0.0
 40
9.6499990000000082
 50
271.74254036824908
 51
291.14943458704693
  0
ARC
  5
DEE3
  8
0
 10
29.999999999999972
 20
210.64137659314079
 30
0.0
 40
9.6499990000000082
 50
308.85056541295421
 51
328.25745963175251
  0
ARC
  5
DEE4
  8
0
 10
29.999999999999972
 20
210.64137659314079
 30
0.0
 40
9.6499990000000082
 50
331.74254036824419
 51
351.14943458704403
  0
ARC
  5
DEE5
  8
0
 10
29.999999999999972
 20
210.64137659314079
 30
0.0
 40
9.6499990000000082
 50
8.8505654129555023
 51
28.257459631750621
  0
ARC
  5
DEE6
  8
0
 10
29.999999999999972
 20
210.64137659314079
 30
0.0
 40
9.6499990000000082
 50
31.742540368247511
 51
51.149434587045803
  0
ARC
  5
DEE7
  8
0
 10
29.999999999999972
 20
210.64137659314079
 30
0.0
 40
9.6499990000000082
 50
68.850565412953074
 51
88.257459631750933
  0
ARC
  5
DEE8
  8
0
 10
29.999999999999972
 20
210.64137659314079
 30
0.0
 40
9.6499990000000082
 50
91.742540368249053
 51
111.1494345870469
  0
TEXT
  5
E03B
  8
0
 62
     3
 10
0.0
 20
0.0
 30
0.0
 40
10.0
  1
LM40-12B-SUS
  7
STANDARD1
  0
ENDSEC
  0
EOF
