  0
SECTION
  2
HEADER
  9
$ACADVER
  1
AC1009
  9
$INSBASE
 10
0.0
 20
0.0
 30
0.0
  9
$EXTMIN
 10
0.0
 20
-2.960436562073669
 30
0.0
  9
$EXTMAX
 10
116.4665757162346
 20
221.76831175378459
 30
0.0
  9
$LIMMIN
 10
0.0
 20
0.0
  9
$LIMMAX
 10
375.0
 20
270.0
  9
$ORTHOMODE
 70
     1
  9
$REGENMODE
 70
     1
  9
$FILLMODE
 70
     1
  9
$QTEXTMODE
 70
     0
  9
$MIRRTEXT
 70
     0
  9
$DRAGMODE
 70
     2
  9
$LTSCALE
 40
6.0
  9
$OSMODE
 70
  3071
  9
$ATTMODE
 70
     1
  9
$TEXTSIZE
 40
0.2
  9
$TRACEWID
 40
0.05
  9
$TEXTSTYLE
  7
STANDARD
  9
$CLAYER
  8
0
  9
$CELTYPE
  6
BYLAYER
  9
$CECOLOR
 62
   256
  9
$DIMSCALE
 40
1.0
  9
$DIMASZ
 40
3.0
  9
$DIMEXO
 40
1.0
  9
$DIMDLI
 40
6.0
  9
$DIMRND
 40
0.0
  9
$DIMDLE
 40
0.0
  9
$DIMEXE
 40
1.0
  9
$DIMTP
 40
495.0
  9
$DIMTM
 40
0.0
  9
$DIMTXT
 40
3.0
  9
$DIMCEN
 40
0.0
  9
$DIMTSZ
 40
0.0
  9
$DIMTOL
 70
     0
  9
$DIMLIM
 70
     0
  9
$DIMTIH
 70
     0
  9
$DIMTOH
 70
     0
  9
$DIMSE1
 70
     0
  9
$DIMSE2
 70
     0
  9
$DIMTAD
 70
     1
  9
$DIMZIN
 70
     0
  9
$DIMBLK
  1

  9
$DIMASO
 70
     0
  9
$DIMSHO
 70
     0
  9
$DIMPOST
  1

  9
$DIMAPOST
  1

  9
$DIMALT
 70
     0
  9
$DIMALTD
 70
     2
  9
$DIMALTF
 40
25.399999999999999
  9
$DIMLFAC
 40
1.0
  9
$DIMTOFL
 70
     1
  9
$DIMTVP
 40
0.0
  9
$DIMTIX
 70
     1
  9
$DIMSOXD
 70
     0
  9
$DIMSAH
 70
     0
  9
$DIMBLK1
  1

  9
$DIMBLK2
  1

  9
$DIMSTYLE
  2
STANDARD
  9
$DIMCLRD
 70
     0
  9
$DIMCLRE
 70
     0
  9
$DIMCLRT
 70
     4
  9
$DIMTFAC
 40
1.0
  9
$DIMGAP
 40
1.0
  9
$LUNITS
 70
     2
  9
$LUPREC
 70
     4
  9
$SKETCHINC
 40
0.1
  9
$FILLETRAD
 40
2.0
  9
$AUNITS
 70
     0
  9
$AUPREC
 70
     0
  9
$MENU
  1
C:\R13\WIN\SUPPORT\ACAD-I
  9
$ELEVATION
 40
0.0
  9
$PELEVATION
 40
0.0
  9
$THICKNESS
 40
0.0
  9
$LIMCHECK
 70
     0
  9
$BLIPMODE
 70
     0
  9
$CHAMFERA
 40
0.0
  9
$CHAMFERB
 40
0.0
  9
$SKPOLY
 70
     0
  9
$TDCREATE
 40
2451963.5962117482
  9
$TDUPDATE
 40
2456602.6145216781
  9
$TDINDWG
 40
0.0840775926
  9
$TDUSRTIMER
 40
2456598.4452461228
  9
$USRTIMER
 70
     1
  9
$ANGBASE
 50
0.0
  9
$ANGDIR
 70
     0
  9
$PDMODE
 70
     0
  9
$PDSIZE
 40
0.0
  9
$PLINEWID
 40
0.0
  9
$COORDS
 70
     1
  9
$SPLFRAME
 70
     0
  9
$SPLINETYPE
 70
     6
  9
$SPLINESEGS
 70
     8
  9
$ATTDIA
 70
     0
  9
$ATTREQ
 70
     1
  9
$HANDLING
 70
     1
  9
$HANDSEED
  5
EFC0
  9
$SURFTAB1
 70
     6
  9
$SURFTAB2
 70
     6
  9
$SURFTYPE
 70
     6
  9
$SURFU
 70
     6
  9
$SURFV
 70
     6
  9
$UCSNAME
  2

  9
$UCSORG
 10
0.0
 20
0.0
 30
0.0
  9
$UCSXDIR
 10
1.0
 20
0.0
 30
0.0
  9
$UCSYDIR
 10
0.0
 20
1.0
 30
0.0
  9
$PUCSNAME
  2

  9
$PUCSORG
 10
0.0
 20
0.0
 30
0.0
  9
$PUCSXDIR
 10
1.0
 20
0.0
 30
0.0
  9
$PUCSYDIR
 10
0.0
 20
1.0
 30
0.0
  9
$USERI1
 70
     4
  9
$USERI2
 70
     1
  9
$USERI3
 70
     0
  9
$USERI4
 70
     0
  9
$USERI5
 70
     0
  9
$USERR1
 40
1.0
  9
$USERR2
 40
3.0
  9
$USERR3
 40
3.0
  9
$USERR4
 40
3.0
  9
$USERR5
 40
10.0
  9
$WORLDVIEW
 70
     1
  9
$SHADEDGE
 70
     3
  9
$SHADEDIF
 70
    70
  9
$TILEMODE
 70
     1
  9
$MAXACTVP
 70
    16
  9
$PLIMCHECK
 70
     0
  9
$PEXTMIN
 10
1.0000000000000000E+020
 20
1.0000000000000000E+020
 30
1.0000000000000000E+020
  9
$PEXTMAX
 10
-1.0000000000000000E+020
 20
-1.0000000000000000E+020
 30
-1.0000000000000000E+020
  9
$PLIMMIN
 10
0.0
 20
0.0
  9
$PLIMMAX
 10
12.0
 20
9.0
  9
$UNITMODE
 70
     0
  9
$VISRETAIN
 70
     0
  9
$PLINEGEN
 70
     0
  9
$PSLTSCALE
 70
     0
  0
ENDSEC
  0
SECTION
  2
TABLES
  0
TABLE
  2
VPORT
 70
     1
  0
VPORT
  2
*ACTIVE
 70
     0
 10
0.0
 20
0.0
 11
1.0
 21
1.0
 12
187.49427839065231
 22
169.9063198933564
 13
0.0
 23
0.0
 14
10.0
 24
10.0
 15
10.0
 25
10.0
 16
0.0
 26
0.0
 36
1.0
 17
0.0
 27
0.0
 37
0.0
 40
348.89937369551939
 41
1.831871345029239
 42
50.0
 43
0.0
 44
0.0
 50
0.0
 51
0.0
 71
     0
 72
   100
 73
     1
 74
     0
 75
     0
 76
     0
 77
     0
 78
     0
  0
ENDTAB
  0
TABLE
  2
LTYPE
 70
     3
  0
LTYPE
  2
CONTINUOUS
 70
     0
  3
Solid Line
 72
    65
 73
     0
 40
0.0
  0
LTYPE
  2
CENTER
 70
     0
  3
____ _ ____ _ ____ _ ____ _ ____ _ ____ _ ____
 72
    65
 73
     4
 40
2.0
 49
1.25
 49
-0.25
 49
0.25
 49
-0.25
  0
LTYPE
  2
PHANTOM2
 70
     0
  3
___ _ _ ___ _ _ ___ _ _ ___ _ _
 72
    65
 73
     6
 40
1.25
 49
0.625
 49
-0.125
 49
0.125
 49
-0.125
 49
0.125
 49
-0.125
  0
ENDTAB
  0
TABLE
  2
LAYER
 70
     3
  0
LAYER
  2
0
 70
     0
 62
     7
  6
CONTINUOUS
  0
LAYER
  2
1
 70
     0
 62
     1
  6
CENTER
  0
LAYER
  2
3
 70
     0
 62
     3
  6
CONTINUOUS
  0
ENDTAB
  0
TABLE
  2
STYLE
 70
     2
  0
STYLE
  2
STANDARD
 70
     0
 40
0.0
 41
1.0
 50
0.0
 71
     0
 42
0.2
  3
SIMPLEX
  4
BIGFONT
  0
STYLE
  2
STANDARD1
 70
     0
 40
0.0
 41
1.0
 50
0.0
 71
     0
 42
3.0
  3
txt
  4

  0
ENDTAB
  0
TABLE
  2
VIEW
 70
     0
  0
ENDTAB
  0
TABLE
  2
UCS
 70
     0
  0
ENDTAB
  0
TABLE
  2
APPID
 70
    29
  0
APPID
  2
ACAD
 70
     0
  0
APPID
  2
GENIUS_GENOREF_13
 70
     0
  0
APPID
  2
GENIUS_GENOENT_13
 70
     0
  0
APPID
  2
GENIUS_GENBH_13
 70
     0
  0
APPID
  2
GENIUS_GENOBJ_13
 70
     0
  0
APPID
  2
GENIUS_GENODEF_13
 70
     0
  0
APPID
  2
GENIUS_GENOLIS_13
 70
     0
  0
APPID
  2
GENIUS_GENOBJ-NBEHI-BHF_13
 70
     0
  0
APPID
  2
GENIUS_GENOBJ-NBEHI-BHB_13
 70
     0
  0
APPID
  2
GENIUS_GENOBJ-F-PART_13
 70
     0
  0
APPID
  2
GENIUS_GEFSTDP_13
 70
     0
  0
APPID
  2
GENIUS_GENOBJ-N-RSSYM_13
 70
     0
  0
APPID
  2
GENIUS_GENSYMENT_13
 70
     0
  0
APPID
  2
GENIUS_GENOBJ-N-TIT_13
 70
     0
  0
APPID
  2
GENIUS_GENTITLE_13
 70
     0
  0
APPID
  2
GENIUS_GENZVEED_13
 70
     0
  0
APPID
  2
GENIUS_GENOBJ-N-LEADER_13
 70
     0
  0
APPID
  2
GENIUS_GENOBJ-N-FIL_13
 70
     0
  0
APPID
  2
GENIUS_GENOBJ-N-SEC_13
 70
     0
  0
APPID
  2
GENIUS_GENOBJ-N-CRS_13
 70
     0
  0
APPID
  2
GENIUS_GENOBJ-N-ZOO_13
 70
     0
  0
APPID
  2
GENIUS_GENZOO_13
 70
     0
  0
APPID
  2
GENIUS_GENOBJ-F-TOL_13
 70
     0
  0
APPID
  2
GENIUS_GENFIL_13
 70
     0
  0
APPID
  2
GENIUS_GENOBJ-N-CHA_13
 70
     0
  0
APPID
  2
_CALL_MAC$
 70
     0
  0
APPID
  2
ACAD_EXEMPT_FROM_CAD_STANDARDS
 70
     0
  0
APPID
  2
ACAD_MLEADERVER
 70
     0
  0
APPID
  2
ACAD_NAV_VCDISPLAY
 70
     0
  0
ENDTAB
  0
TABLE
  2
DIMSTYLE
 70
     1
  0
DIMSTYLE
  2
STANDARD
 70
     0
  3

  4

  5

  6

  7

 40
1.0
 41
0.18
 42
0.0625
 43
0.38
 44
0.18
 45
0.0
 46
0.0
 47
0.0
 48
0.0
140
0.18
141
0.09
142
0.0
143
25.399999999999999
144
1.0
145
0.0
146
1.0
147
0.09
 71
     0
 72
     0
 73
     1
 74
     1
 75
     0
 76
     0
 77
     0
 78
     0
170
     0
171
     2
172
     0
173
     0
174
     0
175
     0
176
     0
177
     0
178
     0
  0
ENDTAB
  0
ENDSEC
  0
SECTION
  2
BLOCKS
  0
BLOCK
  8
0
  2
$MODEL_SPACE
 70
     0
 10
0.0
 20
0.0
 30
0.0
  3
$MODEL_SPACE
  1

  0
ENDBLK
  5
ECBE
  8
0
  0
BLOCK
 67
     1
  8
0
  2
$PAPER_SPACE
 70
     0
 10
0.0
 20
0.0
 30
0.0
  3
$PAPER_SPACE
  1

  0
ENDBLK
  5
ECBC
 67
     1
  8
0
  0
ENDSEC
  0
SECTION
  2
ENTITIES
  0
LINE
  5
EB27
  8
0
 10
23.99999999999995
 20
78.499999999998579
 30
0.0
 11
24.0
 21
155.49999999999889
 31
0.0
  0
LINE
  5
EB28
  8
3
 10
24.946999999999949
 20
78.499999999998579
 30
0.0
 11
24.946999999999981
 21
156.44699999999881
 31
0.0
  0
LINE
  5
EB29
  8
0
 10
36.0
 20
78.499999999998579
 30
0.0
 11
36.0
 21
155.49999999999881
 31
0.0
  0
LINE
  5
EB2A
  8
3
 10
35.053000000000033
 20
78.499999999998579
 30
0.0
 11
35.053000000000033
 21
156.4469999999987
 31
0.0
  0
LINE
  5
EB2B
  8
0
 10
88.285562085816565
 20
78.499999999998607
 30
0.0
 11
88.285562085816593
 21
155.49999999999881
 31
0.0
  0
LINE
  5
EB2C
  8
3
 10
89.232562085816525
 20
78.499999999998607
 30
0.0
 11
89.232562085816568
 21
156.4469999999987
 31
0.0
  0
LINE
  5
EB2D
  8
3
 10
99.338562085816619
 20
78.499999999998607
 30
0.0
 11
99.338562085816619
 21
156.44699999999861
 31
0.0
  0
LINE
  5
EB2E
  8
0
 10
100.28556208581659
 20
78.499999999998622
 30
0.0
 11
100.28556208581659
 21
155.49999999999869
 31
0.0
  0
LINE
  5
EB2F
  8
1
 10
94.285562085816508
 20
24.441768583614589
 30
0.0
 11
94.285562085817986
 21
162.49999999999821
 31
0.0
  0
LINE
  5
EB30
  8
1
 10
29.999999999999918
 20
24.441768583615261
 30
0.0
 11
30.000000000001389
 21
162.49999999999881
 31
0.0
  0
LINE
  5
EB31
  8
3
 10
99.338562085816875
 20
62.999999999999638
 30
0.0
 11
100.28556208581681
 21
61.359747885231918
 31
0.0
  0
LINE
  5
EB32
  8
3
 10
89.232562085816824
 20
62.999999999999638
 30
0.0
 11
88.285562085816835
 21
61.359747885231918
 31
0.0
  0
LINE
  5
EB33
  8
0
 10
100.28556208581681
 20
62.999999999999638
 30
0.0
 11
88.285562085816807
 21
62.999999999999638
 31
0.0
  0
LINE
  5
EB34
  8
0
 10
90.285562085816593
 20
157.49999999999881
 30
0.0
 11
88.285562085816593
 21
155.49999999999881
 31
0.0
  0
LINE
  5
EB35
  8
0
 10
88.285562085816565
 20
57.499999999998757
 30
0.0
 11
88.285562085816565
 21
68.499999999998607
 31
0.0
  0
LINE
  5
EB36
  8
3
 10
89.232562085816895
 20
62.999999999999652
 30
0.0
 11
89.232562085816511
 21
68.499999999998593
 31
0.0
  0
LINE
  5
EB37
  8
0
 10
88.285562085816565
 20
155.49999999999869
 30
0.0
 11
100.28556208581659
 21
155.49999999999869
 31
0.0
  0
LINE
  5
EB38
  8
0
 10
98.285562085816593
 20
157.49999999999869
 30
0.0
 11
100.28556208581659
 21
155.49999999999869
 31
0.0
  0
LINE
  5
EB39
  8
3
 10
99.338562085816974
 20
62.999999999999652
 30
0.0
 11
99.338562085816619
 21
68.499999999998593
 31
0.0
  0
LINE
  5
EB3A
  8
0
 10
100.28556208581649
 20
57.499999999998757
 30
0.0
 11
100.28556208581649
 21
68.499999999998593
 31
0.0
  0
LINE
  5
EB3B
  8
0
 10
90.285562085816593
 20
157.49999999999881
 30
0.0
 11
98.285562085816593
 21
157.49999999999869
 31
0.0
  0
LINE
  5
EB59
  8
0
 10
26.0
 20
157.49999999999889
 30
0.0
 11
34.0
 21
157.49999999999881
 31
0.0
  0
LINE
  5
EB5A
  8
0
 10
35.999999999999972
 20
57.499999999998877
 30
0.0
 11
36.0
 21
68.499999999998607
 31
0.0
  0
LINE
  5
EB5B
  8
3
 10
35.053000000000381
 20
62.999999999999758
 30
0.0
 11
35.053000000000033
 21
68.499999999998593
 31
0.0
  0
LINE
  5
EB5C
  8
3
 10
24.947000000000301
 20
62.999999999999758
 30
0.0
 11
24.946999999999949
 21
68.499999999998593
 31
0.0
  0
LINE
  5
EB5D
  8
0
 10
23.999999999999972
 20
57.499999999998877
 30
0.0
 11
23.99999999999995
 21
68.499999999998593
 31
0.0
  0
LINE
  5
EB5E
  8
0
 10
26.0
 20
157.49999999999889
 30
0.0
 11
24.0
 21
155.49999999999889
 31
0.0
  0
LINE
  5
EB5F
  8
0
 10
34.0
 20
157.49999999999881
 30
0.0
 11
36.0
 21
155.49999999999881
 31
0.0
  0
LINE
  5
EB60
  8
0
 10
23.999999999999972
 20
155.49999999999881
 30
0.0
 11
36.000000000000028
 21
155.49999999999881
 31
0.0
  0
LINE
  5
EB61
  8
0
 10
36.000000000000362
 20
62.999999999999758
 30
0.0
 11
24.000000000000298
 21
62.999999999999758
 31
0.0
  0
LINE
  5
EB62
  8
3
 10
24.947000000000301
 20
62.999999999999758
 30
0.0
 11
24.00000000000033
 21
61.359747885232039
 31
0.0
  0
LINE
  5
EB63
  8
3
 10
35.05300000000036
 20
62.999999999999758
 30
0.0
 11
36.000000000000327
 21
61.359747885232039
 31
0.0
  0
LINE
  5
EB8D
  8
0
 10
74.285562085816593
 20
36.699999999999072
 30
0.0
 11
114.28556208581659
 21
36.699999999999072
 31
0.0
  0
LINE
  5
EB8E
  8
0
 10
74.285562085816593
 20
37.499999999999062
 30
0.0
 11
114.28556208581659
 21
37.499999999999062
 31
0.0
  0
LINE
  5
EB8F
  8
0
 10
82.584232085816595
 20
42.499999999999062
 30
0.0
 11
74.285562085816593
 21
37.499999999999062
 31
0.0
  0
LINE
  5
EB90
  8
0
 10
74.285562085816593
 20
30.999999999999059
 30
0.0
 11
74.285562085816593
 21
37.499999999999062
 31
0.0
  0
ARC
  5
EB91
  8
0
 10
75.285562085816593
 20
30.999999999999059
 30
0.0
 40
1.0
 50
180.0
 51
270.0
  0
LINE
  5
EB94
  8
0
 10
103.9355610858165
 20
48.135982999999058
 30
0.0
 11
84.635563085816614
 21
48.135982999999058
 31
0.0
  0
LINE
  5
EB96
  8
0
 10
82.584232085816595
 20
42.499999999999062
 30
0.0
 11
105.98689208581661
 21
42.499999999999062
 31
0.0
  0
LINE
  5
EB97
  8
0
 10
84.635563085816614
 20
48.135982999999058
 30
0.0
 11
82.584232085816595
 21
42.499999999999062
 31
0.0
  0
LINE
  5
EBA9
  8
0
 10
114.28556208581659
 20
30.999999999999059
 30
0.0
 11
114.28556208581659
 21
37.499999999999062
 31
0.0
  0
ARC
  5
EBAA
  8
0
 10
113.28556208581659
 20
30.999999999999059
 30
0.0
 40
1.0
 50
270.0
 51
0.0
  0
LINE
  5
EBAB
  8
0
 10
105.98689208581651
 20
42.499999999999062
 30
0.0
 11
114.28556208581659
 21
37.499999999999062
 31
0.0
  0
LINE
  5
EBAC
  8
0
 10
103.9355610858166
 20
48.135982999999058
 30
0.0
 11
105.98689208581651
 21
42.499999999999062
 31
0.0
  0
LINE
  5
EBB9
  8
0
 10
39.64999899999998
 20
48.135982999999989
 30
0.0
 11
41.701329999999977
 21
42.5
 31
0.0
  0
LINE
  5
EBBA
  8
0
 10
41.701329999999977
 20
42.5
 30
0.0
 11
50.0
 21
37.5
 31
0.0
  0
ARC
  5
EBBB
  8
0
 10
49.0
 20
31.0
 30
0.0
 40
1.0
 50
270.0
 51
0.0
  0
LINE
  5
EBBC
  8
0
 10
50.0
 20
31.0
 30
0.0
 11
50.0
 21
37.5
 31
0.0
  0
LINE
  5
EBBD
  8
0
 10
20.35000100000002
 20
48.135982999999989
 30
0.0
 11
18.298670000000008
 21
42.5
 31
0.0
  0
LINE
  5
EBBE
  8
0
 10
18.298670000000008
 20
42.5
 30
0.0
 11
41.701329999999977
 21
42.5
 31
0.0
  0
LINE
  5
EBBF
  8
0
 10
39.64999899999998
 20
48.135982999999989
 30
0.0
 11
20.35000100000002
 21
48.135982999999989
 31
0.0
  0
ARC
  5
EBC0
  8
0
 10
11.0
 20
31.0
 30
0.0
 40
1.0
 50
180.0
 51
270.0
  0
LINE
  5
EBC1
  8
0
 10
10.0
 20
31.0
 30
0.0
 11
10.0
 21
37.5
 31
0.0
  0
LINE
  5
EBC2
  8
0
 10
18.298670000000008
 20
42.5
 30
0.0
 11
10.0
 21
37.5
 31
0.0
  0
LINE
  5
EBC3
  8
0
 10
10.0
 20
37.5
 30
0.0
 11
50.0
 21
37.5
 31
0.0
  0
LINE
  5
EBC4
  8
0
 10
10.0
 20
36.700000000000003
 30
0.0
 11
50.0
 21
36.700000000000003
 31
0.0
  0
LINE
  5
EBCF
  8
0
 10
75.285562085816593
 20
29.999999999999059
 30
0.0
 11
113.28556208581659
 21
29.999999999999059
 31
0.0
  0
LINE
  5
EBD0
  8
0
 10
11.0
 20
30.0
 30
0.0
 11
49.0
 21
30.0
 31
0.0
  0
CIRCLE
  5
EE26
  8
3
 10
30.0
 20
196.76831175378459
 30
0.0
 40
5.052999999999999
  0
CIRCLE
  5
EE27
  8
0
 10
30.0
 20
196.76831175378459
 30
0.0
 40
6.0
  0
CIRCLE
  5
EE28
  8
0
 10
30.0
 20
196.76831175378459
 30
0.0
 40
8.4226497308114006
  0
LINE
  5
EE29
  8
1
 10
54.999999999999893
 20
196.76831175378459
 30
0.0
 11
5.0000000000001128
 21
196.76831175378459
 31
0.0
  0
LINE
  5
EE2A
  8
1
 10
30.0
 20
221.76831175378459
 30
0.0
 11
30.0
 21
171.7683117537847
 31
0.0
  0
CIRCLE
  5
EE2B
  8
0
 10
30.000000000000171
 20
196.76831175378459
 30
0.0
 40
11.70133000000018
  0
CIRCLE
  5
EE2C
  8
0
 10
30.0
 20
196.76831175378459
 30
0.0
 40
19.999999999999911
  0
LINE
  5
EE2D
  8
0
 10
21.49999999999989
 20
191.86083446567289
 30
0.0
 11
21.49999999999995
 21
193.4907436181204
 31
0.0
  0
LINE
  5
EE2E
  8
0
 10
21.50000000000006
 20
200.04587988944891
 30
0.0
 11
21.50000000000011
 21
201.67578904189639
 31
0.0
  0
LINE
  5
EE2F
  8
0
 10
38.499999999999893
 20
191.86083446567289
 30
0.0
 11
38.499999999999893
 21
193.4907436181195
 31
0.0
  0
LINE
  5
EE30
  8
0
 10
38.5
 20
200.04587988944951
 30
0.0
 11
38.5
 21
201.67578904189639
 31
0.0
  0
LINE
  5
EE31
  8
0
 10
35.196152422703079
 20
77.362819089372749
 30
0.0
 11
35.196152422707172
 21
69.637180910624068
 31
0.0
  0
LINE
  5
EE32
  8
0
 10
40.392304845413463
 20
77.362819089372749
 30
0.0
 11
40.392304845413463
 21
69.637180910624295
 31
0.0
  0
LINE
  5
EE33
  8
0
 10
24.80384757729562
 20
77.362819089372749
 30
0.0
 11
24.803847577291521
 21
69.637180910624068
 31
0.0
  0
LINE
  5
EE34
  8
0
 10
19.607695154586711
 20
77.362819089372749
 30
0.0
 11
19.607695154586711
 21
69.637180910624295
 31
0.0
  0
LINE
  5
EE35
  8
0
 10
19.607695154586711
 20
69.637180910624409
 30
0.0
 11
21.577350269188369
 21
68.499999999998579
 31
0.0
  0
ARC
  5
EE36
  8
0
 10
22.22793674596468
 20
73.12287105313834
 30
0.0
 40
4.3342072378418903
 50
242.8577973018613
 51
306.46425027470519
  0
ARC
  5
EE37
  8
0
 10
29.999999999998611
 20
85.123249886480551
 30
0.0
 40
16.334574751887139
 50
251.45148071741059
 51
288.5485192825825
  0
ARC
  5
EE38
  8
0
 10
37.772318585664408
 20
73.126002798337993
 30
0.0
 40
4.3368779396447952
 50
233.55762654201331
 51
297.12032588147292
  0
LINE
  5
EE39
  8
0
 10
40.392304845413463
 20
69.637180910624409
 30
0.0
 11
38.422649730811798
 21
68.499999999998579
 31
0.0
  0
LINE
  5
EE3A
  8
0
 10
21.577350269188489
 20
68.499999999998579
 30
0.0
 11
38.422649730811798
 21
68.499999999998607
 31
0.0
  0
LINE
  5
EE3B
  8
0
 10
21.577350269188489
 20
78.499999999998579
 30
0.0
 11
38.422649730811798
 21
78.499999999998579
 31
0.0
  0
LINE
  5
EE3C
  8
0
 10
40.392304845413463
 20
77.362819089372749
 30
0.0
 11
38.422649730811798
 21
78.499999999998579
 31
0.0
  0
ARC
  5
EE3D
  8
0
 10
37.772318585668224
 20
73.87399720167906
 30
0.0
 40
4.336877939625416
 50
62.879674118450481
 51
126.4423734581282
  0
ARC
  5
EE3E
  8
0
 10
30.000000000001108
 20
61.876750113532211
 30
0.0
 40
16.33457475187155
 50
71.451480717407193
 51
108.5485192825996
  0
ARC
  5
EE3F
  8
0
 10
22.227976603567729
 20
73.877617816360328
 30
0.0
 40
4.3337903948739553
 50
53.532332292842959
 51
117.14562013061609
  0
LINE
  5
EE40
  8
0
 10
19.607695154586711
 20
77.362819089372749
 30
0.0
 11
21.577350269188369
 21
78.499999999998579
 31
0.0
  0
LINE
  5
EE41
  8
0
 10
94.285562085815002
 20
77.362819089372763
 30
0.0
 11
94.285562085818185
 21
69.637180910624423
 31
0.0
  0
LINE
  5
EE42
  8
0
 10
102.70821181662861
 20
68.499999999998593
 30
0.0
 11
85.862912355005335
 21
68.499999999998593
 31
0.0
  0
LINE
  5
EE43
  8
0
 10
85.862912355007268
 20
78.499999999998607
 30
0.0
 11
102.7082118166305
 21
78.499999999998607
 31
0.0
  0
LINE
  5
EE44
  8
0
 10
85.285562085816466
 20
78.211324865404052
 30
0.0
 11
85.862912355007268
 21
78.499999999997655
 31
0.0
  0
ARC
  5
EE45
  8
0
 10
89.785562085818754
 20
65.854330579495283
 30
0.0
 40
12.356994285908479
 50
68.643720031950977
 51
111.35627996807
  0
LINE
  5
EE46
  8
0
 10
85.862912355005335
 20
68.499999999997655
 30
0.0
 11
85.285562085816466
 21
68.860471904319013
 31
0.0
  0
LINE
  5
EE47
  8
0
 10
85.285562085816466
 20
68.860471904319013
 30
0.0
 11
85.285562085816466
 21
78.211324865404052
 31
0.0
  0
ARC
  5
EE48
  8
0
 10
89.785562085816693
 20
81.145669420512675
 30
0.0
 40
12.35699428591928
 50
248.64372003196141
 51
291.35627996803839
  0
ARC
  5
EE49
  8
0
 10
98.785562085817958
 20
81.145669420504106
 30
0.0
 40
12.356994285910689
 50
248.64372003195089
 51
291.35627996804908
  0
LINE
  5
EE4A
  8
0
 10
103.28556208581639
 20
68.860471904318345
 30
0.0
 11
103.28556208581639
 21
78.21132486540337
 31
0.0
  0
LINE
  5
EE4B
  8
0
 10
102.70821181662861
 20
68.499999999998593
 30
0.0
 11
103.28556208581639
 21
68.860471904318345
 31
0.0
  0
ARC
  5
EE4C
  8
0
 10
98.785562085817958
 20
65.854330579493066
 30
0.0
 40
12.3569942859107
 50
68.643720031950963
 51
111.35627996804899
  0
LINE
  5
EE4D
  8
0
 10
103.28556208581639
 20
78.21132486540337
 30
0.0
 11
102.7082118166305
 21
78.499999999998607
 31
0.0
  0
ARC
  5
EE4E
  8
0
 10
94.285562085816935
 20
41.855149368067828
 30
0.0
 40
15.37116642140661
 50
71.381512266611239
 51
108.61848773338529
  0
ARC
  5
EE4F
  8
0
 10
94.285562085816935
 20
68.562579568795144
 30
0.0
 40
16.720827000845478
 50
252.93269415092681
 51
287.06730584907319
  0
LINE
  5
EE50
  8
0
 10
89.378084797705412
 20
52.578127010098498
 30
0.0
 11
89.378084797705412
 21
56.421872989902013
 31
0.0
  0
LINE
  5
EE51
  8
0
 10
84.470607509593208
 20
56.691709999999773
 30
0.0
 11
84.470607509593208
 21
52.308289999999758
 31
0.0
  0
ARC
  5
EE52
  8
0
 10
86.924346222032213
 20
56.298100189697827
 30
0.0
 40
4.456347621748141
 50
236.59067946386401
 51
303.40932053613579
  0
LINE
  5
EE53
  8
0
 10
86.259597043677488
 20
51.499999999999773
 30
0.0
 11
102.3115271279561
 21
51.499999999999751
 31
0.0
  0
ARC
  5
EE54
  8
0
 10
86.924346222032284
 20
53.081857563794308
 30
0.0
 40
4.1444582256801148
 50
53.69717260552634
 51
126.3028273944736
  0
LINE
  5
EE55
  8
0
 10
102.3115271279561
 20
57.499999999999758
 30
0.0
 11
86.259597043677445
 21
57.499999999999758
 31
0.0
  0
LINE
  5
EE56
  8
0
 10
84.470607509593208
 20
56.691709999999773
 30
0.0
 11
86.259597043677488
 21
57.499999999999758
 31
0.0
  0
LINE
  5
EE57
  8
0
 10
104.1005166620406
 20
56.691709999999773
 30
0.0
 11
104.1005166620406
 21
52.308289999999758
 31
0.0
  0
LINE
  5
EE58
  8
0
 10
99.193039373928684
 20
52.578127010098498
 30
0.0
 11
99.193039373928684
 21
56.421872989902013
 31
0.0
  0
ARC
  5
EE59
  8
0
 10
101.6467779496016
 20
56.298100189697472
 30
0.0
 40
4.4563476217477671
 50
236.59067946386409
 51
303.40932053613977
  0
LINE
  5
EE5A
  8
0
 10
104.1005166620406
 20
52.308289999999758
 30
0.0
 11
102.3115271279561
 21
51.499999999999773
 31
0.0
  0
ARC
  5
EE5B
  8
0
 10
101.6467779496017
 20
53.081857563794621
 30
0.0
 40
4.1444582256797791
 50
53.697172605526347
 51
126.3028273944736
  0
LINE
  5
EE5C
  8
0
 10
104.1005166620406
 20
56.691709999999773
 30
0.0
 11
102.3115271279561
 21
57.49999999999978
 31
0.0
  0
LINE
  5
EE5D
  8
0
 10
29.99999999999747
 20
56.421872989902148
 30
0.0
 11
30.00000000000043
 21
52.578127010097361
 31
0.0
  0
LINE
  5
EE5E
  8
0
 10
38.025965042139923
 20
51.499999999999758
 30
0.0
 11
21.974034957861679
 21
51.499999999999758
 31
0.0
  0
LINE
  5
EE5F
  8
0
 10
21.97403495786179
 20
57.499999999999773
 30
0.0
 11
38.025965042139923
 21
57.499999999999758
 31
0.0
  0
LINE
  5
EE60
  8
0
 10
21.500000000000821
 20
57.226315789473368
 30
0.0
 11
21.974034957861729
 21
57.499999999999751
 31
0.0
  0
ARC
  5
EE61
  8
0
 10
25.749999999999861
 20
45.597379445112757
 30
0.0
 40
11.628936344360611
 50
68.563634687485887
 51
111.4363653125106
  0
LINE
  5
EE62
  8
0
 10
21.974034957861729
 20
51.499999999999737
 30
0.0
 11
21.500000000000821
 21
51.841752567948618
 31
0.0
  0
LINE
  5
EE63
  8
0
 10
21.500000000000821
 20
51.841752567948618
 30
0.0
 11
21.500000000000821
 21
57.226315789473368
 31
0.0
  0
ARC
  5
EE64
  8
0
 10
25.750000000000139
 20
64.474420307449563
 30
0.0
 40
12.63266773950094
 50
250.34052150748229
 51
289.65947849251768
  0
ARC
  5
EE65
  8
0
 10
34.250000000001052
 20
64.474420307452064
 30
0.0
 40
12.63266773950345
 50
250.34052150748579
 51
289.65947849251762
  0
LINE
  5
EE66
  8
0
 10
38.500000000000831
 20
51.841752567948632
 30
0.0
 11
38.500000000000831
 21
57.226315789473389
 31
0.0
  0
LINE
  5
EE67
  8
0
 10
38.025965042139923
 20
51.499999999999758
 30
0.0
 11
38.500000000000831
 21
51.841752567948632
 31
0.0
  0
ARC
  5
EE68
  8
0
 10
34.250000000001002
 20
45.597379445112587
 30
0.0
 40
11.62893634436079
 50
68.563634687485887
 51
111.4363653125106
  0
LINE
  5
EE69
  8
0
 10
38.500000000000831
 20
57.226315789473389
 30
0.0
 11
38.025965042139923
 21
57.499999999999758
 31
0.0
  0
LINE
  5
EE6A
  8
0
 10
37.391304347826271
 20
50.808613009126127
 30
0.0
 11
37.391304347826271
 21
51.5
 31
0.0
  0
LINE
  5
EE6B
  8
0
 10
22.608695652174131
 20
51.5
 30
0.0
 11
22.608695652174131
 21
50.808613009126127
 31
0.0
  0
ARC
  5
EE6C
  8
0
 10
21.150362318840759
 20
50.808613009126127
 30
0.0
 40
1.458333333333345
 50
330.10075103467909
 51
0.0
  0
ARC
  5
EE6D
  8
0
 10
38.849637681159642
 20
50.808613009126127
 30
0.0
 40
1.4583333333333419
 50
180.0
 51
209.89924896532091
  0
ARC
  5
EE6E
  8
0
 10
30.000000000000028
 20
45.72000000000002
 30
0.0
 40
8.7499999999999147
 50
150.10075103467921
 51
163.94431704355881
  0
ARC
  5
EE6F
  8
0
 10
30.000000000000369
 20
45.720000000000077
 30
0.0
 40
8.7499999999998188
 50
16.05568295644116
 51
29.899248965320808
  0
LINE
  5
EE70
  8
0
 10
22.414596273292119
 20
50.081668293536687
 30
0.0
 11
37.585403726708279
 21
50.081668293536687
 31
0.0
  0
LINE
  5
EE71
  8
0
 10
30.0
 20
186.95335717756089
 30
0.0
 11
28.588457268119669
 21
187.7683117537847
 31
0.0
  0
LINE
  5
EE72
  8
0
 10
22.911542731880498
 20
191.045879889449
 30
0.0
 11
21.49999999999989
 21
191.86083446567289
 31
0.0
  0
LINE
  5
EE73
  8
0
 10
38.500000000000057
 20
201.67578904189639
 30
0.0
 11
37.088457268120123
 21
202.49074361811989
 31
0.0
  0
LINE
  5
EE74
  8
0
 10
31.411542731880331
 20
205.76831175378459
 30
0.0
 11
30.0
 21
206.5832663300084
 31
0.0
  0
LINE
  5
EE75
  8
0
 10
29.99999999999995
 20
186.95335717756089
 30
0.0
 11
31.411542731880221
 21
187.76831175378459
 31
0.0
  0
LINE
  5
EE76
  8
0
 10
37.088457268120237
 20
191.0458798894494
 30
0.0
 11
38.499999999999943
 21
191.86083446567289
 31
0.0
  0
LINE
  5
EE77
  8
0
 10
21.50000000000006
 20
201.67578904189639
 30
0.0
 11
22.911542731880449
 21
202.49074361812029
 31
0.0
  0
LINE
  5
EE78
  8
0
 10
28.588457268119839
 20
205.76831175378459
 30
0.0
 11
30.0
 21
206.5832663300084
 31
0.0
  0
LINE
  5
EE79
  8
0
 10
101.6768664336425
 20
50.808613009125203
 30
0.0
 11
101.6768664336425
 21
51.499999999999062
 31
0.0
  0
LINE
  5
EE7A
  8
0
 10
86.894257737990415
 20
51.499999999999062
 30
0.0
 11
86.894257737990415
 21
50.808613009125203
 31
0.0
  0
ARC
  5
EE7B
  8
0
 10
85.435924404657044
 20
50.808613009125203
 30
0.0
 40
1.458333333333345
 50
330.10075103467909
 51
0.0
  0
ARC
  5
EE7C
  8
0
 10
103.1351997669759
 20
50.808613009125203
 30
0.0
 40
1.4583333333333579
 50
180.0
 51
209.8992489653206
  0
ARC
  5
EE7D
  8
0
 10
94.285562085816423
 20
45.719999999999089
 30
0.0
 40
8.7499999999999147
 50
150.10075103467921
 51
163.94431704355881
  0
ARC
  5
EE7E
  8
0
 10
94.285562085816665
 20
45.719999999999139
 30
0.0
 40
8.7499999999998188
 50
16.05568295644116
 51
29.899248965320808
  0
LINE
  5
EE7F
  8
0
 10
86.7001583591084
 20
50.081668293535763
 30
0.0
 11
101.8709658125245
 21
50.081668293535763
 31
0.0
  0
LINE
  5
EE80
  8
0
 10
84.470607509594004
 20
52.308290000000021
 30
0.0
 11
86.259597043678525
 21
51.499999999999957
 31
0.0
  0
LINE
  5
EE81
  8
0
 10
35.196152422706753
 20
187.76831175378459
 30
0.0
 11
24.803847577293599
 21
187.7683117537847
 31
0.0
  0
LINE
  5
EE82
  8
0
 10
35.196152422706803
 20
205.76831175378459
 30
0.0
 11
24.803847577293709
 21
205.7683117537847
 31
0.0
  0
LINE
  5
EE83
  8
0
 10
40.392304845413548
 20
196.7683117537847
 30
0.0
 11
35.196152422706753
 21
187.76831175378459
 31
0.0
  0
LINE
  5
EE84
  8
0
 10
24.803847577293709
 20
205.7683117537847
 30
0.0
 11
19.60769515458685
 21
196.76831175378459
 31
0.0
  0
LINE
  5
EE85
  8
0
 10
40.392304845413548
 20
196.76831175378459
 30
0.0
 11
35.196152422706803
 21
205.76831175378459
 31
0.0
  0
LINE
  5
EE86
  8
0
 10
24.803847577293599
 20
187.7683117537847
 30
0.0
 11
19.60769515458685
 21
196.76831175378459
 31
0.0
  0
ARC
  5
EE87
  8
0
 10
30.0
 20
196.76831175378459
 30
0.0
 40
9.6499990000000082
 50
128.85056541294989
 51
148.25745963175211
  0
ARC
  5
EE88
  8
0
 10
30.0
 20
196.76831175378459
 30
0.0
 40
9.6499990000000082
 50
151.74254036824391
 51
171.1494345870498
  0
ARC
  5
EE89
  8
0
 10
30.0
 20
196.76831175378459
 30
0.0
 40
9.6499990000000082
 50
188.85056541294929
 51
208.25745963175021
  0
ARC
  5
EE8A
  8
0
 10
30.0
 20
196.76831175378459
 30
0.0
 40
9.6499990000000082
 50
211.74254036824749
 51
231.14943458705
  0
ARC
  5
EE8B
  8
0
 10
30.0
 20
196.76831175378459
 30
0.0
 40
9.6499990000000082
 50
248.85056541294961
 51
268.25745963175092
  0
ARC
  5
EE8C
  8
0
 10
30.0
 20
196.76831175378459
 30
0.0
 40
9.6499990000000082
 50
271.74254036824908
 51
291.14943458704693
  0
ARC
  5
EE8D
  8
0
 10
30.0
 20
196.76831175378459
 30
0.0
 40
9.6499990000000082
 50
308.85056541295393
 51
328.25745963175211
  0
ARC
  5
EE8E
  8
0
 10
30.0
 20
196.76831175378459
 30
0.0
 40
9.6499990000000082
 50
331.74254036824391
 51
351.14943458704403
  0
ARC
  5
EE8F
  8
0
 10
30.0
 20
196.76831175378459
 30
0.0
 40
9.6499990000000082
 50
8.8505654129556692
 51
28.25745963175024
  0
ARC
  5
EE90
  8
0
 10
30.0
 20
196.76831175378459
 30
0.0
 40
9.6499990000000082
 50
31.74254036824788
 51
51.149434587045803
  0
ARC
  5
EE91
  8
0
 10
30.0
 20
196.76831175378459
 30
0.0
 40
9.6499990000000082
 50
68.850565412953074
 51
88.257459631750933
  0
ARC
  5
EE92
  8
0
 10
30.0
 20
196.76831175378459
 30
0.0
 40
9.6499990000000082
 50
91.742540368249053
 51
111.1494345870469
  0
TEXT
  5
EF51
  8
0
 62
     3
 10
0.0
 20
0.0
 30
0.0
 40
10.0
  1
LM40BP-12B-SUS
  7
STANDARD1
  0
ENDSEC
  0
EOF
