  0
SECTION
  2
HEADER
  9
$ACADVER
  1
AC1009
  9
$INSBASE
 10
0.0
 20
0.0
 30
0.0
  9
$EXTMIN
 10
0.0
 20
-2.960436562073669
 30
0.0
  9
$EXTMAX
 10
133.3767236817543
 20
241.4863899667223
 30
0.0
  9
$LIMMIN
 10
0.0
 20
0.0
  9
$LIMMAX
 10
375.0
 20
270.0
  9
$ORTHOMODE
 70
     1
  9
$REGENMODE
 70
     1
  9
$FILLMODE
 70
     1
  9
$QTEXTMODE
 70
     0
  9
$MIRRTEXT
 70
     0
  9
$DRAGMODE
 70
     2
  9
$LTSCALE
 40
6.0
  9
$OSMODE
 70
  3071
  9
$ATTMODE
 70
     1
  9
$TEXTSIZE
 40
0.2
  9
$TRACEWID
 40
0.05
  9
$TEXTSTYLE
  7
STANDARD
  9
$CLAYER
  8
0
  9
$CELTYPE
  6
BYLAYER
  9
$CECOLOR
 62
   256
  9
$DIMSCALE
 40
1.0
  9
$DIMASZ
 40
3.0
  9
$DIMEXO
 40
1.0
  9
$DIMDLI
 40
6.0
  9
$DIMRND
 40
0.0
  9
$DIMDLE
 40
0.0
  9
$DIMEXE
 40
1.0
  9
$DIMTP
 40
495.0
  9
$DIMTM
 40
0.0
  9
$DIMTXT
 40
3.0
  9
$DIMCEN
 40
0.0
  9
$DIMTSZ
 40
0.0
  9
$DIMTOL
 70
     0
  9
$DIMLIM
 70
     0
  9
$DIMTIH
 70
     0
  9
$DIMTOH
 70
     0
  9
$DIMSE1
 70
     0
  9
$DIMSE2
 70
     0
  9
$DIMTAD
 70
     1
  9
$DIMZIN
 70
     0
  9
$DIMBLK
  1

  9
$DIMASO
 70
     0
  9
$DIMSHO
 70
     0
  9
$DIMPOST
  1

  9
$DIMAPOST
  1

  9
$DIMALT
 70
     0
  9
$DIMALTD
 70
     2
  9
$DIMALTF
 40
25.399999999999999
  9
$DIMLFAC
 40
1.0
  9
$DIMTOFL
 70
     1
  9
$DIMTVP
 40
0.0
  9
$DIMTIX
 70
     1
  9
$DIMSOXD
 70
     0
  9
$DIMSAH
 70
     0
  9
$DIMBLK1
  1

  9
$DIMBLK2
  1

  9
$DIMSTYLE
  2
STANDARD
  9
$DIMCLRD
 70
     0
  9
$DIMCLRE
 70
     0
  9
$DIMCLRT
 70
     4
  9
$DIMTFAC
 40
1.0
  9
$DIMGAP
 40
1.0
  9
$LUNITS
 70
     2
  9
$LUPREC
 70
     4
  9
$SKETCHINC
 40
0.1
  9
$FILLETRAD
 40
2.0
  9
$AUNITS
 70
     0
  9
$AUPREC
 70
     0
  9
$MENU
  1
C:\R13\WIN\SUPPORT\ACAD-I
  9
$ELEVATION
 40
0.0
  9
$PELEVATION
 40
0.0
  9
$THICKNESS
 40
0.0
  9
$LIMCHECK
 70
     0
  9
$BLIPMODE
 70
     0
  9
$CHAMFERA
 40
0.0
  9
$CHAMFERB
 40
0.0
  9
$SKPOLY
 70
     0
  9
$TDCREATE
 40
2451963.597977709
  9
$TDUPDATE
 40
2456602.6133103361
  9
$TDINDWG
 40
0.1053478125
  9
$TDUSRTIMER
 40
2456598.444583924
  9
$USRTIMER
 70
     1
  9
$ANGBASE
 50
0.0
  9
$ANGDIR
 70
     0
  9
$PDMODE
 70
     0
  9
$PDSIZE
 40
0.0
  9
$PLINEWID
 40
0.0
  9
$COORDS
 70
     1
  9
$SPLFRAME
 70
     0
  9
$SPLINETYPE
 70
     6
  9
$SPLINESEGS
 70
     8
  9
$ATTDIA
 70
     0
  9
$ATTREQ
 70
     1
  9
$HANDLING
 70
     1
  9
$HANDSEED
  5
F2E0
  9
$SURFTAB1
 70
     6
  9
$SURFTAB2
 70
     6
  9
$SURFTYPE
 70
     6
  9
$SURFU
 70
     6
  9
$SURFV
 70
     6
  9
$UCSNAME
  2

  9
$UCSORG
 10
0.0
 20
0.0
 30
0.0
  9
$UCSXDIR
 10
1.0
 20
0.0
 30
0.0
  9
$UCSYDIR
 10
0.0
 20
1.0
 30
0.0
  9
$PUCSNAME
  2

  9
$PUCSORG
 10
0.0
 20
0.0
 30
0.0
  9
$PUCSXDIR
 10
1.0
 20
0.0
 30
0.0
  9
$PUCSYDIR
 10
0.0
 20
1.0
 30
0.0
  9
$USERI1
 70
     4
  9
$USERI2
 70
     1
  9
$USERI3
 70
     0
  9
$USERI4
 70
     0
  9
$USERI5
 70
     0
  9
$USERR1
 40
1.0
  9
$USERR2
 40
3.0
  9
$USERR3
 40
3.0
  9
$USERR4
 40
3.0
  9
$USERR5
 40
10.0
  9
$WORLDVIEW
 70
     1
  9
$SHADEDGE
 70
     3
  9
$SHADEDIF
 70
    70
  9
$TILEMODE
 70
     1
  9
$MAXACTVP
 70
    16
  9
$PLIMCHECK
 70
     0
  9
$PEXTMIN
 10
1.0000000000000000E+020
 20
1.0000000000000000E+020
 30
1.0000000000000000E+020
  9
$PEXTMAX
 10
-1.0000000000000000E+020
 20
-1.0000000000000000E+020
 30
-1.0000000000000000E+020
  9
$PLIMMIN
 10
0.0
 20
0.0
  9
$PLIMMAX
 10
12.0
 20
9.0
  9
$UNITMODE
 70
     0
  9
$VISRETAIN
 70
     0
  9
$PLINEGEN
 70
     0
  9
$PSLTSCALE
 70
     0
  0
ENDSEC
  0
SECTION
  2
TABLES
  0
TABLE
  2
VPORT
 70
     1
  0
VPORT
  2
*ACTIVE
 70
     0
 10
0.0
 20
0.0
 11
1.0
 21
1.0
 12
187.49427839065231
 22
169.9063198933564
 13
0.0
 23
0.0
 14
10.0
 24
10.0
 15
10.0
 25
10.0
 16
0.0
 26
0.0
 36
1.0
 17
0.0
 27
0.0
 37
0.0
 40
348.89937369551939
 41
1.831871345029239
 42
50.0
 43
0.0
 44
0.0
 50
0.0
 51
0.0
 71
     0
 72
   100
 73
     1
 74
     0
 75
     0
 76
     0
 77
     0
 78
     0
  0
ENDTAB
  0
TABLE
  2
LTYPE
 70
     3
  0
LTYPE
  2
CONTINUOUS
 70
     0
  3
Solid Line
 72
    65
 73
     0
 40
0.0
  0
LTYPE
  2
CENTER
 70
     0
  3
____ _ ____ _ ____ _ ____ _ ____ _ ____ _ ____
 72
    65
 73
     4
 40
2.0
 49
1.25
 49
-0.25
 49
0.25
 49
-0.25
  0
LTYPE
  2
PHANTOM2
 70
     0
  3
___ _ _ ___ _ _ ___ _ _ ___ _ _
 72
    65
 73
     6
 40
1.25
 49
0.625
 49
-0.125
 49
0.125
 49
-0.125
 49
0.125
 49
-0.125
  0
ENDTAB
  0
TABLE
  2
LAYER
 70
     3
  0
LAYER
  2
0
 70
     0
 62
     7
  6
CONTINUOUS
  0
LAYER
  2
1
 70
     0
 62
     1
  6
CENTER
  0
LAYER
  2
3
 70
     0
 62
     3
  6
CONTINUOUS
  0
ENDTAB
  0
TABLE
  2
STYLE
 70
     2
  0
STYLE
  2
STANDARD
 70
     0
 40
0.0
 41
1.0
 50
0.0
 71
     0
 42
0.2
  3
SIMPLEX
  4
BIGFONT
  0
STYLE
  2
STANDARD1
 70
     0
 40
0.0
 41
1.0
 50
0.0
 71
     0
 42
3.0
  3
txt
  4

  0
ENDTAB
  0
TABLE
  2
VIEW
 70
     0
  0
ENDTAB
  0
TABLE
  2
UCS
 70
     0
  0
ENDTAB
  0
TABLE
  2
APPID
 70
    29
  0
APPID
  2
ACAD
 70
     0
  0
APPID
  2
GENIUS_GENOREF_13
 70
     0
  0
APPID
  2
GENIUS_GENOENT_13
 70
     0
  0
APPID
  2
GENIUS_GENBH_13
 70
     0
  0
APPID
  2
GENIUS_GENOBJ_13
 70
     0
  0
APPID
  2
GENIUS_GENODEF_13
 70
     0
  0
APPID
  2
GENIUS_GENOLIS_13
 70
     0
  0
APPID
  2
GENIUS_GENOBJ-NBEHI-BHF_13
 70
     0
  0
APPID
  2
GENIUS_GENOBJ-NBEHI-BHB_13
 70
     0
  0
APPID
  2
GENIUS_GENOBJ-F-PART_13
 70
     0
  0
APPID
  2
GENIUS_GEFSTDP_13
 70
     0
  0
APPID
  2
GENIUS_GENOBJ-N-RSSYM_13
 70
     0
  0
APPID
  2
GENIUS_GENSYMENT_13
 70
     0
  0
APPID
  2
GENIUS_GENOBJ-N-TIT_13
 70
     0
  0
APPID
  2
GENIUS_GENTITLE_13
 70
     0
  0
APPID
  2
GENIUS_GENZVEED_13
 70
     0
  0
APPID
  2
GENIUS_GENOBJ-N-LEADER_13
 70
     0
  0
APPID
  2
GENIUS_GENOBJ-N-FIL_13
 70
     0
  0
APPID
  2
GENIUS_GENOBJ-N-SEC_13
 70
     0
  0
APPID
  2
GENIUS_GENOBJ-N-CRS_13
 70
     0
  0
APPID
  2
GENIUS_GENOBJ-N-ZOO_13
 70
     0
  0
APPID
  2
GENIUS_GENZOO_13
 70
     0
  0
APPID
  2
GENIUS_GENOBJ-F-TOL_13
 70
     0
  0
APPID
  2
GENIUS_GENFIL_13
 70
     0
  0
APPID
  2
GENIUS_GENOBJ-N-CHA_13
 70
     0
  0
APPID
  2
_CALL_MAC$
 70
     0
  0
APPID
  2
ACAD_EXEMPT_FROM_CAD_STANDARDS
 70
     0
  0
APPID
  2
ACAD_MLEADERVER
 70
     0
  0
APPID
  2
ACAD_NAV_VCDISPLAY
 70
     0
  0
ENDTAB
  0
TABLE
  2
DIMSTYLE
 70
     1
  0
DIMSTYLE
  2
STANDARD
 70
     0
  3

  4

  5

  6

  7

 40
1.0
 41
0.18
 42
0.0625
 43
0.38
 44
0.18
 45
0.0
 46
0.0
 47
0.0
 48
0.0
140
0.18
141
0.09
142
0.0
143
25.399999999999999
144
1.0
145
0.0
146
1.0
147
0.09
 71
     0
 72
     0
 73
     1
 74
     1
 75
     0
 76
     0
 77
     0
 78
     0
170
     0
171
     2
172
     0
173
     0
174
     0
175
     0
176
     0
177
     0
178
     0
  0
ENDTAB
  0
ENDSEC
  0
SECTION
  2
BLOCKS
  0
BLOCK
  8
0
  2
$MODEL_SPACE
 70
     0
 10
0.0
 20
0.0
 30
0.0
  3
$MODEL_SPACE
  1

  0
ENDBLK
  5
EF9A
  8
0
  0
BLOCK
 67
     1
  8
0
  2
$PAPER_SPACE
 70
     0
 10
0.0
 20
0.0
 30
0.0
  3
$PAPER_SPACE
  1

  0
ENDBLK
  5
EF98
 67
     1
  8
0
  0
ENDSEC
  0
SECTION
  2
ENTITIES
  0
LINE
  5
EE15
  8
0
 10
104.3767236817543
 20
159.5
 30
0.0
 11
112.3767236817543
 21
159.49999999999989
 31
0.0
  0
LINE
  5
EE16
  8
0
 10
114.3767236817533
 20
59.500000000000007
 30
0.0
 11
114.3767236817533
 21
70.459999999999852
 31
0.0
  0
LINE
  5
EE17
  8
3
 10
113.4297236817534
 20
65.000000000000014
 30
0.0
 11
113.4297236817534
 21
70.459999999999852
 31
0.0
  0
LINE
  5
EE18
  8
0
 10
112.3767236817543
 20
159.49999999999989
 30
0.0
 11
114.3767236817543
 21
157.49999999999989
 31
0.0
  0
LINE
  5
EE19
  8
0
 10
102.3767236817542
 20
157.5
 30
0.0
 11
114.3767236817543
 21
157.49999999999989
 31
0.0
  0
LINE
  5
EE1A
  8
3
 10
103.32372368175329
 20
65.000000000000014
 30
0.0
 11
103.32372368175329
 21
70.459999999999852
 31
0.0
  0
LINE
  5
EE1B
  8
0
 10
102.3767236817533
 20
59.500000000000007
 30
0.0
 11
102.3767236817533
 21
70.459999999999866
 31
0.0
  0
LINE
  5
EE1C
  8
0
 10
104.3767236817543
 20
159.5
 30
0.0
 11
102.3767236817543
 21
157.5
 31
0.0
  0
LINE
  5
EE1D
  8
0
 10
114.3767236817533
 20
65.0
 30
0.0
 11
102.37672368175321
 21
65.0
 31
0.0
  0
LINE
  5
EE1E
  8
3
 10
103.32372368175319
 20
65.0
 30
0.0
 11
102.37672368175321
 21
63.359747885232281
 31
0.0
  0
LINE
  5
EE1F
  8
3
 10
113.4297236817533
 20
65.0
 30
0.0
 11
114.37672368175321
 21
63.359747885232281
 31
0.0
  0
LINE
  5
EE20
  8
0
 10
114.3767236817534
 20
80.459999999999866
 30
0.0
 11
114.3767236817543
 21
157.49999999999989
 31
0.0
  0
LINE
  5
EE21
  8
3
 10
113.4297236817535
 20
80.459999999999866
 30
0.0
 11
113.4297236817543
 21
158.44699999999989
 31
0.0
  0
LINE
  5
EE22
  8
3
 10
103.32372368175341
 20
80.459999999999866
 30
0.0
 11
103.3237236817542
 21
158.447
 31
0.0
  0
LINE
  5
EE23
  8
0
 10
102.3767236817534
 20
80.459999999999866
 30
0.0
 11
102.3767236817543
 21
157.5
 31
0.0
  0
LINE
  5
EE36
  8
0
 10
28.999999999999019
 20
80.459999999999823
 30
0.0
 11
29.0
 21
157.5
 31
0.0
  0
LINE
  5
EE37
  8
3
 10
29.946999999999012
 20
80.459999999999823
 30
0.0
 11
29.946999999999889
 21
158.447
 31
0.0
  0
LINE
  5
EE38
  8
3
 10
40.052999999999123
 20
80.459999999999823
 30
0.0
 11
40.052999999999997
 21
158.44699999999989
 31
0.0
  0
LINE
  5
EE39
  8
0
 10
40.999999999999012
 20
80.459999999999823
 30
0.0
 11
41.0
 21
157.49999999999989
 31
0.0
  0
LINE
  5
EE3A
  8
3
 10
40.052999999998967
 20
65.0
 30
0.0
 11
40.999999999998863
 21
63.359747885232281
 31
0.0
  0
LINE
  5
EE3B
  8
3
 10
29.946999999998869
 20
65.0
 30
0.0
 11
28.99999999999887
 21
63.359747885232281
 31
0.0
  0
LINE
  5
EE3C
  8
0
 10
40.99999999999897
 20
65.0
 30
0.0
 11
28.99999999999887
 21
65.0
 31
0.0
  0
LINE
  5
EE3D
  8
0
 10
31.0
 20
159.5
 30
0.0
 11
29.0
 21
157.5
 31
0.0
  0
LINE
  5
EE3E
  8
0
 10
28.99999999999897
 20
59.500000000000007
 30
0.0
 11
28.99999999999898
 21
70.459999999999866
 31
0.0
  0
LINE
  5
EE3F
  8
3
 10
29.94699999999898
 20
65.000000000000014
 30
0.0
 11
29.94699999999898
 21
70.459999999999852
 31
0.0
  0
LINE
  5
EE40
  8
0
 10
28.99999999999989
 20
157.5
 30
0.0
 11
41.0
 21
157.49999999999989
 31
0.0
  0
LINE
  5
EE41
  8
0
 10
39.0
 20
159.49999999999989
 30
0.0
 11
41.0
 21
157.49999999999989
 31
0.0
  0
LINE
  5
EE42
  8
3
 10
40.052999999999081
 20
65.000000000000014
 30
0.0
 11
40.052999999999081
 21
70.459999999999852
 31
0.0
  0
LINE
  5
EE43
  8
0
 10
40.99999999999897
 20
59.5
 30
0.0
 11
40.99999999999897
 21
70.459999999999852
 31
0.0
  0
LINE
  5
EE44
  8
0
 10
31.0
 20
159.5
 30
0.0
 11
39.0
 21
159.49999999999989
 31
0.0
  0
LINE
  5
EE63
  8
0
 10
96.890393681754361
 20
44.540000999999997
 30
0.0
 11
119.8930536817543
 21
44.540000999999997
 31
0.0
  0
LINE
  5
EE64
  8
0
 10
117.8767236817543
 20
50.135982999999989
 30
0.0
 11
98.87672368175437
 21
50.135982999999989
 31
0.0
  0
LINE
  5
EE65
  8
0
 10
84.376723681754356
 20
30.0
 30
0.0
 11
132.3767236817543
 21
30.0
 31
0.0
  0
LINE
  5
EE66
  8
0
 10
83.376723681754356
 20
37.700000000000003
 30
0.0
 11
133.3767236817543
 21
37.700000000000003
 31
0.0
  0
LINE
  5
EE67
  8
0
 10
83.376723681754356
 20
38.540000999999997
 30
0.0
 11
133.3767236817543
 21
38.540000999999997
 31
0.0
  0
LINE
  5
EE6A
  8
0
 10
96.890393681754361
 20
44.540000999999997
 30
0.0
 11
83.376723681754356
 21
38.540000999999997
 31
0.0
  0
LINE
  5
EE6B
  8
0
 10
83.376723681754356
 20
31.0
 30
0.0
 11
83.376723681754356
 21
38.540000999999997
 31
0.0
  0
ARC
  5
EE6C
  8
0
 10
84.376723681754356
 20
31.0
 30
0.0
 40
1.0
 50
180.0
 51
270.0
  0
LINE
  5
EE6D
  8
0
 10
98.87672368175437
 20
50.135982999999989
 30
0.0
 11
96.890393681754361
 21
44.540000999999997
 31
0.0
  0
LINE
  5
EE7C
  8
0
 10
119.8930536817543
 20
44.540000999999997
 30
0.0
 11
133.3767236817543
 21
38.540000999999997
 31
0.0
  0
LINE
  5
EE87
  8
0
 10
117.8767236817543
 20
50.135982999999989
 30
0.0
 11
119.8930536817543
 21
44.540000999999997
 31
0.0
  0
LINE
  5
EE88
  8
0
 10
119.8930536817543
 20
44.540000999999997
 30
0.0
 11
119.8930536817543
 21
44.540000999999997
 31
0.0
  0
LINE
  5
EE8A
  8
0
 10
133.3767236817543
 20
38.540000999999997
 30
0.0
 11
133.3767236817543
 21
31.0
 31
0.0
  0
ARC
  5
EE8B
  8
0
 10
132.3767236817543
 20
31.0
 30
0.0
 40
1.0
 50
270.0
 51
0.0
  0
ARC
  5
EE93
  8
0
 10
59.0
 20
31.0
 30
0.0
 40
1.0
 50
270.0
 51
0.0
  0
LINE
  5
EE94
  8
0
 10
60.0
 20
38.540000999999997
 30
0.0
 11
60.0
 21
31.0
 31
0.0
  0
LINE
  5
EE95
  8
0
 10
46.516329999999982
 20
44.540000999999997
 30
0.0
 11
46.516329999999982
 21
44.540000999999997
 31
0.0
  0
LINE
  5
EE96
  8
0
 10
44.5
 20
50.135982999999989
 30
0.0
 11
46.516329999999982
 21
44.540000999999997
 31
0.0
  0
LINE
  5
EE9A
  8
0
 10
46.516329999999982
 20
44.540000999999997
 30
0.0
 11
60.0
 21
38.540000999999997
 31
0.0
  0
LINE
  5
EE9B
  8
0
 10
10.0
 20
38.540000999999997
 30
0.0
 11
60.0
 21
38.540000999999997
 31
0.0
  0
LINE
  5
EE9C
  8
0
 10
10.0
 20
37.700000000000003
 30
0.0
 11
60.0
 21
37.700000000000003
 31
0.0
  0
LINE
  5
EE9D
  8
0
 10
11.0
 20
30.0
 30
0.0
 11
59.0
 21
30.0
 31
0.0
  0
LINE
  5
EE9E
  8
0
 10
44.5
 20
50.135982999999989
 30
0.0
 11
25.5
 21
50.135982999999989
 31
0.0
  0
LINE
  5
EE9F
  8
0
 10
23.513669999999991
 20
44.540000999999997
 30
0.0
 11
46.516329999999982
 21
44.540000999999997
 31
0.0
  0
LINE
  5
EEA2
  8
0
 10
25.5
 20
50.135982999999989
 30
0.0
 11
23.513669999999991
 21
44.540000999999997
 31
0.0
  0
ARC
  5
EEA3
  8
0
 10
11.0
 20
31.0
 30
0.0
 40
1.0
 50
180.0
 51
270.0
  0
LINE
  5
EEA4
  8
0
 10
10.0
 20
31.0
 30
0.0
 11
10.0
 21
38.540000999999997
 31
0.0
  0
LINE
  5
EEA5
  8
0
 10
23.513669999999991
 20
44.540000999999997
 30
0.0
 11
10.0
 21
38.540000999999997
 31
0.0
  0
LINE
  5
EEA7
  8
1
 10
34.99999999999995
 20
25.0
 30
0.0
 11
35.000000000001371
 21
164.5
 31
0.0
  0
LINE
  5
EEA8
  8
1
 10
108.3767236817543
 20
25.0
 30
0.0
 11
108.37672368175571
 21
164.5
 31
0.0
  0
CIRCLE
  5
F0D9
  8
0
 10
35.0
 20
211.4863899667223
 30
0.0
 40
11.5
  0
CIRCLE
  5
F0DA
  8
0
 10
35.0
 20
211.4863899667223
 30
0.0
 40
25.0
  0
LINE
  5
F0EA
  8
1
 10
35.0
 20
241.4863899667223
 30
0.0
 11
35.0
 21
181.4863899667223
 31
0.0
  0
LINE
  5
F0EB
  8
1
 10
65.0
 20
211.4863899667223
 30
0.0
 11
5.0
 21
211.4863899667223
 31
0.0
  0
CIRCLE
  5
F10A
  8
3
 10
35.0
 20
211.4863899667223
 30
0.0
 40
5.052999999999999
  0
CIRCLE
  5
F10B
  8
0
 10
35.0
 20
211.4863899667223
 30
0.0
 40
6.0
  0
CIRCLE
  5
F10C
  8
0
 10
35.0
 20
211.4863899667223
 30
0.0
 40
8.4226497308114006
  0
LINE
  5
F10D
  8
0
 10
26.49999999999989
 20
206.57891267861049
 30
0.0
 11
26.49999999999995
 21
208.20882183105809
 31
0.0
  0
LINE
  5
F10E
  8
0
 10
26.50000000000006
 20
214.7639581023866
 30
0.0
 11
26.50000000000011
 21
216.39386725483411
 31
0.0
  0
LINE
  5
F10F
  8
0
 10
43.499999999999879
 20
206.57891267861049
 30
0.0
 11
43.499999999999879
 21
208.20882183105721
 31
0.0
  0
LINE
  5
F110
  8
0
 10
43.5
 20
214.76395810238719
 30
0.0
 11
43.5
 21
216.39386725483399
 31
0.0
  0
LINE
  5
F111
  8
0
 10
40.196152422703328
 20
79.322819089374008
 30
0.0
 11
40.196152422707421
 21
71.597180910625326
 31
0.0
  0
LINE
  5
F112
  8
0
 10
45.392304845413719
 20
79.322819089374008
 30
0.0
 11
45.392304845413719
 21
71.597180910625553
 31
0.0
  0
LINE
  5
F113
  8
0
 10
29.803847577295869
 20
79.322819089374008
 30
0.0
 11
29.80384757729178
 21
71.597180910625326
 31
0.0
  0
LINE
  5
F114
  8
0
 10
24.60769515458697
 20
79.322819089374008
 30
0.0
 11
24.60769515458697
 21
71.597180910625553
 31
0.0
  0
LINE
  5
F115
  8
0
 10
24.60769515458697
 20
71.597180910625667
 30
0.0
 11
26.577350269188631
 21
70.459999999999837
 31
0.0
  0
ARC
  5
F116
  8
0
 10
27.227936745964939
 20
75.082871053139598
 30
0.0
 40
4.3342072378418903
 50
242.8577973018613
 51
306.46425027470519
  0
ARC
  5
F117
  8
0
 10
34.999999999998863
 20
87.083249886481809
 30
0.0
 40
16.334574751887139
 50
251.45148071741059
 51
288.5485192825825
  0
ARC
  5
F118
  8
0
 10
42.772318585664657
 20
75.086002798339251
 30
0.0
 40
4.3368779396447952
 50
233.55762654201331
 51
297.12032588147292
  0
LINE
  5
F119
  8
0
 10
45.392304845413719
 20
71.597180910625667
 30
0.0
 11
43.422649730812047
 21
70.459999999999837
 31
0.0
  0
LINE
  5
F11A
  8
0
 10
26.577350269188742
 20
70.459999999999837
 30
0.0
 11
43.422649730812047
 21
70.459999999999866
 31
0.0
  0
LINE
  5
F11B
  8
0
 10
26.577350269188742
 20
80.459999999999823
 30
0.0
 11
43.422649730812047
 21
80.459999999999823
 31
0.0
  0
LINE
  5
F11C
  8
0
 10
45.392304845413719
 20
79.322819089374008
 30
0.0
 11
43.422649730812047
 21
80.459999999999823
 31
0.0
  0
ARC
  5
F11D
  8
0
 10
42.772318585668472
 20
75.833997201680305
 30
0.0
 40
4.336877939625416
 50
62.879674118450481
 51
126.4423734581282
  0
ARC
  5
F11E
  8
0
 10
35.000000000001371
 20
63.836750113533469
 30
0.0
 40
16.33457475187155
 50
71.451480717407193
 51
108.5485192825996
  0
ARC
  5
F11F
  8
0
 10
27.227976603567981
 20
75.837617816361586
 30
0.0
 40
4.3337903948739553
 50
53.532332292842959
 51
117.14562013061609
  0
LINE
  5
F120
  8
0
 10
24.60769515458697
 20
79.322819089374008
 30
0.0
 11
26.577350269188631
 21
80.459999999999823
 31
0.0
  0
LINE
  5
F121
  8
0
 10
108.37672368175269
 20
79.322819089374022
 30
0.0
 11
108.37672368175591
 21
71.597180910625681
 31
0.0
  0
LINE
  5
F122
  8
0
 10
116.7993734125664
 20
70.459999999999852
 30
0.0
 11
99.954073950943112
 21
70.459999999999852
 31
0.0
  0
LINE
  5
F123
  8
0
 10
99.95407395094503
 20
80.459999999999866
 30
0.0
 11
116.7993734125682
 21
80.459999999999866
 31
0.0
  0
LINE
  5
F124
  8
0
 10
99.376723681754257
 20
80.171324865405296
 30
0.0
 11
99.95407395094503
 21
80.459999999998914
 31
0.0
  0
ARC
  5
F125
  8
0
 10
103.8767236817565
 20
67.814330579496541
 30
0.0
 40
12.356994285908479
 50
68.643720031950977
 51
111.35627996807
  0
LINE
  5
F126
  8
0
 10
99.954073950943112
 20
70.459999999998914
 30
0.0
 11
99.376723681754257
 21
70.820471904320286
 31
0.0
  0
LINE
  5
F127
  8
0
 10
99.376723681754257
 20
70.820471904320286
 30
0.0
 11
99.376723681754257
 21
80.171324865405296
 31
0.0
  0
ARC
  5
F128
  8
0
 10
103.8767236817544
 20
83.105669420513934
 30
0.0
 40
12.35699428591928
 50
248.64372003196141
 51
291.35627996803839
  0
ARC
  5
F129
  8
0
 10
112.87672368175571
 20
83.105669420505365
 30
0.0
 40
12.356994285910689
 50
248.64372003195089
 51
291.35627996804908
  0
LINE
  5
F12A
  8
0
 10
117.3767236817542
 20
70.820471904319604
 30
0.0
 11
117.3767236817542
 21
80.171324865404628
 31
0.0
  0
LINE
  5
F12B
  8
0
 10
116.7993734125664
 20
70.459999999999852
 30
0.0
 11
117.3767236817542
 21
70.820471904319604
 31
0.0
  0
ARC
  5
F12C
  8
0
 10
112.87672368175571
 20
67.814330579494325
 30
0.0
 40
12.3569942859107
 50
68.643720031950963
 51
111.35627996804899
  0
LINE
  5
F12D
  8
0
 10
117.3767236817542
 20
80.171324865404628
 30
0.0
 11
116.7993734125682
 21
80.459999999999866
 31
0.0
  0
ARC
  5
F12E
  8
0
 10
108.3767236817547
 20
43.855149368068069
 30
0.0
 40
15.37116642140661
 50
71.381512266611239
 51
108.61848773338529
  0
ARC
  5
F12F
  8
0
 10
108.3767236817547
 20
70.562579568795371
 30
0.0
 40
16.720827000845478
 50
252.93269415092681
 51
287.06730584907331
  0
LINE
  5
F130
  8
0
 10
103.4692463936432
 20
54.57812701009874
 30
0.0
 11
103.4692463936432
 21
58.421872989902248
 31
0.0
  0
LINE
  5
F131
  8
0
 10
98.561769105530999
 20
58.691710000000008
 30
0.0
 11
98.561769105530999
 21
54.308290000000007
 31
0.0
  0
ARC
  5
F132
  8
0
 10
101.0155078179701
 20
58.298100189698069
 30
0.0
 40
4.456347621748141
 50
236.59067946386401
 51
303.40932053613579
  0
LINE
  5
F133
  8
0
 10
100.35075863961529
 20
53.500000000000007
 30
0.0
 11
116.4026887238939
 21
53.499999999999993
 31
0.0
  0
ARC
  5
F134
  8
0
 10
101.0155078179701
 20
55.08185756379455
 30
0.0
 40
4.1444582256801148
 50
53.69717260552634
 51
126.3028273944736
  0
LINE
  5
F135
  8
0
 10
116.4026887238939
 20
59.500000000000007
 30
0.0
 11
100.35075863961529
 21
59.500000000000007
 31
0.0
  0
LINE
  5
F136
  8
0
 10
98.561769105530999
 20
58.691710000000008
 30
0.0
 11
100.35075863961529
 21
59.500000000000007
 31
0.0
  0
LINE
  5
F137
  8
0
 10
118.1916782579784
 20
58.691710000000008
 30
0.0
 11
118.1916782579784
 21
54.308290000000007
 31
0.0
  0
LINE
  5
F138
  8
0
 10
113.2842009698665
 20
54.57812701009874
 30
0.0
 11
113.2842009698665
 21
58.421872989902248
 31
0.0
  0
ARC
  5
F139
  8
0
 10
115.73793954553931
 20
58.298100189697713
 30
0.0
 40
4.4563476217477671
 50
236.59067946386409
 51
303.40932053613977
  0
LINE
  5
F13A
  8
0
 10
118.1916782579784
 20
54.308290000000007
 30
0.0
 11
116.4026887238939
 21
53.500000000000007
 31
0.0
  0
ARC
  5
F13B
  8
0
 10
115.7379395455395
 20
55.081857563794863
 30
0.0
 40
4.1444582256797791
 50
53.697172605526347
 51
126.3028273944736
  0
LINE
  5
F13C
  8
0
 10
118.1916782579784
 20
58.691710000000008
 30
0.0
 11
116.4026887238939
 21
59.500000000000021
 31
0.0
  0
LINE
  5
F13D
  8
0
 10
34.999999999997051
 20
58.42187298990239
 30
0.0
 11
35.0
 21
54.57812701009761
 31
0.0
  0
LINE
  5
F13E
  8
0
 10
43.025965042139489
 20
53.5
 30
0.0
 11
26.974034957861249
 21
53.5
 31
0.0
  0
LINE
  5
F13F
  8
0
 10
26.97403495786137
 20
59.500000000000007
 30
0.0
 11
43.025965042139489
 21
59.5
 31
0.0
  0
LINE
  5
F140
  8
0
 10
26.500000000000401
 20
59.226315789473617
 30
0.0
 11
26.97403495786131
 21
59.499999999999993
 31
0.0
  0
ARC
  5
F141
  8
0
 10
30.749999999999432
 20
47.597379445112999
 30
0.0
 40
11.628936344360611
 50
68.563634687485887
 51
111.4363653125106
  0
LINE
  5
F142
  8
0
 10
26.97403495786131
 20
53.499999999999979
 30
0.0
 11
26.500000000000401
 21
53.841752567948859
 31
0.0
  0
LINE
  5
F143
  8
0
 10
26.500000000000401
 20
53.841752567948859
 30
0.0
 11
26.500000000000401
 21
59.226315789473617
 31
0.0
  0
ARC
  5
F144
  8
0
 10
30.749999999999719
 20
66.474420307449805
 30
0.0
 40
12.63266773950094
 50
250.34052150748229
 51
289.65947849251762
  0
ARC
  5
F145
  8
0
 10
39.250000000000632
 20
66.474420307452306
 30
0.0
 40
12.63266773950345
 50
250.3405215074857
 51
289.65947849251762
  0
LINE
  5
F146
  8
0
 10
43.500000000000391
 20
53.841752567948873
 30
0.0
 11
43.500000000000391
 21
59.226315789473631
 31
0.0
  0
LINE
  5
F147
  8
0
 10
43.025965042139489
 20
53.5
 30
0.0
 11
43.500000000000391
 21
53.841752567948873
 31
0.0
  0
ARC
  5
F148
  8
0
 10
39.250000000000568
 20
47.597379445112828
 30
0.0
 40
11.62893634436079
 50
68.563634687485887
 51
111.4363653125106
  0
LINE
  5
F149
  8
0
 10
43.500000000000391
 20
59.226315789473631
 30
0.0
 11
43.025965042139489
 21
59.5
 31
0.0
  0
LINE
  5
F14A
  8
0
 10
42.391304347825553
 20
52.808613009126127
 30
0.0
 11
42.391304347825553
 21
53.5
 31
0.0
  0
LINE
  5
F14B
  8
0
 10
27.608695652173431
 20
53.5
 30
0.0
 11
27.608695652173431
 21
52.808613009126127
 31
0.0
  0
ARC
  5
F14C
  8
0
 10
26.150362318840049
 20
52.808613009126127
 30
0.0
 40
1.458333333333345
 50
330.10075103467909
 51
0.0
  0
ARC
  5
F14D
  8
0
 10
43.849637681158917
 20
52.808613009126127
 30
0.0
 40
1.4583333333333419
 50
180.0
 51
209.89924896532091
  0
ARC
  5
F14E
  8
0
 10
34.999999999999318
 20
47.72000000000002
 30
0.0
 40
8.7499999999999147
 50
150.10075103467921
 51
163.94431704355881
  0
ARC
  5
F14F
  8
0
 10
34.999999999999659
 20
47.720000000000077
 30
0.0
 40
8.7499999999998188
 50
16.055682956441121
 51
29.899248965320808
  0
LINE
  5
F150
  8
0
 10
27.414596273291409
 20
52.081668293536687
 30
0.0
 11
42.585403726707568
 21
52.081668293536687
 31
0.0
  0
LINE
  5
F151
  8
0
 10
35.0
 20
201.6714353904986
 30
0.0
 11
33.588457268119669
 21
202.4863899667223
 31
0.0
  0
LINE
  5
F152
  8
0
 10
27.911542731880498
 20
205.76395810238671
 30
0.0
 11
26.49999999999989
 21
206.57891267861061
 31
0.0
  0
LINE
  5
F153
  8
0
 10
43.50000000000005
 20
216.39386725483399
 30
0.0
 11
42.088457268120123
 21
217.20882183105749
 31
0.0
  0
LINE
  5
F154
  8
0
 10
36.411542731880331
 20
220.4863899667223
 30
0.0
 11
35.0
 21
221.301344542946
 31
0.0
  0
LINE
  5
F155
  8
0
 10
34.99999999999995
 20
201.6714353904986
 30
0.0
 11
36.411542731880218
 21
202.4863899667223
 31
0.0
  0
LINE
  5
F156
  8
0
 10
42.088457268120237
 20
205.76395810238711
 30
0.0
 11
43.499999999999943
 21
206.57891267861049
 31
0.0
  0
LINE
  5
F157
  8
0
 10
26.50000000000006
 20
216.39386725483411
 30
0.0
 11
27.911542731880449
 21
217.20882183105789
 31
0.0
  0
LINE
  5
F158
  8
0
 10
33.588457268119839
 20
220.4863899667223
 30
0.0
 11
35.0
 21
221.301344542946
 31
0.0
  0
LINE
  5
F159
  8
0
 10
115.76802802958029
 20
52.808613009126127
 30
0.0
 11
115.76802802958029
 21
53.5
 31
0.0
  0
LINE
  5
F15A
  8
0
 10
100.98541933392821
 20
53.5
 30
0.0
 11
100.98541933392821
 21
52.808613009126127
 31
0.0
  0
ARC
  5
F15B
  8
0
 10
99.527086000594835
 20
52.808613009126127
 30
0.0
 40
1.458333333333345
 50
330.10075103467909
 51
0.0
  0
ARC
  5
F15C
  8
0
 10
117.22636136291371
 20
52.808613009126127
 30
0.0
 40
1.4583333333333579
 50
180.0
 51
209.89924896532091
  0
ARC
  5
F15D
  8
0
 10
108.3767236817542
 20
47.72000000000002
 30
0.0
 40
8.7499999999999147
 50
150.10075103467921
 51
163.94431704355881
  0
ARC
  5
F15E
  8
0
 10
108.3767236817544
 20
47.720000000000077
 30
0.0
 40
8.7499999999998188
 50
16.055682956441121
 51
29.899248965320808
  0
LINE
  5
F15F
  8
0
 10
100.79131995504621
 20
52.081668293536687
 30
0.0
 11
115.96212740846229
 21
52.081668293536687
 31
0.0
  0
LINE
  5
F160
  8
0
 10
98.561769105531795
 20
54.308290000000262
 30
0.0
 11
100.3507586396163
 21
53.500000000000199
 31
0.0
  0
LINE
  5
F161
  8
0
 10
40.196152422706739
 20
202.48638996672219
 30
0.0
 11
29.803847577293599
 21
202.48638996672241
 31
0.0
  0
LINE
  5
F162
  8
0
 10
40.196152422706803
 20
220.48638996672219
 30
0.0
 11
29.803847577293709
 21
220.4863899667223
 31
0.0
  0
LINE
  5
F163
  8
0
 10
45.392304845413548
 20
211.4863899667223
 30
0.0
 11
40.196152422706739
 21
202.48638996672219
 31
0.0
  0
LINE
  5
F164
  8
0
 10
29.803847577293709
 20
220.4863899667223
 30
0.0
 11
24.60769515458685
 21
211.48638996672219
 31
0.0
  0
LINE
  5
F165
  8
0
 10
45.392304845413548
 20
211.4863899667223
 30
0.0
 11
40.196152422706803
 21
220.48638996672219
 31
0.0
  0
LINE
  5
F166
  8
0
 10
29.803847577293599
 20
202.48638996672241
 30
0.0
 11
24.60769515458685
 21
211.48638996672219
 31
0.0
  0
ARC
  5
F167
  8
0
 10
35.0
 20
211.4863899667223
 30
0.0
 40
9.5036604272737861
 50
131.26308837499721
 51
146.5695305101282
  0
ARC
  5
F168
  8
0
 10
35.0
 20
211.4863899667223
 30
0.0
 40
9.5036604272737861
 50
153.430469489871
 51
168.73691162500151
  0
ARC
  5
F169
  8
0
 10
35.0
 20
211.4863899667223
 30
0.0
 40
9.5036604272737861
 50
191.2630883749996
 51
206.5695305101261
  0
ARC
  5
F16A
  8
0
 10
35.0
 20
211.4863899667223
 30
0.0
 40
9.5036604272737861
 50
213.4304694898714
 51
228.73691162500251
  0
ARC
  5
F16B
  8
0
 10
35.0
 20
211.4863899667223
 30
0.0
 40
9.5036604272737861
 50
251.2630883749998
 51
266.56953051012562
  0
ARC
  5
F16C
  8
0
 10
35.0
 20
211.4863899667223
 30
0.0
 40
9.5036604272737861
 50
273.43046948987268
 51
288.73691162499853
  0
ARC
  5
F16D
  8
0
 10
35.0
 20
211.4863899667223
 30
0.0
 40
9.5036604272737861
 50
311.26308837500392
 51
326.56953051012857
  0
ARC
  5
F16E
  8
0
 10
35.0
 20
211.4863899667223
 30
0.0
 40
9.5036604272737861
 50
333.43046948987057
 51
348.73691162499438
  0
ARC
  5
F16F
  8
0
 10
35.0
 20
211.4863899667223
 30
0.0
 40
9.5036604272737861
 50
11.263088375006831
 51
26.569530510126839
  0
ARC
  5
F170
  8
0
 10
35.0
 20
211.4863899667223
 30
0.0
 40
9.5036604272737861
 50
33.430469489871832
 51
48.73691162499405
  0
ARC
  5
F171
  8
0
 10
35.0
 20
211.4863899667223
 30
0.0
 40
9.5036604272737861
 50
71.263088375001473
 51
86.569530510125617
  0
ARC
  5
F172
  8
0
 10
35.0
 20
211.4863899667223
 30
0.0
 40
9.5036604272737861
 50
93.430469489872706
 51
108.73691162499669
  0
TEXT
  5
F271
  8
0
 62
     3
 10
0.0
 20
0.0
 30
0.0
 40
10.0
  1
LM50BP-12B-SUS
  7
STANDARD1
  0
ENDSEC
  0
EOF
