  0
SECTION
  2
HEADER
  9
$ACADVER
  1
AC1009
  9
$INSBASE
 10
0.0
 20
0.0
 30
0.0
  9
$EXTMIN
 10
0.0
 20
-2.960436562073669
 30
0.0
  9
$EXTMAX
 10
155.61812686845491
 20
247.8765648519327
 30
0.0
  9
$LIMMIN
 10
0.0
 20
0.0
  9
$LIMMAX
 10
375.0
 20
270.0
  9
$ORTHOMODE
 70
     1
  9
$REGENMODE
 70
     1
  9
$FILLMODE
 70
     1
  9
$QTEXTMODE
 70
     0
  9
$MIRRTEXT
 70
     0
  9
$DRAGMODE
 70
     2
  9
$LTSCALE
 40
6.0
  9
$OSMODE
 70
  3071
  9
$ATTMODE
 70
     1
  9
$TEXTSIZE
 40
0.2
  9
$TRACEWID
 40
0.05
  9
$TEXTSTYLE
  7
STANDARD
  9
$CLAYER
  8
0
  9
$CELTYPE
  6
BYLAYER
  9
$CECOLOR
 62
   256
  9
$DIMSCALE
 40
1.0
  9
$DIMASZ
 40
3.0
  9
$DIMEXO
 40
1.0
  9
$DIMDLI
 40
6.0
  9
$DIMRND
 40
0.0
  9
$DIMDLE
 40
0.0
  9
$DIMEXE
 40
1.0
  9
$DIMTP
 40
495.0
  9
$DIMTM
 40
0.0
  9
$DIMTXT
 40
3.0
  9
$DIMCEN
 40
0.0
  9
$DIMTSZ
 40
0.0
  9
$DIMTOL
 70
     0
  9
$DIMLIM
 70
     0
  9
$DIMTIH
 70
     0
  9
$DIMTOH
 70
     0
  9
$DIMSE1
 70
     0
  9
$DIMSE2
 70
     0
  9
$DIMTAD
 70
     1
  9
$DIMZIN
 70
     0
  9
$DIMBLK
  1

  9
$DIMASO
 70
     0
  9
$DIMSHO
 70
     0
  9
$DIMPOST
  1

  9
$DIMAPOST
  1

  9
$DIMALT
 70
     0
  9
$DIMALTD
 70
     2
  9
$DIMALTF
 40
25.399999999999999
  9
$DIMLFAC
 40
1.0
  9
$DIMTOFL
 70
     1
  9
$DIMTVP
 40
0.0
  9
$DIMTIX
 70
     1
  9
$DIMSOXD
 70
     0
  9
$DIMSAH
 70
     0
  9
$DIMBLK1
  1

  9
$DIMBLK2
  1

  9
$DIMSTYLE
  2
STANDARD
  9
$DIMCLRD
 70
     0
  9
$DIMCLRE
 70
     0
  9
$DIMCLRT
 70
     4
  9
$DIMTFAC
 40
1.0
  9
$DIMGAP
 40
1.0
  9
$LUNITS
 70
     2
  9
$LUPREC
 70
     4
  9
$SKETCHINC
 40
0.1
  9
$FILLETRAD
 40
2.0
  9
$AUNITS
 70
     0
  9
$AUPREC
 70
     0
  9
$MENU
  1
C:\R13\WIN\SUPPORT\ACAD-I
  9
$ELEVATION
 40
0.0
  9
$PELEVATION
 40
0.0
  9
$THICKNESS
 40
0.0
  9
$LIMCHECK
 70
     0
  9
$BLIPMODE
 70
     0
  9
$CHAMFERA
 40
0.0
  9
$CHAMFERB
 40
0.0
  9
$SKPOLY
 70
     0
  9
$TDCREATE
 40
2451963.5875586811
  9
$TDUPDATE
 40
2456602.6147134262
  9
$TDINDWG
 40
0.1129020602
  9
$TDUSRTIMER
 40
2456598.4465641431
  9
$USRTIMER
 70
     1
  9
$ANGBASE
 50
0.0
  9
$ANGDIR
 70
     0
  9
$PDMODE
 70
     0
  9
$PDSIZE
 40
0.0
  9
$PLINEWID
 40
0.0
  9
$COORDS
 70
     1
  9
$SPLFRAME
 70
     0
  9
$SPLINETYPE
 70
     6
  9
$SPLINESEGS
 70
     8
  9
$ATTDIA
 70
     0
  9
$ATTREQ
 70
     1
  9
$HANDLING
 70
     1
  9
$HANDSEED
  5
E4E7
  9
$SURFTAB1
 70
     6
  9
$SURFTAB2
 70
     6
  9
$SURFTYPE
 70
     6
  9
$SURFU
 70
     6
  9
$SURFV
 70
     6
  9
$UCSNAME
  2

  9
$UCSORG
 10
0.0
 20
0.0
 30
0.0
  9
$UCSXDIR
 10
1.0
 20
0.0
 30
0.0
  9
$UCSYDIR
 10
0.0
 20
1.0
 30
0.0
  9
$PUCSNAME
  2

  9
$PUCSORG
 10
0.0
 20
0.0
 30
0.0
  9
$PUCSXDIR
 10
1.0
 20
0.0
 30
0.0
  9
$PUCSYDIR
 10
0.0
 20
1.0
 30
0.0
  9
$USERI1
 70
     4
  9
$USERI2
 70
     1
  9
$USERI3
 70
     0
  9
$USERI4
 70
     0
  9
$USERI5
 70
     0
  9
$USERR1
 40
1.0
  9
$USERR2
 40
3.0
  9
$USERR3
 40
3.0
  9
$USERR4
 40
3.0
  9
$USERR5
 40
10.0
  9
$WORLDVIEW
 70
     1
  9
$SHADEDGE
 70
     3
  9
$SHADEDIF
 70
    70
  9
$TILEMODE
 70
     1
  9
$MAXACTVP
 70
    16
  9
$PLIMCHECK
 70
     0
  9
$PEXTMIN
 10
1.0000000000000000E+020
 20
1.0000000000000000E+020
 30
1.0000000000000000E+020
  9
$PEXTMAX
 10
-1.0000000000000000E+020
 20
-1.0000000000000000E+020
 30
-1.0000000000000000E+020
  9
$PLIMMIN
 10
0.0
 20
0.0
  9
$PLIMMAX
 10
12.0
 20
9.0
  9
$UNITMODE
 70
     0
  9
$VISRETAIN
 70
     0
  9
$PLINEGEN
 70
     0
  9
$PSLTSCALE
 70
     0
  0
ENDSEC
  0
SECTION
  2
TABLES
  0
TABLE
  2
VPORT
 70
     1
  0
VPORT
  2
*ACTIVE
 70
     0
 10
0.0
 20
0.0
 11
1.0
 21
1.0
 12
208.8608809820621
 22
123.8177381233607
 13
0.0
 23
0.0
 14
10.0
 24
10.0
 15
10.0
 25
10.0
 16
0.0
 26
0.0
 36
1.0
 17
0.0
 27
0.0
 37
0.0
 40
276.8478770601468
 41
1.831871345029239
 42
50.0
 43
0.0
 44
0.0
 50
0.0
 51
0.0
 71
    16
 72
   100
 73
     1
 74
     0
 75
     0
 76
     0
 77
     0
 78
     0
  0
ENDTAB
  0
TABLE
  2
LTYPE
 70
     3
  0
LTYPE
  2
CONTINUOUS
 70
     0
  3
Solid Line
 72
    65
 73
     0
 40
0.0
  0
LTYPE
  2
CENTER
 70
     0
  3
____ _ ____ _ ____ _ ____ _ ____ _ ____ _ ____
 72
    65
 73
     4
 40
2.0
 49
1.25
 49
-0.25
 49
0.25
 49
-0.25
  0
LTYPE
  2
PHANTOM2
 70
     0
  3
___ _ _ ___ _ _ ___ _ _ ___ _ _
 72
    65
 73
     6
 40
1.25
 49
0.625
 49
-0.125
 49
0.125
 49
-0.125
 49
0.125
 49
-0.125
  0
ENDTAB
  0
TABLE
  2
LAYER
 70
     3
  0
LAYER
  2
0
 70
     0
 62
     7
  6
CONTINUOUS
  0
LAYER
  2
1
 70
     0
 62
     1
  6
CENTER
  0
LAYER
  2
3
 70
     0
 62
     3
  6
CONTINUOUS
  0
ENDTAB
  0
TABLE
  2
STYLE
 70
     2
  0
STYLE
  2
STANDARD
 70
     0
 40
0.0
 41
1.0
 50
0.0
 71
     0
 42
0.2
  3
SIMPLEX
  4
BIGFONT
  0
STYLE
  2
STANDARD1
 70
     0
 40
0.0
 41
1.0
 50
0.0
 71
     0
 42
3.0
  3
txt
  4

  0
ENDTAB
  0
TABLE
  2
VIEW
 70
     0
  0
ENDTAB
  0
TABLE
  2
UCS
 70
     0
  0
ENDTAB
  0
TABLE
  2
APPID
 70
    29
  0
APPID
  2
ACAD
 70
     0
  0
APPID
  2
GENIUS_GENOREF_13
 70
     0
  0
APPID
  2
GENIUS_GENOENT_13
 70
     0
  0
APPID
  2
GENIUS_GENBH_13
 70
     0
  0
APPID
  2
GENIUS_GENOBJ_13
 70
     0
  0
APPID
  2
GENIUS_GENODEF_13
 70
     0
  0
APPID
  2
GENIUS_GENOLIS_13
 70
     0
  0
APPID
  2
GENIUS_GENOBJ-NBEHI-BHF_13
 70
     0
  0
APPID
  2
GENIUS_GENOBJ-NBEHI-BHB_13
 70
     0
  0
APPID
  2
GENIUS_GENOBJ-F-PART_13
 70
     0
  0
APPID
  2
GENIUS_GEFSTDP_13
 70
     0
  0
APPID
  2
GENIUS_GENOBJ-N-RSSYM_13
 70
     0
  0
APPID
  2
GENIUS_GENSYMENT_13
 70
     0
  0
APPID
  2
GENIUS_GENOBJ-N-TIT_13
 70
     0
  0
APPID
  2
GENIUS_GENTITLE_13
 70
     0
  0
APPID
  2
GENIUS_GENZVEED_13
 70
     0
  0
APPID
  2
GENIUS_GENOBJ-N-LEADER_13
 70
     0
  0
APPID
  2
GENIUS_GENOBJ-N-FIL_13
 70
     0
  0
APPID
  2
GENIUS_GENOBJ-N-SEC_13
 70
     0
  0
APPID
  2
GENIUS_GENOBJ-N-CRS_13
 70
     0
  0
APPID
  2
GENIUS_GENOBJ-N-ZOO_13
 70
     0
  0
APPID
  2
GENIUS_GENZOO_13
 70
     0
  0
APPID
  2
GENIUS_GENOBJ-F-TOL_13
 70
     0
  0
APPID
  2
GENIUS_GENFIL_13
 70
     0
  0
APPID
  2
GENIUS_GENOBJ-N-CHA_13
 70
     0
  0
APPID
  2
_CALL_MAC$
 70
     0
  0
APPID
  2
ACAD_EXEMPT_FROM_CAD_STANDARDS
 70
     0
  0
APPID
  2
ACAD_MLEADERVER
 70
     0
  0
APPID
  2
ACAD_NAV_VCDISPLAY
 70
     0
  0
ENDTAB
  0
TABLE
  2
DIMSTYLE
 70
     1
  0
DIMSTYLE
  2
STANDARD
 70
     0
  3

  4

  5

  6

  7

 40
1.0
 41
0.18
 42
0.0625
 43
0.38
 44
0.18
 45
0.0
 46
0.0
 47
0.0
 48
0.0
140
0.18
141
0.09
142
0.0
143
25.399999999999999
144
1.0
145
0.0
146
1.0
147
0.09
 71
     0
 72
     0
 73
     1
 74
     1
 75
     0
 76
     0
 77
     0
 78
     0
170
     0
171
     2
172
     0
173
     0
174
     0
175
     0
176
     0
177
     0
178
     0
  0
ENDTAB
  0
ENDSEC
  0
SECTION
  2
BLOCKS
  0
BLOCK
  8
0
  2
$MODEL_SPACE
 70
     0
 10
0.0
 20
0.0
 30
0.0
  3
$MODEL_SPACE
  1

  0
ENDBLK
  5
E233
  8
0
  0
BLOCK
 67
     1
  8
0
  2
$PAPER_SPACE
 70
     0
 10
0.0
 20
0.0
 30
0.0
  3
$PAPER_SPACE
  1

  0
ENDBLK
  5
E231
 67
     1
  8
0
  0
ENDSEC
  0
SECTION
  2
ENTITIES
  0
LINE
  5
E0B1
  8
0
 10
32.0
 20
101.0000000000001
 30
0.0
 11
32.0
 21
144.0
 31
0.0
  0
LINE
  5
E0B2
  8
3
 10
33.082499999999982
 20
101.0000000000001
 30
0.0
 11
33.082499999999982
 21
145.08250000000001
 31
0.0
  0
LINE
  5
E0B3
  8
3
 10
46.917500000000011
 20
101.0000000000001
 30
0.0
 11
46.917500000000011
 21
145.08249999999981
 31
0.0
  0
LINE
  5
E0B4
  8
0
 10
48.0
 20
101.0000000000001
 30
0.0
 11
48.0
 21
143.99999999999989
 31
0.0
  0
LINE
  5
E0B5
  8
0
 10
117.61812686845489
 20
101.000000000025
 30
0.0
 11
117.61812686845489
 21
144.0
 31
0.0
  0
LINE
  5
E0B6
  8
3
 10
118.7006268684549
 20
101.0000000000268
 30
0.0
 11
118.7006268684549
 21
145.08250000000001
 31
0.0
  0
LINE
  5
E0B7
  8
3
 10
132.53562686845501
 20
101.00000000004989
 30
0.0
 11
132.53562686845501
 21
145.08249999999981
 31
0.0
  0
LINE
  5
E0B8
  8
0
 10
133.61812686845499
 20
101.0000000000518
 30
0.0
 11
133.61812686845499
 21
143.99999999999989
 31
0.0
  0
LINE
  5
E0B9
  8
0
 10
51.4999999998929
 20
88.000000000000085
 30
0.0
 11
28.500000000108461
 21
88.000000000000085
 31
0.0
  0
LINE
  5
E0BA
  8
0
 10
28.500000000000679
 20
101.0000000000001
 30
0.0
 11
51.4999999998929
 21
101.0000000000001
 31
0.0
  0
ARC
  5
E0BB
  8
0
 10
50.392304845414174
 20
94.577350269714302
 30
0.0
 40
6.1339745957208214
 50
64.384247469852369
 51
124.3842474712073
  0
LINE
  5
E0BC
  8
0
 10
53.85640646057368
 20
99.639528095605883
 30
0.0
 11
51.4999999998929
 21
101.0000000000001
 31
0.0
  0
LINE
  5
E0BD
  8
0
 10
53.85640646057368
 20
89.360471904394316
 30
0.0
 11
51.4999999998929
 21
88.000000000000085
 31
0.0
  0
ARC
  5
E0BE
  8
0
 10
50.392304845414174
 20
94.422649730285897
 30
0.0
 40
6.1339745957208214
 50
235.6157525287926
 51
295.61575253014757
  0
LINE
  5
E0BF
  8
0
 10
53.856406460551852
 20
99.639528095605883
 30
0.0
 11
53.856406460551852
 21
89.360471904381697
 31
0.0
  0
LINE
  5
E0C0
  8
0
 10
46.928203230276033
 20
99.639528095605883
 30
0.0
 11
46.928203230276033
 21
89.360471904394316
 31
0.0
  0
LINE
  5
E0C1
  8
0
 10
33.071796769725331
 20
99.639528095605883
 30
0.0
 11
33.071796769725331
 21
89.360471904394316
 31
0.0
  0
LINE
  5
E0C2
  8
0
 10
26.143593539449508
 20
99.639528095605883
 30
0.0
 11
26.143593539449508
 21
89.360471904381697
 31
0.0
  0
ARC
  5
E0C3
  8
0
 10
40.000000000000682
 20
111.21687836270461
 30
0.0
 40
22.928203228139491
 50
252.41204622431439
 51
287.58795377568561
  0
ARC
  5
E0C4
  8
0
 10
29.607695154587191
 20
94.422649730285897
 30
0.0
 40
6.1339745957208214
 50
244.3842474698524
 51
304.38424747120729
  0
LINE
  5
E0C5
  8
0
 10
26.143593539427691
 20
89.360471904394316
 30
0.0
 11
28.500000000108461
 21
88.000000000000085
 31
0.0
  0
LINE
  5
E0C6
  8
0
 10
26.143593539427691
 20
99.639528095605883
 30
0.0
 11
28.500000000108461
 21
101.0000000000001
 31
0.0
  0
ARC
  5
E0C7
  8
0
 10
29.607695154587191
 20
94.577350269714302
 30
0.0
 40
6.1339745957208214
 50
55.615752528792612
 51
115.6157525301476
  0
ARC
  5
E0C8
  8
0
 10
40.000000000000682
 20
77.783121637295594
 30
0.0
 40
22.928203228139491
 50
72.412046224314395
 51
107.58795377568561
  0
LINE
  5
E0C9
  8
0
 10
137.11812686848879
 20
87.999999999980759
 30
0.0
 11
114.11812686842239
 21
88.000000000019199
 31
0.0
  0
LINE
  5
E0CA
  8
0
 10
114.11812686842239
 20
101.0000000000192
 30
0.0
 11
137.11812686848879
 21
101.0000000000576
 31
0.0
  0
ARC
  5
E0CB
  8
0
 10
119.6181268684888
 20
83.381197848120891
 30
0.0
 40
17.330127017333279
 50
69.743841997639095
 51
110.25615800236091
  0
LINE
  5
E0CC
  8
0
 10
113.61812686847379
 20
100.7113248654542
 30
0.0
 11
114.1181268684888
 21
101.0000000000576
 31
0.0
  0
LINE
  5
E0CD
  8
0
 10
113.61812686847379
 20
88.288675134584167
 30
0.0
 11
114.1181268684888
 21
87.999999999980759
 31
0.0
  0
ARC
  5
E0CE
  8
0
 10
119.6181268684888
 20
105.61880215191751
 30
0.0
 40
17.330127017333279
 50
249.74384199763909
 51
290.25615800236091
  0
LINE
  5
E0CF
  8
0
 10
113.61812686847379
 20
100.7113248654542
 30
0.0
 11
113.6181268684888
 21
88.288675134575541
 31
0.0
  0
LINE
  5
E0D0
  8
0
 10
125.6181268684888
 20
89.360471904413416
 30
0.0
 11
125.6181268684888
 21
99.639528095624996
 31
0.0
  0
LINE
  5
E0D1
  8
0
 10
137.61812686850379
 20
100.7113248654542
 30
0.0
 11
137.61812686848879
 21
88.288675134575541
 31
0.0
  0
ARC
  5
E0D2
  8
0
 10
131.61812686848879
 20
105.61880215191751
 30
0.0
 40
17.330127017333279
 50
249.74384199763909
 51
290.25615800236091
  0
LINE
  5
E0D3
  8
0
 10
137.61812686850379
 20
88.288675134584167
 30
0.0
 11
137.11812686848879
 21
87.999999999980759
 31
0.0
  0
LINE
  5
E0D4
  8
0
 10
137.61812686850379
 20
100.7113248654542
 30
0.0
 11
137.11812686848879
 21
101.0000000000576
 31
0.0
  0
ARC
  5
E0D5
  8
0
 10
131.61812686848879
 20
83.381197848120891
 30
0.0
 40
17.330127017333279
 50
69.743841997639095
 51
110.25615800236091
  0
CIRCLE
  5
E0D6
  8
3
 10
40.000000000001357
 20
212.8765648519327
 30
0.0
 40
6.9175000000000004
  0
CIRCLE
  5
E0D7
  8
0
 10
40.000000000001357
 20
212.8765648519327
 30
0.0
 40
8.0
  0
CIRCLE
  5
E0D8
  8
0
 10
40.000000000001357
 20
212.8765648519327
 30
0.0
 40
11.5
  0
LINE
  5
E0D9
  8
0
 10
53.856406460552421
 20
212.8765648519327
 30
0.0
 11
46.928203230276829
 21
224.8765648519327
 31
0.0
  0
LINE
  5
E0DA
  8
0
 10
46.928203230276829
 20
200.8765648519327
 30
0.0
 11
53.856406460552421
 21
212.8765648519327
 31
0.0
  0
LINE
  5
E0DB
  8
0
 10
33.0717967697259
 20
200.8765648519327
 30
0.0
 11
46.928203230276829
 21
200.8765648519327
 31
0.0
  0
LINE
  5
E0DC
  8
0
 10
26.143593539450311
 20
212.8765648519327
 30
0.0
 11
33.0717967697259
 21
200.8765648519327
 31
0.0
  0
LINE
  5
E0DD
  8
0
 10
33.0717967697259
 20
224.8765648519327
 30
0.0
 11
26.143593539450311
 21
212.8765648519327
 31
0.0
  0
LINE
  5
E0DE
  8
0
 10
46.928203230276829
 20
224.8765648519327
 30
0.0
 11
33.0717967697259
 21
224.8765648519327
 31
0.0
  0
LINE
  5
E0DF
  8
1
 10
75.000000000001364
 20
212.8765648519327
 30
0.0
 11
5.0000000000013642
 21
212.8765648519327
 31
0.0
  0
LINE
  5
E0E0
  8
1
 10
40.000000000001357
 20
247.8765648519327
 30
0.0
 11
40.000000000001357
 21
177.8765648519327
 31
0.0
  0
LINE
  5
E0E1
  8
1
 10
125.61812686845489
 20
24.999999999999989
 30
0.0
 11
125.6181268684563
 21
151.0
 31
0.0
  0
LINE
  5
E0E2
  8
1
 10
40.0
 20
24.999999999999989
 30
0.0
 11
40.000000000001357
 21
151.0
 31
0.0
  0
LINE
  5
E0EA
  8
0
 10
40.000000000033651
 20
59.360824731061932
 30
0.0
 11
40.000000000033651
 21
64.639175268937194
 31
0.0
  0
ARC
  5
E0F0
  8
0
 10
40.0
 20
50.553101999999981
 30
0.0
 40
11.75
 50
17.05880600000005
 51
30.373785999999949
  0
ARC
  5
E0F1
  8
0
 10
40.0
 20
50.553101999999981
 30
0.0
 40
11.75
 50
149.626214
 51
162.94119399999991
  0
LINE
  5
E0F2
  8
0
 10
69.199999999999989
 20
29.999999999999989
 30
0.0
 11
10.80000000000001
 21
29.999999999999989
 31
0.0
  0
LINE
  5
E0F3
  8
0
 10
10.0
 20
38.499999999999993
 30
0.0
 11
70.0
 21
38.499999999999993
 31
0.0
  0
LINE
  5
E0F4
  8
0
 10
10.0
 20
30.800000000000001
 30
0.0
 11
70.0
 21
30.800000000000001
 31
0.0
  0
LINE
  5
E0F5
  8
0
 10
24.5
 20
45.499999999999979
 30
0.0
 11
10.0
 21
38.499999999999993
 31
0.0
  0
LINE
  5
E0F6
  8
0
 10
10.0
 20
30.800000000000001
 30
0.0
 11
10.0
 21
38.499999999999993
 31
0.0
  0
LINE
  5
E0F7
  8
0
 10
10.0
 20
30.800000000000001
 30
0.0
 11
10.80000000000001
 21
29.999999999999989
 31
0.0
  0
LINE
  5
E0F8
  8
0
 10
70.0
 20
38.499999999999993
 30
0.0
 11
70.0
 21
30.800000000000001
 31
0.0
  0
LINE
  5
E0F9
  8
0
 10
69.199999999999989
 20
29.999999999999989
 30
0.0
 11
70.0
 21
30.800000000000001
 31
0.0
  0
LINE
  5
E0FA
  8
0
 10
52.5
 20
53.999999999999979
 30
0.0
 11
27.5
 21
53.999999999999979
 31
0.0
  0
LINE
  5
E0FB
  8
0
 10
24.5
 20
45.499999999999979
 30
0.0
 11
55.5
 21
45.499999999999979
 31
0.0
  0
LINE
  5
E0FC
  8
0
 10
27.5
 20
53.999999999999979
 30
0.0
 11
24.5
 21
45.499999999999979
 31
0.0
  0
LINE
  5
E0FD
  8
0
 10
55.5
 20
45.499999999999979
 30
0.0
 11
70.0
 21
38.499999999999993
 31
0.0
  0
LINE
  5
E0FE
  8
0
 10
52.5
 20
53.999999999999979
 30
0.0
 11
55.5
 21
45.499999999999979
 31
0.0
  0
LINE
  5
E100
  8
0
 10
30.929194999999989
 20
56.608510999999979
 30
0.0
 11
49.070804999999993
 21
56.608510999999979
 31
0.0
  0
ARC
  5
E101
  8
0
 10
29.0
 20
56.999999999999993
 30
0.0
 40
1.0
 50
329.626214
 51
90.0
  0
ARC
  5
E103
  8
0
 10
51.0
 20
56.999999999999993
 30
0.0
 40
1.0
 50
90.0
 51
210.37378600000011
  0
LINE
  5
E104
  8
3
 10
46.917500000000011
 20
71.999999999999986
 30
0.0
 11
48.0
 21
70.125055000806796
 31
0.0
  0
LINE
  5
E105
  8
3
 10
33.082499999999982
 20
71.999999999999986
 30
0.0
 11
32.0
 21
70.125055000806796
 31
0.0
  0
LINE
  5
E106
  8
0
 10
32.0
 20
71.999999999999986
 30
0.0
 11
48.0
 21
71.999999999999986
 31
0.0
  0
LINE
  5
E107
  8
0
 10
48.0
 20
143.99999999999989
 30
0.0
 11
32.0
 21
144.0
 31
0.0
  0
LINE
  5
E108
  8
0
 10
46.0
 20
145.99999999999989
 30
0.0
 11
48.0
 21
143.99999999999989
 31
0.0
  0
LINE
  5
E109
  8
0
 10
32.0
 20
144.0
 30
0.0
 11
34.0
 21
146.0
 31
0.0
  0
LINE
  5
E10A
  8
0
 10
32.0
 20
65.999999999999986
 30
0.0
 11
32.0
 21
88.000000000000085
 31
0.0
  0
LINE
  5
E10B
  8
3
 10
33.082499999999982
 20
71.999999999999986
 30
0.0
 11
33.082499999999982
 21
88.000000000000085
 31
0.0
  0
LINE
  5
E10C
  8
3
 10
46.917500000000011
 20
71.999999999999986
 30
0.0
 11
46.917500000000011
 21
88.000000000000085
 31
0.0
  0
LINE
  5
E10D
  8
0
 10
48.0
 20
65.999999999999986
 30
0.0
 11
48.0
 21
88.000000000000085
 31
0.0
  0
LINE
  5
E10E
  8
0
 10
34.0
 20
146.0
 30
0.0
 11
46.0
 21
145.99999999999989
 31
0.0
  0
LINE
  5
E10F
  8
0
 10
119.61812686845489
 20
146.0
 30
0.0
 11
131.61812686845491
 21
145.99999999999989
 31
0.0
  0
LINE
  5
E110
  8
0
 10
133.61812686845499
 20
65.999999999999986
 30
0.0
 11
133.61812686845499
 21
87.999999999986628
 31
0.0
  0
LINE
  5
E111
  8
3
 10
132.53562686845501
 20
71.999999999999986
 30
0.0
 11
132.53562686845501
 21
87.999999999988447
 31
0.0
  0
LINE
  5
E112
  8
3
 10
118.7006268684549
 20
71.999999999999986
 30
0.0
 11
118.7006268684549
 21
88.000000000011525
 31
0.0
  0
LINE
  5
E113
  8
0
 10
117.61812686845489
 20
65.999999999999986
 30
0.0
 11
117.61812686845489
 21
88.000000000013344
 31
0.0
  0
LINE
  5
E114
  8
0
 10
117.61812686845489
 20
144.0
 30
0.0
 11
119.61812686845489
 21
146.0
 31
0.0
  0
LINE
  5
E115
  8
0
 10
131.61812686845491
 20
145.99999999999989
 30
0.0
 11
133.61812686845499
 21
143.99999999999989
 31
0.0
  0
LINE
  5
E116
  8
0
 10
133.61812686845499
 20
143.99999999999989
 30
0.0
 11
117.61812686845489
 21
144.0
 31
0.0
  0
LINE
  5
E117
  8
0
 10
117.61812686845489
 20
71.999999999999986
 30
0.0
 11
133.61812686845499
 21
71.999999999999986
 31
0.0
  0
LINE
  5
E118
  8
3
 10
118.7006268684549
 20
71.999999999999986
 30
0.0
 11
117.61812686845489
 21
70.125055000806796
 31
0.0
  0
LINE
  5
E119
  8
3
 10
132.53562686845501
 20
71.999999999999986
 30
0.0
 11
133.61812686845499
 21
70.125055000806796
 31
0.0
  0
CIRCLE
  5
E11A
  8
0
 10
40.000000000001421
 20
212.8765648519327
 30
0.0
 40
15.5
  0
CIRCLE
  5
E11B
  8
0
 10
40.000000000001421
 20
212.8765648519327
 30
0.0
 40
30.0
  0
ARC
  5
E11E
  8
0
 10
136.61812686845491
 20
56.999999999999993
 30
0.0
 40
1.0
 50
90.0
 51
210.37378600000019
  0
ARC
  5
E126
  8
0
 10
114.61812686845489
 20
56.999999999999993
 30
0.0
 40
1.0
 50
329.62621399999972
 51
90.0
  0
LINE
  5
E12B
  8
0
 10
116.5473218684549
 20
56.608510999999979
 30
0.0
 11
134.688931868455
 21
56.608510999999979
 31
0.0
  0
LINE
  5
E135
  8
0
 10
138.11812686845491
 20
53.999999999999979
 30
0.0
 11
141.11812686845499
 21
45.499999999999979
 31
0.0
  0
LINE
  5
E136
  8
0
 10
141.11812686845499
 20
45.499999999999979
 30
0.0
 11
155.61812686845491
 21
38.499999999999993
 31
0.0
  0
LINE
  5
E137
  8
0
 10
113.11812686845489
 20
53.999999999999979
 30
0.0
 11
110.11812686845489
 21
45.499999999999979
 31
0.0
  0
LINE
  5
E138
  8
0
 10
110.11812686845489
 20
45.499999999999979
 30
0.0
 11
141.11812686845499
 21
45.499999999999979
 31
0.0
  0
LINE
  5
E139
  8
0
 10
138.11812686845491
 20
53.999999999999979
 30
0.0
 11
113.11812686845489
 21
53.999999999999979
 31
0.0
  0
LINE
  5
E13A
  8
0
 10
154.8181268684549
 20
29.999999999999989
 30
0.0
 11
155.61812686845491
 21
30.800000000000001
 31
0.0
  0
LINE
  5
E13B
  8
0
 10
155.61812686845491
 20
38.499999999999993
 30
0.0
 11
155.61812686845491
 21
30.800000000000001
 31
0.0
  0
LINE
  5
E13C
  8
0
 10
95.618126868454965
 20
30.800000000000001
 30
0.0
 11
96.418126868454976
 21
29.999999999999989
 31
0.0
  0
LINE
  5
E13D
  8
0
 10
95.618126868454965
 20
30.800000000000001
 30
0.0
 11
95.618126868454965
 21
38.499999999999993
 31
0.0
  0
LINE
  5
E13E
  8
0
 10
110.11812686845489
 20
45.499999999999979
 30
0.0
 11
95.618126868454965
 21
38.499999999999993
 31
0.0
  0
LINE
  5
E13F
  8
0
 10
95.618126868454965
 20
30.800000000000001
 30
0.0
 11
155.61812686845491
 21
30.800000000000001
 31
0.0
  0
LINE
  5
E140
  8
0
 10
95.618126868454965
 20
38.499999999999993
 30
0.0
 11
155.61812686845491
 21
38.499999999999993
 31
0.0
  0
LINE
  5
E141
  8
0
 10
154.8181268684549
 20
29.999999999999989
 30
0.0
 11
96.418126868454976
 21
29.999999999999989
 31
0.0
  0
ARC
  5
E142
  8
0
 10
125.61812686845489
 20
50.553101999999981
 30
0.0
 40
11.75
 50
149.626214
 51
162.94119399999991
  0
ARC
  5
E143
  8
0
 10
125.61812686845489
 20
50.553101999999981
 30
0.0
 40
11.75
 50
17.05880600000005
 51
30.373785999999932
  0
ARC
  5
E2C9
  8
0
 10
46.000000000033637
 20
48.381197848083957
 30
0.0
 40
17.330127017333279
 50
69.743841997639095
 51
110.25615800236091
  0
LINE
  5
E2CA
  8
0
 10
52.000000000048658
 20
65.711324865417282
 30
0.0
 11
51.500000000033651
 21
66.000000000020691
 31
0.0
  0
LINE
  5
E2CB
  8
0
 10
52.000000000048537
 20
58.288675134579471
 30
0.0
 11
51.500000000033538
 21
57.999999999976069
 31
0.0
  0
ARC
  5
E2CC
  8
0
 10
46.000000000033538
 20
75.618802151912817
 30
0.0
 40
17.330127017333279
 50
249.74384199763909
 51
290.25615800236091
  0
LINE
  5
E2CD
  8
0
 10
52.000000000048658
 20
65.711324865417282
 30
0.0
 11
52.000000000036827
 21
58.288675134572692
 31
0.0
  0
LINE
  5
E2CF
  8
0
 10
28.000000000018641
 20
65.711324865417282
 30
0.0
 11
28.000000000030472
 21
58.288675134572607
 31
0.0
  0
ARC
  5
E2D0
  8
0
 10
34.000000000033538
 20
75.618802151912817
 30
0.0
 40
17.330127017333279
 50
249.74384199763909
 51
290.25615800236091
  0
LINE
  5
E2D1
  8
0
 10
28.000000000018531
 20
58.288675134579471
 30
0.0
 11
28.500000000033541
 21
57.999999999976069
 31
0.0
  0
LINE
  5
E2D2
  8
0
 10
28.000000000018641
 20
65.711324865417282
 30
0.0
 11
28.500000000033651
 21
66.000000000020691
 31
0.0
  0
ARC
  5
E2D3
  8
0
 10
34.000000000033651
 20
48.381197848083957
 30
0.0
 40
17.330127017333279
 50
69.743841997639095
 51
110.25615800236091
  0
LINE
  5
E2D4
  8
0
 10
28.499999999967262
 20
65.999999999982265
 30
0.0
 11
51.500000000033651
 21
66.000000000020691
 31
0.0
  0
LINE
  5
E2D5
  8
0
 10
51.500000000033538
 20
57.999999999976069
 30
0.0
 11
28.499999999967152
 21
58.000000000014502
 31
0.0
  0
ARC
  5
E2EB
  8
0
 10
125.61812686850929
 20
42.783121637296972
 30
0.0
 40
22.928203228139491
 50
72.412046224314409
 51
107.58795377568561
  0
ARC
  5
E2EC
  8
0
 10
115.2258220230958
 20
59.577350269715687
 30
0.0
 40
6.1339745957208214
 50
55.615752528792711
 51
115.6157525301475
  0
LINE
  5
E2ED
  8
0
 10
111.76172040793629
 20
64.639528095607261
 30
0.0
 11
114.1181268686171
 21
66.000000000001464
 31
0.0
  0
LINE
  5
E2EE
  8
0
 10
111.76172040788229
 20
59.360471904389499
 30
0.0
 11
114.1181268685631
 21
57.999999999995282
 31
0.0
  0
ARC
  5
E2EF
  8
0
 10
115.2258220230418
 20
64.42264973028108
 30
0.0
 40
6.1339745957208214
 50
244.38424746985231
 51
304.38424747120729
  0
ARC
  5
E2F0
  8
0
 10
125.61812686845531
 20
81.216878362699788
 30
0.0
 40
22.928203228139491
 50
252.41204622431439
 51
287.58795377568561
  0
LINE
  5
E2F1
  8
0
 10
111.76172040795809
 20
64.639528095607261
 30
0.0
 11
111.76172040795809
 21
59.36047190434568
 31
0.0
  0
LINE
  5
E2F2
  8
0
 10
118.68992363817991
 20
64.639528095590165
 30
0.0
 11
118.68992363817991
 21
59.360471904389499
 31
0.0
  0
LINE
  5
E2F3
  8
0
 10
132.54633009873061
 20
64.639528095624399
 30
0.0
 11
132.54633009873061
 21
59.360471904389499
 31
0.0
  0
LINE
  5
E2F4
  8
0
 10
139.47453332906051
 20
64.639528095607261
 30
0.0
 11
139.47453332906051
 21
59.360471904408058
 31
0.0
  0
ARC
  5
E2F5
  8
0
 10
136.0104317138688
 20
64.42264973028108
 30
0.0
 40
6.1339745957208214
 50
235.6157525287926
 51
295.61575253014757
  0
LINE
  5
E2F6
  8
0
 10
139.4745333290283
 20
59.360471904389499
 30
0.0
 11
137.1181268683475
 21
57.999999999995282
 31
0.0
  0
LINE
  5
E2F7
  8
0
 10
139.47453332908231
 20
64.639528095607261
 30
0.0
 11
137.1181268684015
 21
66.000000000001464
 31
0.0
  0
ARC
  5
E2F8
  8
0
 10
136.0104317139228
 20
59.577350269715687
 30
0.0
 40
6.1339745957208214
 50
64.384247469852397
 51
124.3842474712073
  0
LINE
  5
E2F9
  8
0
 10
114.11812686850929
 20
66.000000000001464
 30
0.0
 11
137.1181268684015
 21
66.000000000001464
 31
0.0
  0
LINE
  5
E2FA
  8
0
 10
137.1181268683475
 20
57.999999999995282
 30
0.0
 11
114.1181268685631
 21
57.999999999995282
 31
0.0
  0
LINE
  5
E310
  8
0
 10
40.0
 20
226.7329713124837
 30
0.0
 11
36.784609690826528
 21
224.8765648519327
 31
0.0
  0
LINE
  5
E311
  8
0
 10
52.0
 20
219.80476808220811
 30
0.0
 11
48.784609690828567
 21
221.661174542758
 31
0.0
  0
LINE
  5
E312
  8
0
 10
52.0
 20
205.9483616216572
 30
0.0
 11
52.0
 21
209.6611745427567
 31
0.0
  0
LINE
  5
E313
  8
0
 10
40.0
 20
199.02015839138161
 30
0.0
 11
43.215390309173578
 21
200.8765648519327
 31
0.0
  0
LINE
  5
E314
  8
0
 10
28.0
 20
205.9483616216572
 30
0.0
 11
31.215390309175518
 21
204.09195516110489
 31
0.0
  0
LINE
  5
E315
  8
0
 10
28.0
 20
219.80476808220811
 30
0.0
 11
28.0
 21
216.0919551611037
 31
0.0
  0
LINE
  5
E324
  8
0
 10
43.215390309173351
 20
224.8765648519327
 30
0.0
 11
40.0
 21
226.7329713124837
 31
0.0
  0
LINE
  5
E325
  8
0
 10
52.0
 20
216.0919551611085
 30
0.0
 11
52.0
 21
219.80476808220811
 31
0.0
  0
LINE
  5
E326
  8
0
 10
48.784609690828567
 20
204.09195516110739
 30
0.0
 11
52.0
 21
205.9483616216572
 31
0.0
  0
LINE
  5
E327
  8
0
 10
36.784609690826407
 20
200.8765648519327
 30
0.0
 11
40.0
 21
199.02015839138161
 31
0.0
  0
LINE
  5
E328
  8
0
 10
28.0
 20
209.6611745427615
 30
0.0
 11
28.0
 21
205.9483616216572
 31
0.0
  0
LINE
  5
E329
  8
0
 10
31.215390309175518
 20
221.66117454276031
 30
0.0
 11
28.0
 21
219.80476808220811
 31
0.0
  0
TEXT
  5
E474
  8
0
 62
     3
 10
0.0
 20
0.0
 30
0.0
 40
10.0
  1
LM60-16A-SUS
  7
STANDARD1
  0
ENDSEC
  0
EOF
