  0
SECTION
  2
HEADER
  9
$ACADVER
  1
AC1009
  9
$INSBASE
 10
0.0
 20
0.0
 30
0.0
  9
$EXTMIN
 10
0.0
 20
-2.960436562073669
 30
0.0
  9
$EXTMAX
 10
155.61812686845491
 20
276.76132452677513
 30
0.0
  9
$LIMMIN
 10
0.0
 20
0.0
  9
$LIMMAX
 10
375.0
 20
270.0
  9
$ORTHOMODE
 70
     1
  9
$REGENMODE
 70
     1
  9
$FILLMODE
 70
     1
  9
$QTEXTMODE
 70
     0
  9
$MIRRTEXT
 70
     0
  9
$DRAGMODE
 70
     2
  9
$LTSCALE
 40
6.0
  9
$OSMODE
 70
  3071
  9
$ATTMODE
 70
     1
  9
$TEXTSIZE
 40
0.2
  9
$TRACEWID
 40
0.05
  9
$TEXTSTYLE
  7
STANDARD
  9
$CLAYER
  8
0
  9
$CELTYPE
  6
BYLAYER
  9
$CECOLOR
 62
   256
  9
$DIMSCALE
 40
1.0
  9
$DIMASZ
 40
3.0
  9
$DIMEXO
 40
1.0
  9
$DIMDLI
 40
6.0
  9
$DIMRND
 40
0.0
  9
$DIMDLE
 40
0.0
  9
$DIMEXE
 40
1.0
  9
$DIMTP
 40
495.0
  9
$DIMTM
 40
0.0
  9
$DIMTXT
 40
3.0
  9
$DIMCEN
 40
0.0
  9
$DIMTSZ
 40
0.0
  9
$DIMTOL
 70
     0
  9
$DIMLIM
 70
     0
  9
$DIMTIH
 70
     0
  9
$DIMTOH
 70
     0
  9
$DIMSE1
 70
     0
  9
$DIMSE2
 70
     0
  9
$DIMTAD
 70
     1
  9
$DIMZIN
 70
     0
  9
$DIMBLK
  1

  9
$DIMASO
 70
     0
  9
$DIMSHO
 70
     0
  9
$DIMPOST
  1

  9
$DIMAPOST
  1

  9
$DIMALT
 70
     0
  9
$DIMALTD
 70
     2
  9
$DIMALTF
 40
25.399999999999999
  9
$DIMLFAC
 40
1.0
  9
$DIMTOFL
 70
     1
  9
$DIMTVP
 40
0.0
  9
$DIMTIX
 70
     1
  9
$DIMSOXD
 70
     0
  9
$DIMSAH
 70
     0
  9
$DIMBLK1
  1

  9
$DIMBLK2
  1

  9
$DIMSTYLE
  2
STANDARD
  9
$DIMCLRD
 70
     0
  9
$DIMCLRE
 70
     0
  9
$DIMCLRT
 70
     4
  9
$DIMTFAC
 40
1.0
  9
$DIMGAP
 40
1.0
  9
$LUNITS
 70
     2
  9
$LUPREC
 70
     4
  9
$SKETCHINC
 40
0.1
  9
$FILLETRAD
 40
2.0
  9
$AUNITS
 70
     0
  9
$AUPREC
 70
     0
  9
$MENU
  1
C:\R13\WIN\SUPPORT\ACAD-I
  9
$ELEVATION
 40
0.0
  9
$PELEVATION
 40
0.0
  9
$THICKNESS
 40
0.0
  9
$LIMCHECK
 70
     0
  9
$BLIPMODE
 70
     0
  9
$CHAMFERA
 40
0.0
  9
$CHAMFERB
 40
0.0
  9
$SKPOLY
 70
     0
  9
$TDCREATE
 40
2451963.6006615399
  9
$TDUPDATE
 40
2456602.6109595029
  9
$TDINDWG
 40
0.1223373958
  9
$TDUSRTIMER
 40
2456598.4462961811
  9
$USRTIMER
 70
     1
  9
$ANGBASE
 50
0.0
  9
$ANGDIR
 70
     0
  9
$PDMODE
 70
     0
  9
$PDSIZE
 40
0.0
  9
$PLINEWID
 40
0.0
  9
$COORDS
 70
     1
  9
$SPLFRAME
 70
     0
  9
$SPLINETYPE
 70
     6
  9
$SPLINESEGS
 70
     8
  9
$ATTDIA
 70
     0
  9
$ATTREQ
 70
     1
  9
$HANDLING
 70
     1
  9
$HANDSEED
  5
F532
  9
$SURFTAB1
 70
     6
  9
$SURFTAB2
 70
     6
  9
$SURFTYPE
 70
     6
  9
$SURFU
 70
     6
  9
$SURFV
 70
     6
  9
$UCSNAME
  2

  9
$UCSORG
 10
0.0
 20
0.0
 30
0.0
  9
$UCSXDIR
 10
1.0
 20
0.0
 30
0.0
  9
$UCSYDIR
 10
0.0
 20
1.0
 30
0.0
  9
$PUCSNAME
  2

  9
$PUCSORG
 10
0.0
 20
0.0
 30
0.0
  9
$PUCSXDIR
 10
1.0
 20
0.0
 30
0.0
  9
$PUCSYDIR
 10
0.0
 20
1.0
 30
0.0
  9
$USERI1
 70
     4
  9
$USERI2
 70
     1
  9
$USERI3
 70
     0
  9
$USERI4
 70
     0
  9
$USERI5
 70
     0
  9
$USERR1
 40
1.0
  9
$USERR2
 40
3.0
  9
$USERR3
 40
3.0
  9
$USERR4
 40
3.0
  9
$USERR5
 40
10.0
  9
$WORLDVIEW
 70
     1
  9
$SHADEDGE
 70
     3
  9
$SHADEDIF
 70
    70
  9
$TILEMODE
 70
     1
  9
$MAXACTVP
 70
    16
  9
$PLIMCHECK
 70
     0
  9
$PEXTMIN
 10
1.0000000000000000E+020
 20
1.0000000000000000E+020
 30
1.0000000000000000E+020
  9
$PEXTMAX
 10
-1.0000000000000000E+020
 20
-1.0000000000000000E+020
 30
-1.0000000000000000E+020
  9
$PLIMMIN
 10
0.0
 20
0.0
  9
$PLIMMAX
 10
12.0
 20
9.0
  9
$UNITMODE
 70
     0
  9
$VISRETAIN
 70
     0
  9
$PLINEGEN
 70
     0
  9
$PSLTSCALE
 70
     0
  0
ENDSEC
  0
SECTION
  2
TABLES
  0
TABLE
  2
VPORT
 70
     1
  0
VPORT
  2
*ACTIVE
 70
     0
 10
0.0
 20
0.0
 11
1.0
 21
1.0
 12
259.22801965353563
 22
158.74246208802069
 13
0.0
 23
0.0
 14
10.0
 24
10.0
 15
10.0
 25
10.0
 16
0.0
 26
0.0
 36
1.0
 17
0.0
 27
0.0
 37
0.0
 40
346.05984632518351
 41
1.8318713450292401
 42
50.0
 43
0.0
 44
0.0
 50
0.0
 51
0.0
 71
    16
 72
   100
 73
     1
 74
     0
 75
     0
 76
     0
 77
     0
 78
     0
  0
ENDTAB
  0
TABLE
  2
LTYPE
 70
     3
  0
LTYPE
  2
CONTINUOUS
 70
     0
  3
Solid Line
 72
    65
 73
     0
 40
0.0
  0
LTYPE
  2
CENTER
 70
     0
  3
____ _ ____ _ ____ _ ____ _ ____ _ ____ _ ____
 72
    65
 73
     4
 40
2.0
 49
1.25
 49
-0.25
 49
0.25
 49
-0.25
  0
LTYPE
  2
PHANTOM2
 70
     0
  3
___ _ _ ___ _ _ ___ _ _ ___ _ _
 72
    65
 73
     6
 40
1.25
 49
0.625
 49
-0.125
 49
0.125
 49
-0.125
 49
0.125
 49
-0.125
  0
ENDTAB
  0
TABLE
  2
LAYER
 70
     3
  0
LAYER
  2
0
 70
     0
 62
     7
  6
CONTINUOUS
  0
LAYER
  2
1
 70
     0
 62
     1
  6
CENTER
  0
LAYER
  2
3
 70
     0
 62
     3
  6
CONTINUOUS
  0
ENDTAB
  0
TABLE
  2
STYLE
 70
     2
  0
STYLE
  2
STANDARD
 70
     0
 40
0.0
 41
1.0
 50
0.0
 71
     0
 42
0.2
  3
SIMPLEX
  4
BIGFONT
  0
STYLE
  2
STANDARD1
 70
     0
 40
0.0
 41
1.0
 50
0.0
 71
     0
 42
3.0
  3
txt
  4

  0
ENDTAB
  0
TABLE
  2
VIEW
 70
     0
  0
ENDTAB
  0
TABLE
  2
UCS
 70
     0
  0
ENDTAB
  0
TABLE
  2
APPID
 70
    29
  0
APPID
  2
ACAD
 70
     0
  0
APPID
  2
GENIUS_GENOREF_13
 70
     0
  0
APPID
  2
GENIUS_GENOENT_13
 70
     0
  0
APPID
  2
GENIUS_GENBH_13
 70
     0
  0
APPID
  2
GENIUS_GENOBJ_13
 70
     0
  0
APPID
  2
GENIUS_GENODEF_13
 70
     0
  0
APPID
  2
GENIUS_GENOLIS_13
 70
     0
  0
APPID
  2
GENIUS_GENOBJ-NBEHI-BHF_13
 70
     0
  0
APPID
  2
GENIUS_GENOBJ-NBEHI-BHB_13
 70
     0
  0
APPID
  2
GENIUS_GENOBJ-F-PART_13
 70
     0
  0
APPID
  2
GENIUS_GEFSTDP_13
 70
     0
  0
APPID
  2
GENIUS_GENOBJ-N-RSSYM_13
 70
     0
  0
APPID
  2
GENIUS_GENSYMENT_13
 70
     0
  0
APPID
  2
GENIUS_GENOBJ-N-TIT_13
 70
     0
  0
APPID
  2
GENIUS_GENTITLE_13
 70
     0
  0
APPID
  2
GENIUS_GENZVEED_13
 70
     0
  0
APPID
  2
GENIUS_GENOBJ-N-LEADER_13
 70
     0
  0
APPID
  2
GENIUS_GENOBJ-N-FIL_13
 70
     0
  0
APPID
  2
GENIUS_GENOBJ-N-SEC_13
 70
     0
  0
APPID
  2
GENIUS_GENOBJ-N-CRS_13
 70
     0
  0
APPID
  2
GENIUS_GENOBJ-N-ZOO_13
 70
     0
  0
APPID
  2
GENIUS_GENZOO_13
 70
     0
  0
APPID
  2
GENIUS_GENOBJ-F-TOL_13
 70
     0
  0
APPID
  2
GENIUS_GENFIL_13
 70
     0
  0
APPID
  2
GENIUS_GENOBJ-N-CHA_13
 70
     0
  0
APPID
  2
_CALL_MAC$
 70
     0
  0
APPID
  2
ACAD_EXEMPT_FROM_CAD_STANDARDS
 70
     0
  0
APPID
  2
ACAD_MLEADERVER
 70
     0
  0
APPID
  2
ACAD_NAV_VCDISPLAY
 70
     0
  0
ENDTAB
  0
TABLE
  2
DIMSTYLE
 70
     1
  0
DIMSTYLE
  2
STANDARD
 70
     0
  3

  4

  5

  6

  7

 40
1.0
 41
0.18
 42
0.0625
 43
0.38
 44
0.18
 45
0.0
 46
0.0
 47
0.0
 48
0.0
140
0.18
141
0.09
142
0.0
143
25.399999999999999
144
1.0
145
0.0
146
1.0
147
0.09
 71
     0
 72
     0
 73
     1
 74
     1
 75
     0
 76
     0
 77
     0
 78
     0
170
     0
171
     2
172
     0
173
     0
174
     0
175
     0
176
     0
177
     0
178
     0
  0
ENDTAB
  0
ENDSEC
  0
SECTION
  2
BLOCKS
  0
BLOCK
  8
0
  2
$MODEL_SPACE
 70
     0
 10
0.0
 20
0.0
 30
0.0
  3
$MODEL_SPACE
  1

  0
ENDBLK
  5
F23E
  8
0
  0
BLOCK
 67
     1
  8
0
  2
$PAPER_SPACE
 70
     0
 10
0.0
 20
0.0
 30
0.0
  3
$PAPER_SPACE
  1

  0
ENDBLK
  5
F23C
 67
     1
  8
0
  0
ENDSEC
  0
SECTION
  2
ENTITIES
  0
LINE
  5
F0A6
  8
0
 10
31.999999999999542
 20
102.4999999999991
 30
0.0
 11
31.999999999999549
 21
190.49999999999901
 31
0.0
  0
LINE
  5
F0A7
  8
3
 10
33.082499999999527
 20
102.4999999999991
 30
0.0
 11
33.082499999999527
 21
191.58249999999899
 31
0.0
  0
LINE
  5
F0A8
  8
3
 10
46.91749999999962
 20
102.4999999999991
 30
0.0
 11
46.917499999999563
 21
191.5824999999989
 31
0.0
  0
LINE
  5
F0A9
  8
0
 10
47.999999999999538
 20
102.4999999999991
 30
0.0
 11
47.999999999999538
 21
190.49999999999889
 31
0.0
  0
LINE
  5
F0AA
  8
0
 10
117.6181268684545
 20
102.5000000000241
 30
0.0
 11
117.6181268684545
 21
190.49999999999901
 31
0.0
  0
LINE
  5
F0AB
  8
3
 10
118.70062686845451
 20
102.50000000002591
 30
0.0
 11
118.70062686845451
 21
191.58249999999899
 31
0.0
  0
LINE
  5
F0AC
  8
3
 10
132.5356268684545
 20
102.5000000000491
 30
0.0
 11
132.5356268684545
 21
191.5824999999989
 31
0.0
  0
LINE
  5
F0AD
  8
0
 10
133.61812686845451
 20
102.5000000000509
 30
0.0
 11
133.61812686845451
 21
190.49999999999889
 31
0.0
  0
LINE
  5
F0E3
  8
3
 10
46.917499999999563
 20
73.499999999998991
 30
0.0
 11
47.999999999999488
 21
71.625055000805801
 31
0.0
  0
LINE
  5
F0E4
  8
3
 10
33.082499999999527
 20
73.499999999998991
 30
0.0
 11
31.999999999999549
 21
71.625055000805801
 31
0.0
  0
LINE
  5
F0E5
  8
0
 10
31.999999999999549
 20
73.499999999998991
 30
0.0
 11
47.999999999999538
 21
73.499999999998991
 31
0.0
  0
LINE
  5
F0E6
  8
0
 10
47.999999999999538
 20
190.49999999999889
 30
0.0
 11
31.999999999999549
 21
190.49999999999901
 31
0.0
  0
LINE
  5
F0E7
  8
0
 10
45.999999999999538
 20
192.49999999999889
 30
0.0
 11
47.999999999999538
 21
190.49999999999889
 31
0.0
  0
LINE
  5
F0E8
  8
0
 10
31.999999999999549
 20
190.49999999999901
 30
0.0
 11
33.999999999999552
 21
192.49999999999901
 31
0.0
  0
LINE
  5
F0E9
  8
0
 10
31.999999999999549
 20
67.499999999998991
 30
0.0
 11
31.999999999999549
 21
89.499999999999105
 31
0.0
  0
LINE
  5
F0EA
  8
3
 10
33.082499999999527
 20
73.499999999998991
 30
0.0
 11
33.082499999999527
 21
89.499999999999105
 31
0.0
  0
LINE
  5
F0EB
  8
3
 10
46.91749999999962
 20
73.499999999998991
 30
0.0
 11
46.91749999999962
 21
89.499999999999105
 31
0.0
  0
LINE
  5
F0EC
  8
0
 10
47.999999999999538
 20
67.499999999998991
 30
0.0
 11
47.999999999999538
 21
89.499999999999105
 31
0.0
  0
LINE
  5
F0ED
  8
0
 10
33.999999999999552
 20
192.49999999999901
 30
0.0
 11
45.999999999999538
 21
192.49999999999889
 31
0.0
  0
LINE
  5
F0EE
  8
0
 10
119.6181268684545
 20
192.49999999999901
 30
0.0
 11
131.61812686845451
 21
192.49999999999889
 31
0.0
  0
LINE
  5
F0EF
  8
0
 10
133.61812686845451
 20
67.499999999998991
 30
0.0
 11
133.61812686845451
 21
89.499999999985647
 31
0.0
  0
LINE
  5
F0F0
  8
3
 10
132.53562686845461
 20
73.499999999998991
 30
0.0
 11
132.5356268684545
 21
89.499999999987423
 31
0.0
  0
LINE
  5
F0F1
  8
3
 10
118.70062686845451
 20
73.499999999998991
 30
0.0
 11
118.70062686845451
 21
89.500000000010544
 31
0.0
  0
LINE
  5
F0F2
  8
0
 10
117.6181268684545
 20
67.499999999998991
 30
0.0
 11
117.6181268684545
 21
89.500000000012363
 31
0.0
  0
LINE
  5
F0F3
  8
0
 10
117.6181268684545
 20
190.49999999999901
 30
0.0
 11
119.6181268684545
 21
192.49999999999901
 31
0.0
  0
LINE
  5
F0F4
  8
0
 10
131.61812686845451
 20
192.49999999999889
 30
0.0
 11
133.61812686845451
 21
190.49999999999889
 31
0.0
  0
LINE
  5
F0F5
  8
0
 10
133.61812686845451
 20
190.49999999999889
 30
0.0
 11
117.6181268684545
 21
190.49999999999901
 31
0.0
  0
LINE
  5
F0F6
  8
0
 10
117.6181268684545
 20
73.499999999998991
 30
0.0
 11
133.61812686845451
 21
73.499999999998991
 31
0.0
  0
LINE
  5
F0F7
  8
3
 10
118.70062686845451
 20
73.499999999998991
 30
0.0
 11
117.6181268684545
 21
71.625055000805801
 31
0.0
  0
LINE
  5
F0F8
  8
3
 10
132.5356268684545
 20
73.499999999998991
 30
0.0
 11
133.6181268684544
 21
71.625055000805801
 31
0.0
  0
LINE
  5
F10F
  8
0
 10
116.5473218684549
 20
58.108510999998977
 30
0.0
 11
134.68893186845489
 21
58.108510999998977
 31
0.0
  0
LINE
  5
F110
  8
0
 10
138.11812686845491
 20
55.499999999998991
 30
0.0
 11
113.11812686845489
 21
55.499999999998991
 31
0.0
  0
LINE
  5
F111
  8
0
 10
110.11812686845499
 20
46.999999999998977
 30
0.0
 11
141.11812686845499
 21
46.999999999998977
 31
0.0
  0
LINE
  5
F112
  8
0
 10
96.618126868454979
 20
29.999999999999002
 30
0.0
 11
154.61812686845491
 21
29.999999999999002
 31
0.0
  0
LINE
  5
F113
  8
0
 10
95.618126868454965
 20
39.199999999999001
 30
0.0
 11
155.61812686845491
 21
39.199999999999001
 31
0.0
  0
LINE
  5
F114
  8
0
 10
95.618126868454965
 20
39.999999999998991
 30
0.0
 11
155.61812686845491
 21
39.999999999998991
 31
0.0
  0
LINE
  5
F115
  8
0
 10
113.11812686845489
 20
55.499999999998991
 30
0.0
 11
110.11812686845499
 21
46.999999999998977
 31
0.0
  0
LINE
  5
F116
  8
0
 10
110.11812686845499
 20
46.999999999998977
 30
0.0
 11
95.618126868454965
 21
39.999999999998991
 31
0.0
  0
LINE
  5
F117
  8
0
 10
95.618126868454965
 20
30.999999999999002
 30
0.0
 11
95.618126868454965
 21
39.999999999998991
 31
0.0
  0
ARC
  5
F118
  8
0
 10
96.618126868454979
 20
30.999999999999002
 30
0.0
 40
1.0
 50
180.0
 51
270.0
  0
ARC
  5
F11B
  8
0
 10
114.61812686845499
 20
58.499999999998991
 30
0.0
 40
1.0
 50
329.62621399999972
 51
90.0
  0
ARC
  5
F11D
  8
0
 10
125.61812686845489
 20
52.053101999998987
 30
0.0
 40
11.75
 50
149.62621399999961
 51
162.94119399999991
  0
LINE
  5
F121
  8
0
 10
138.11812686845491
 20
55.499999999998991
 30
0.0
 11
141.11812686845499
 21
46.999999999998977
 31
0.0
  0
LINE
  5
F122
  8
0
 10
141.11812686845499
 20
46.999999999998977
 30
0.0
 11
155.61812686845491
 21
39.999999999998991
 31
0.0
  0
LINE
  5
F123
  8
0
 10
155.61812686845491
 20
39.999999999998991
 30
0.0
 11
155.61812686845491
 21
30.999999999999002
 31
0.0
  0
ARC
  5
F124
  8
0
 10
154.61812686845491
 20
30.999999999999002
 30
0.0
 40
1.0
 50
270.0
 51
0.0
  0
ARC
  5
F12D
  8
0
 10
136.61812686845491
 20
58.499999999998991
 30
0.0
 40
1.0
 50
90.0
 51
210.37378600000019
  0
ARC
  5
F12F
  8
0
 10
125.61812686845489
 20
52.053101999998987
 30
0.0
 40
11.75
 50
17.058806000000111
 51
30.37378600000034
  0
ARC
  5
F133
  8
0
 10
40.0
 20
52.053101999999988
 30
0.0
 40
11.75
 50
17.0588060000001
 51
30.37378600000034
  0
ARC
  5
F135
  8
0
 10
69.0
 20
31.0
 30
0.0
 40
1.0
 50
270.0
 51
0.0
  0
LINE
  5
F136
  8
0
 10
70.0
 20
40.0
 30
0.0
 11
70.0
 21
31.0
 31
0.0
  0
LINE
  5
F137
  8
0
 10
55.5
 20
47.0
 30
0.0
 11
70.0
 21
40.0
 31
0.0
  0
LINE
  5
F138
  8
0
 10
52.5
 20
55.5
 30
0.0
 11
55.5
 21
47.0
 31
0.0
  0
ARC
  5
F139
  8
0
 10
40.0
 20
52.053101999999988
 30
0.0
 40
11.75
 50
149.62621399999961
 51
162.94119399999991
  0
ARC
  5
F13A
  8
0
 10
11.0
 20
31.0
 30
0.0
 40
1.0
 50
180.0
 51
270.0
  0
LINE
  5
F13B
  8
0
 10
10.0
 20
31.0
 30
0.0
 11
10.0
 21
40.0
 31
0.0
  0
LINE
  5
F13C
  8
0
 10
24.5
 20
47.0
 30
0.0
 11
10.0
 21
40.0
 31
0.0
  0
LINE
  5
F13D
  8
0
 10
27.5
 20
55.5
 30
0.0
 11
24.5
 21
47.0
 31
0.0
  0
LINE
  5
F13E
  8
0
 10
10.0
 20
40.0
 30
0.0
 11
70.0
 21
40.0
 31
0.0
  0
LINE
  5
F13F
  8
0
 10
10.0
 20
39.200000000000003
 30
0.0
 11
70.0
 21
39.200000000000003
 31
0.0
  0
LINE
  5
F140
  8
0
 10
11.0
 20
30.0
 30
0.0
 11
69.0
 21
30.0
 31
0.0
  0
LINE
  5
F141
  8
0
 10
24.5
 20
47.0
 30
0.0
 11
55.5
 21
47.0
 31
0.0
  0
LINE
  5
F142
  8
0
 10
52.5
 20
55.5
 30
0.0
 11
27.5
 21
55.5
 31
0.0
  0
LINE
  5
F143
  8
0
 10
30.92919499999994
 20
58.108510999999993
 30
0.0
 11
49.07080499999995
 21
58.108510999999993
 31
0.0
  0
ARC
  5
F144
  8
0
 10
51.0
 20
58.5
 30
0.0
 40
1.0
 50
90.0
 51
210.37378600000019
  0
ARC
  5
F146
  8
0
 10
29.0
 20
58.5
 30
0.0
 40
1.0
 50
329.62621399999972
 51
90.0
  0
LINE
  5
F147
  8
1
 10
125.61812686845479
 20
24.999999999999002
 30
0.0
 11
125.6181268684564
 21
197.49999999999901
 31
0.0
  0
LINE
  5
F148
  8
1
 10
39.999999999999893
 20
25.0
 30
0.0
 11
40.000000000001421
 21
197.5
 31
0.0
  0
CIRCLE
  5
F36A
  8
3
 10
40.000000000000909
 20
241.7613245267751
 30
0.0
 40
6.9175000000000004
  0
CIRCLE
  5
F36B
  8
0
 10
40.000000000000909
 20
241.7613245267751
 30
0.0
 40
8.0
  0
CIRCLE
  5
F36C
  8
0
 10
40.000000000000909
 20
241.7613245267751
 30
0.0
 40
11.5
  0
LINE
  5
F36D
  8
1
 10
75.000000000000966
 20
241.7613245267751
 30
0.0
 11
5.0000000000009663
 21
241.7613245267751
 31
0.0
  0
LINE
  5
F36E
  8
1
 10
40.000000000000959
 20
276.76132452677513
 30
0.0
 11
40.000000000000959
 21
206.7613245267751
 31
0.0
  0
CIRCLE
  5
F385
  8
0
 10
40.000000000000959
 20
241.7613245267751
 30
0.0
 40
15.5
  0
CIRCLE
  5
F386
  8
0
 10
40.000000000000959
 20
241.7613245267751
 30
0.0
 40
30.0
  0
LINE
  5
F3AD
  8
0
 10
51.49999999989268
 20
89.499999999999105
 30
0.0
 11
28.50000000010823
 21
89.499999999999105
 31
0.0
  0
LINE
  5
F3AE
  8
0
 10
28.500000000000458
 20
102.4999999999991
 30
0.0
 11
51.49999999989268
 21
102.4999999999991
 31
0.0
  0
ARC
  5
F3AF
  8
0
 10
50.392304845413953
 20
96.077350269713307
 30
0.0
 40
6.1339745957208214
 50
64.384247469852369
 51
124.3842474712073
  0
LINE
  5
F3B0
  8
0
 10
53.856406460573453
 20
101.1395280956049
 30
0.0
 11
51.49999999989268
 21
102.4999999999991
 31
0.0
  0
LINE
  5
F3B1
  8
0
 10
53.856406460573453
 20
90.860471904393322
 30
0.0
 11
51.49999999989268
 21
89.499999999999105
 31
0.0
  0
ARC
  5
F3B2
  8
0
 10
50.392304845413953
 20
95.922649730284888
 30
0.0
 40
6.1339745957208214
 50
235.6157525287926
 51
295.61575253014757
  0
LINE
  5
F3B3
  8
0
 10
53.856406460551618
 20
101.1395280956049
 30
0.0
 11
53.856406460551618
 21
90.860471904380717
 31
0.0
  0
LINE
  5
F3B4
  8
0
 10
46.928203230275813
 20
101.1395280956049
 30
0.0
 11
46.928203230275813
 21
90.860471904393322
 31
0.0
  0
LINE
  5
F3B5
  8
0
 10
33.071796769725097
 20
101.1395280956049
 30
0.0
 11
33.071796769725097
 21
90.860471904393322
 31
0.0
  0
LINE
  5
F3B6
  8
0
 10
26.143593539449292
 20
101.1395280956049
 30
0.0
 11
26.143593539449292
 21
90.860471904380717
 31
0.0
  0
ARC
  5
F3B7
  8
0
 10
40.000000000000448
 20
112.7168783627036
 30
0.0
 40
22.928203228139491
 50
252.41204622431439
 51
287.58795377568561
  0
ARC
  5
F3B8
  8
0
 10
29.60769515458697
 20
95.922649730284888
 30
0.0
 40
6.1339745957208214
 50
244.3842474698524
 51
304.38424747120729
  0
LINE
  5
F3B9
  8
0
 10
26.14359353942746
 20
90.860471904393322
 30
0.0
 11
28.50000000010823
 21
89.499999999999105
 31
0.0
  0
LINE
  5
F3BA
  8
0
 10
26.14359353942746
 20
101.1395280956049
 30
0.0
 11
28.50000000010823
 21
102.4999999999991
 31
0.0
  0
ARC
  5
F3BB
  8
0
 10
29.60769515458697
 20
96.077350269713307
 30
0.0
 40
6.1339745957208214
 50
55.615752528792669
 51
115.6157525301476
  0
ARC
  5
F3BC
  8
0
 10
40.000000000000448
 20
79.283121637294599
 30
0.0
 40
22.928203228139491
 50
72.412046224314409
 51
107.58795377568561
  0
LINE
  5
F3BD
  8
0
 10
137.11812686848859
 20
89.499999999979906
 30
0.0
 11
114.11812686842219
 21
89.500000000018318
 31
0.0
  0
LINE
  5
F3BE
  8
0
 10
114.11812686842219
 20
102.5000000000183
 30
0.0
 11
137.11812686848859
 21
102.5000000000567
 31
0.0
  0
ARC
  5
F3BF
  8
0
 10
119.6181268684886
 20
84.88119784812001
 30
0.0
 40
17.330127017333279
 50
69.743841997639095
 51
110.25615800236091
  0
LINE
  5
F3C0
  8
0
 10
113.6181268684736
 20
102.21132486545331
 30
0.0
 11
114.1181268684886
 21
102.5000000000567
 31
0.0
  0
LINE
  5
F3C1
  8
0
 10
113.6181268684736
 20
89.788675134583315
 30
0.0
 11
114.1181268684886
 21
89.499999999979906
 31
0.0
  0
ARC
  5
F3C2
  8
0
 10
119.6181268684886
 20
107.1188021519166
 30
0.0
 40
17.330127017333279
 50
249.74384199763909
 51
290.25615800236091
  0
LINE
  5
F3C3
  8
0
 10
113.6181268684736
 20
102.21132486545331
 30
0.0
 11
113.6181268684886
 21
89.78867513457466
 31
0.0
  0
LINE
  5
F3C4
  8
0
 10
125.6181268684886
 20
90.860471904412535
 30
0.0
 11
125.6181268684886
 21
101.1395280956241
 31
0.0
  0
LINE
  5
F3C5
  8
0
 10
137.61812686850359
 20
102.21132486545331
 30
0.0
 11
137.61812686848859
 21
89.78867513457466
 31
0.0
  0
ARC
  5
F3C6
  8
0
 10
131.61812686848859
 20
107.1188021519166
 30
0.0
 40
17.330127017333279
 50
249.74384199763909
 51
290.25615800236091
  0
LINE
  5
F3C7
  8
0
 10
137.61812686850359
 20
89.788675134583315
 30
0.0
 11
137.11812686848859
 21
89.499999999979906
 31
0.0
  0
LINE
  5
F3C8
  8
0
 10
137.61812686850359
 20
102.21132486545331
 30
0.0
 11
137.11812686848859
 21
102.5000000000567
 31
0.0
  0
ARC
  5
F3C9
  8
0
 10
131.61812686848859
 20
84.88119784812001
 30
0.0
 40
17.330127017333279
 50
69.743841997639095
 51
110.25615800236091
  0
LINE
  5
F3CA
  8
0
 10
53.856406460552023
 20
241.7613245267751
 30
0.0
 11
46.928203230276431
 21
253.7613245267751
 31
0.0
  0
LINE
  5
F3CB
  8
0
 10
46.928203230276431
 20
229.7613245267751
 30
0.0
 11
53.856406460552023
 21
241.7613245267751
 31
0.0
  0
LINE
  5
F3CC
  8
0
 10
33.071796769725502
 20
229.7613245267751
 30
0.0
 11
46.928203230276431
 21
229.7613245267751
 31
0.0
  0
LINE
  5
F3CD
  8
0
 10
26.14359353944991
 20
241.7613245267751
 30
0.0
 11
33.071796769725502
 21
229.7613245267751
 31
0.0
  0
LINE
  5
F3CE
  8
0
 10
33.071796769725502
 20
253.7613245267751
 30
0.0
 11
26.14359353944991
 21
241.7613245267751
 31
0.0
  0
LINE
  5
F3CF
  8
0
 10
46.928203230276431
 20
253.7613245267751
 30
0.0
 11
33.071796769725502
 21
253.7613245267751
 31
0.0
  0
LINE
  5
F3D0
  8
0
 10
40.000000000033509
 20
60.86082473105116
 30
0.0
 11
40.000000000033509
 21
66.139175268926437
 31
0.0
  0
ARC
  5
F3D1
  8
0
 10
46.000000000033502
 20
49.881197848073199
 30
0.0
 40
17.330127017333279
 50
69.743841997639095
 51
110.25615800236091
  0
LINE
  5
F3D2
  8
0
 10
52.000000000048523
 20
67.211324865406525
 30
0.0
 11
51.500000000033509
 21
67.500000000009933
 31
0.0
  0
LINE
  5
F3D3
  8
0
 10
52.000000000048402
 20
59.788675134568713
 30
0.0
 11
51.500000000033388
 21
59.499999999965297
 31
0.0
  0
ARC
  5
F3D4
  8
0
 10
46.000000000033403
 20
77.118802151902045
 30
0.0
 40
17.330127017333279
 50
249.74384199763909
 51
290.25615800236091
  0
LINE
  5
F3D5
  8
0
 10
52.000000000048523
 20
67.211324865406525
 30
0.0
 11
52.000000000036692
 21
59.788675134561927
 31
0.0
  0
LINE
  5
F3D6
  8
0
 10
28.000000000018499
 20
67.211324865406525
 30
0.0
 11
28.00000000003033
 21
59.788675134561849
 31
0.0
  0
ARC
  5
F3D7
  8
0
 10
34.000000000033403
 20
77.118802151902045
 30
0.0
 40
17.330127017333279
 50
249.74384199763909
 51
290.25615800236091
  0
LINE
  5
F3D8
  8
0
 10
28.000000000018389
 20
59.788675134568713
 30
0.0
 11
28.500000000033399
 21
59.499999999965297
 31
0.0
  0
LINE
  5
F3D9
  8
0
 10
28.000000000018499
 20
67.211324865406525
 30
0.0
 11
28.500000000033509
 21
67.500000000009933
 31
0.0
  0
ARC
  5
F3DA
  8
0
 10
34.000000000033509
 20
49.881197848073199
 30
0.0
 40
17.330127017333279
 50
69.743841997639095
 51
110.25615800236091
  0
LINE
  5
F3DB
  8
0
 10
28.499999999967109
 20
67.499999999971493
 30
0.0
 11
51.500000000033509
 21
67.500000000009933
 31
0.0
  0
LINE
  5
F3DC
  8
0
 10
51.500000000033388
 20
59.499999999965297
 30
0.0
 11
28.499999999966999
 21
59.50000000000373
 31
0.0
  0
ARC
  5
F3DD
  8
0
 10
125.61812686850919
 20
44.283121637286207
 30
0.0
 40
22.928203228139491
 50
72.412046224314409
 51
107.58795377568561
  0
ARC
  5
F3DE
  8
0
 10
115.2258220230957
 20
61.077350269704922
 30
0.0
 40
6.1339745957208214
 50
55.615752528792669
 51
115.6157525301476
  0
LINE
  5
F3DF
  8
0
 10
111.7617204079362
 20
66.139528095596503
 30
0.0
 11
114.1181268686169
 21
67.49999999999072
 31
0.0
  0
LINE
  5
F3E0
  8
0
 10
111.76172040788219
 20
60.860471904378741
 30
0.0
 11
114.1181268685629
 21
59.499999999984517
 31
0.0
  0
ARC
  5
F3E1
  8
0
 10
115.2258220230417
 20
65.922649730270308
 30
0.0
 40
6.1339745957208214
 50
244.3842474698522
 51
304.3842474712074
  0
ARC
  5
F3E2
  8
0
 10
125.61812686845521
 20
82.716878362689016
 30
0.0
 40
22.928203228139491
 50
252.41204622431439
 51
287.58795377568561
  0
LINE
  5
F3E3
  8
0
 10
111.76172040795799
 20
66.139528095596503
 30
0.0
 11
111.76172040795799
 21
60.860471904334922
 31
0.0
  0
LINE
  5
F3E4
  8
0
 10
118.68992363817981
 20
66.139528095579394
 30
0.0
 11
118.68992363817981
 21
60.860471904378741
 31
0.0
  0
LINE
  5
F3E5
  8
0
 10
132.54633009873049
 20
66.139528095613628
 30
0.0
 11
132.54633009873049
 21
60.860471904378741
 31
0.0
  0
LINE
  5
F3E6
  8
0
 10
139.47453332906031
 20
66.139528095596503
 30
0.0
 11
139.47453332906031
 21
60.860471904397293
 31
0.0
  0
ARC
  5
F3E7
  8
0
 10
136.01043171386871
 20
65.922649730270308
 30
0.0
 40
6.1339745957208214
 50
235.6157525287926
 51
295.61575253014757
  0
LINE
  5
F3E8
  8
0
 10
139.47453332902819
 20
60.860471904378741
 30
0.0
 11
137.11812686834739
 21
59.499999999984517
 31
0.0
  0
LINE
  5
F3E9
  8
0
 10
139.47453332908219
 20
66.139528095596503
 30
0.0
 11
137.11812686840139
 21
67.49999999999072
 31
0.0
  0
ARC
  5
F3EA
  8
0
 10
136.01043171392271
 20
61.077350269704922
 30
0.0
 40
6.1339745957208214
 50
64.384247469852426
 51
124.3842474712073
  0
LINE
  5
F3EB
  8
0
 10
114.11812686850919
 20
67.49999999999072
 30
0.0
 11
137.11812686840139
 21
67.49999999999072
 31
0.0
  0
LINE
  5
F3EC
  8
0
 10
137.11812686834739
 20
59.499999999984517
 30
0.0
 11
114.1181268685629
 21
59.499999999984517
 31
0.0
  0
LINE
  5
F3ED
  8
0
 10
39.999999999999602
 20
255.6177309873261
 30
0.0
 11
36.78460969082613
 21
253.7613245267751
 31
0.0
  0
LINE
  5
F3EE
  8
0
 10
31.21539030917512
 20
250.54593421760279
 30
0.0
 11
27.999999999999599
 21
248.68952775705051
 31
0.0
  0
LINE
  5
F3EF
  8
0
 10
51.999999999999602
 20
248.68952775705051
 30
0.0
 11
48.784609690828177
 21
250.5459342176004
 31
0.0
  0
LINE
  5
F3F0
  8
0
 10
43.215390309172953
 20
253.7613245267751
 30
0.0
 11
39.999999999999602
 21
255.6177309873261
 31
0.0
  0
LINE
  5
F3F1
  8
0
 10
51.999999999999602
 20
234.8331212964996
 30
0.0
 11
51.999999999999602
 21
238.5459342175991
 31
0.0
  0
LINE
  5
F3F2
  8
0
 10
51.999999999999602
 20
244.97671483595099
 30
0.0
 11
51.999999999999602
 21
248.68952775705051
 31
0.0
  0
LINE
  5
F3F3
  8
0
 10
39.999999999999602
 20
227.90491806622401
 30
0.0
 11
43.215390309173181
 21
229.7613245267751
 31
0.0
  0
LINE
  5
F3F4
  8
0
 10
48.784609690828177
 20
232.97671483594971
 30
0.0
 11
51.999999999999602
 21
234.8331212964996
 31
0.0
  0
LINE
  5
F3F5
  8
0
 10
27.999999999999599
 20
234.8331212964996
 30
0.0
 11
31.21539030917512
 21
232.97671483594729
 31
0.0
  0
LINE
  5
F3F6
  8
0
 10
36.784609690826017
 20
229.7613245267751
 30
0.0
 11
39.999999999999602
 21
227.90491806622401
 31
0.0
  0
LINE
  5
F3F7
  8
0
 10
27.999999999999599
 20
248.68952775705051
 30
0.0
 11
27.999999999999599
 21
244.9767148359461
 31
0.0
  0
LINE
  5
F3F8
  8
0
 10
27.999999999999599
 20
238.5459342176039
 30
0.0
 11
27.999999999999599
 21
234.8331212964996
 31
0.0
  0
TEXT
  5
F4BF
  8
0
 62
     3
 10
0.0
 20
0.0
 30
0.0
 40
10.0
  1
LM60BP-16B-SUS
  7
STANDARD1
  0
ENDSEC
  0
EOF
