  0
SECTION
  2
HEADER
  9
$ACADVER
  1
AC1009
  9
$INSBASE
 10
0.0
 20
0.0
 30
0.0
  9
$EXTMIN
 10
0.0
 20
-2.960436562073669
 30
0.0
  9
$EXTMAX
 10
323.17579011388062
 20
410.02780121535568
 30
0.0
  9
$LIMMIN
 10
0.0
 20
0.0
  9
$LIMMAX
 10
187.5
 20
135.0
  9
$ORTHOMODE
 70
     0
  9
$REGENMODE
 70
     1
  9
$FILLMODE
 70
     1
  9
$QTEXTMODE
 70
     0
  9
$MIRRTEXT
 70
     0
  9
$DRAGMODE
 70
     2
  9
$LTSCALE
 40
10.0
  9
$OSMODE
 70
  3071
  9
$ATTMODE
 70
     1
  9
$TEXTSIZE
 40
0.2
  9
$TRACEWID
 40
0.05
  9
$TEXTSTYLE
  7
STANDARD
  9
$CLAYER
  8
0
  9
$CELTYPE
  6
BYLAYER
  9
$CECOLOR
 62
   256
  9
$DIMSCALE
 40
0.5
  9
$DIMASZ
 40
3.0
  9
$DIMEXO
 40
2.0
  9
$DIMDLI
 40
0.3799999999999999
  9
$DIMRND
 40
0.0
  9
$DIMDLE
 40
0.0
  9
$DIMEXE
 40
2.0
  9
$DIMTP
 40
0.0
  9
$DIMTM
 40
0.0
  9
$DIMTXT
 40
3.2000000000000002
  9
$DIMCEN
 40
0.09
  9
$DIMTSZ
 40
0.0
  9
$DIMTOL
 70
     0
  9
$DIMLIM
 70
     0
  9
$DIMTIH
 70
     0
  9
$DIMTOH
 70
     0
  9
$DIMSE1
 70
     0
  9
$DIMSE2
 70
     0
  9
$DIMTAD
 70
     1
  9
$DIMZIN
 70
     0
  9
$DIMBLK
  1

  9
$DIMASO
 70
     0
  9
$DIMSHO
 70
     0
  9
$DIMPOST
  1

  9
$DIMAPOST
  1

  9
$DIMALT
 70
     0
  9
$DIMALTD
 70
     2
  9
$DIMALTF
 40
25.399999999999999
  9
$DIMLFAC
 40
1.0
  9
$DIMTOFL
 70
     0
  9
$DIMTVP
 40
1.6000000000000001
  9
$DIMTIX
 70
     1
  9
$DIMSOXD
 70
     0
  9
$DIMSAH
 70
     0
  9
$DIMBLK1
  1

  9
$DIMBLK2
  1

  9
$DIMSTYLE
  2
STANDARD
  9
$DIMCLRD
 70
     0
  9
$DIMCLRE
 70
     0
  9
$DIMCLRT
 70
     0
  9
$DIMTFAC
 40
1.0
  9
$DIMGAP
 40
0.09
  9
$LUNITS
 70
     2
  9
$LUPREC
 70
     4
  9
$SKETCHINC
 40
0.1
  9
$FILLETRAD
 40
0.4
  9
$AUNITS
 70
     0
  9
$AUPREC
 70
     0
  9
$MENU
  1
E:\r13\win\SUPPORT\ACAD
  9
$ELEVATION
 40
0.0
  9
$PELEVATION
 40
0.0
  9
$THICKNESS
 40
0.0
  9
$LIMCHECK
 70
     0
  9
$BLIPMODE
 70
     0
  9
$CHAMFERA
 40
0.0
  9
$CHAMFERB
 40
0.0
  9
$SKPOLY
 70
     0
  9
$TDCREATE
 40
2451824.6906229062
  9
$TDUPDATE
 40
2456597.5874577318
  9
$TDINDWG
 40
0.0945869097
  9
$TDUSRTIMER
 40
0.0945869097
  9
$USRTIMER
 70
     1
  9
$ANGBASE
 50
0.0
  9
$ANGDIR
 70
     0
  9
$PDMODE
 70
     0
  9
$PDSIZE
 40
0.0
  9
$PLINEWID
 40
0.0
  9
$COORDS
 70
     1
  9
$SPLFRAME
 70
     0
  9
$SPLINETYPE
 70
     6
  9
$SPLINESEGS
 70
     8
  9
$ATTDIA
 70
     0
  9
$ATTREQ
 70
     1
  9
$HANDLING
 70
     1
  9
$HANDSEED
  5
4F5
  9
$SURFTAB1
 70
     6
  9
$SURFTAB2
 70
     6
  9
$SURFTYPE
 70
     6
  9
$SURFU
 70
     6
  9
$SURFV
 70
     6
  9
$UCSNAME
  2

  9
$UCSORG
 10
0.0
 20
0.0
 30
0.0
  9
$UCSXDIR
 10
1.0
 20
0.0
 30
0.0
  9
$UCSYDIR
 10
0.0
 20
1.0
 30
0.0
  9
$PUCSNAME
  2

  9
$PUCSORG
 10
0.0
 20
0.0
 30
0.0
  9
$PUCSXDIR
 10
1.0
 20
0.0
 30
0.0
  9
$PUCSYDIR
 10
0.0
 20
1.0
 30
0.0
  9
$USERI1
 70
     0
  9
$USERI2
 70
     1
  9
$USERI3
 70
     0
  9
$USERI4
 70
     0
  9
$USERI5
 70
     0
  9
$USERR1
 40
0.0
  9
$USERR2
 40
0.0
  9
$USERR3
 40
0.0
  9
$USERR4
 40
0.0
  9
$USERR5
 40
0.0
  9
$WORLDVIEW
 70
     1
  9
$SHADEDGE
 70
     3
  9
$SHADEDIF
 70
    70
  9
$TILEMODE
 70
     1
  9
$MAXACTVP
 70
    16
  9
$PLIMCHECK
 70
     0
  9
$PEXTMIN
 10
1.0000000000000000E+020
 20
1.0000000000000000E+020
 30
1.0000000000000000E+020
  9
$PEXTMAX
 10
-1.0000000000000000E+020
 20
-1.0000000000000000E+020
 30
-1.0000000000000000E+020
  9
$PLIMMIN
 10
0.0
 20
0.0
  9
$PLIMMAX
 10
12.0
 20
9.0
  9
$UNITMODE
 70
     0
  9
$VISRETAIN
 70
     0
  9
$PLINEGEN
 70
     0
  9
$PSLTSCALE
 70
     0
  0
ENDSEC
  0
SECTION
  2
TABLES
  0
TABLE
  2
VPORT
 70
     1
  0
VPORT
  2
*ACTIVE
 70
     0
 10
0.0
 20
0.0
 11
1.0
 21
1.0
 12
161.58789580939251
 22
204.42209431085439
 13
0.0
 23
0.0
 14
5.0
 24
5.0
 15
5.0
 25
5.0
 16
0.0
 26
0.0
 36
1.0
 17
0.0
 27
0.0
 37
0.0
 40
419.5603242642743
 41
2.304913294797688
 42
50.0
 43
0.0
 44
0.0
 50
0.0
 51
0.0
 71
     0
 72
   500
 73
     1
 74
     0
 75
     0
 76
     0
 77
     0
 78
     2
  0
ENDTAB
  0
TABLE
  2
LTYPE
 70
     4
  0
LTYPE
  2
CONTINUOUS
 70
     0
  3
Solid Line
 72
    65
 73
     0
 40
0.0
  0
LTYPE
  2
CENTER
 70
     0
  3
____ _ ____ _ ____ _ ____ _ ____ _ ____ _ ____
 72
    65
 73
     4
 40
2.0
 49
1.25
 49
-0.25
 49
0.25
 49
-0.25
  0
LTYPE
  2
HIDDEN
 70
     0
  3
__ __ __ __ __ __ __ __ __ __ __ __ __ __ __ __
 72
    65
 73
     2
 40
0.375
 49
0.25
 49
-0.125
  0
LTYPE
  2
PHANTOM2
 70
     0
  3
___ _ _ ___ _ _ ___ _ _ ___ _ _
 72
    65
 73
     6
 40
1.25
 49
0.625
 49
-0.125
 49
0.125
 49
-0.125
 49
0.125
 49
-0.125
  0
ENDTAB
  0
TABLE
  2
LAYER
 70
     4
  0
LAYER
  2
0
 70
     0
 62
     7
  6
CONTINUOUS
  0
LAYER
  2
1
 70
     0
 62
     1
  6
CENTER
  0
LAYER
  2
2
 70
     0
 62
     2
  6
HIDDEN
  0
LAYER
  2
3
 70
     0
 62
     3
  6
CONTINUOUS
  0
ENDTAB
  0
TABLE
  2
STYLE
 70
     2
  0
STYLE
  2
STANDARD
 70
     0
 40
0.0
 41
1.0
 50
0.0
 71
     0
 42
0.2
  3
TXT
  4
BIGFONT
  0
STYLE
  2
STANDARD1
 70
     0
 40
0.0
 41
1.0
 50
0.0
 71
     0
 42
3.0
  3
txt
  4

  0
ENDTAB
  0
TABLE
  2
VIEW
 70
     0
  0
ENDTAB
  0
TABLE
  2
UCS
 70
     0
  0
ENDTAB
  0
TABLE
  2
APPID
 70
     8
  0
APPID
  2
ACAD
 70
     0
  0
APPID
  2
GENIUS_GENODEF_13
 70
     0
  0
APPID
  2
GENIUS_GENOREF_13
 70
     0
  0
APPID
  2
GENIUS_GENOBJ-N-CEN_13
 70
     0
  0
APPID
  2
GENIUS_GENOBJ-N-FIL_13
 70
     0
  0
APPID
  2
ACAD_EXEMPT_FROM_CAD_STANDARDS
 70
     0
  0
APPID
  2
ACAD_MLEADERVER
 70
     0
  0
APPID
  2
ACAD_NAV_VCDISPLAY
 70
     0
  0
ENDTAB
  0
TABLE
  2
DIMSTYLE
 70
     1
  0
DIMSTYLE
  2
STANDARD
 70
     0
  3

  4

  5

  6

  7

 40
1.0
 41
0.18
 42
0.0625
 43
0.38
 44
0.18
 45
0.0
 46
0.0
 47
0.0
 48
0.0
140
0.18
141
0.09
142
0.0
143
25.399999999999999
144
1.0
145
0.0
146
1.0
147
0.09
 71
     0
 72
     0
 73
     1
 74
     1
 75
     0
 76
     0
 77
     0
 78
     0
170
     0
171
     2
172
     0
173
     0
174
     0
175
     0
176
     0
177
     0
178
     0
  0
ENDTAB
  0
ENDSEC
  0
SECTION
  2
BLOCKS
  0
BLOCK
  8
0
  2
$MODEL_SPACE
 70
     0
 10
0.0
 20
0.0
 30
0.0
  3
$MODEL_SPACE
  1

  0
ENDBLK
  5
9
  8
0
  0
BLOCK
 67
     1
  8
0
  2
$PAPER_SPACE
 70
     0
 10
0.0
 20
0.0
 30
0.0
  3
$PAPER_SPACE
  1

  0
ENDBLK
  5
E
 67
     1
  8
0
  0
ENDSEC
  0
SECTION
  2
ENTITIES
  0
LINE
  5
2CF
  8
2
 10
273.17579011388131
 20
216.69446788473601
 30
0.0
 11
278.17579011455899
 21
220.02780121535579
 31
0.0
  0
LINE
  5
2D0
  8
2
 10
268.17579011862989
 20
220.02780121535579
 30
0.0
 11
273.17579011388131
 21
216.69446788473601
 31
0.0
  0
LINE
  5
2D1
  8
3
 10
281.82279011388118
 20
81.174801215356766
 30
0.0
 11
281.82279011388118
 21
137.52780121535579
 31
0.0
  0
LINE
  5
2D2
  8
0
 10
283.17579011388131
 20
82.527801215356931
 30
0.0
 11
283.17579011388131
 21
137.52780121535571
 31
0.0
  0
LINE
  5
2D3
  8
0
 10
280.67579011388062
 20
73.027801215355893
 30
0.0
 11
280.67579011388051
 21
80.02780121535568
 31
0.0
1001
GENIUS_GENODEF_13
1002
{
1000
HIER
1070
     0
1002
}
1002
{
1000
MANEDIT
1070
     0
1002
}
1002
{
1000
NOSEL
1070
     0
1002
}
1002
{
1000
BEHIND
1070
     0
1002
}
1002
{
1000
OTHER
1070
     0
1002
}
1002
{
1000
REACTOR
1002
}
1001
GENIUS_GENOBJ-N-CEN_13
1002
{
1000
OWNER
1000
GEN
1002
}
  0
LINE
  5
2D4
  8
0
 10
283.17579011388
 20
82.52780121535568
 30
0.0
 11
280.67579011388051
 21
80.027801215355794
 31
0.0
  0
LINE
  5
2D5
  8
0
 10
283.17579011388
 20
70.527801215355794
 30
0.0
 11
280.67579011388062
 21
73.027801215355794
 31
0.0
  0
LINE
  5
2D6
  8
0
 10
263.17579011388142
 20
82.52780121535568
 30
0.0
 11
263.17579011388131
 21
137.52780121535571
 31
0.0
  0
LINE
  5
2D7
  8
3
 10
264.52879011388143
 20
81.174801215355387
 30
0.0
 11
264.52879011388143
 21
137.52780121535571
 31
0.0
  0
LINE
  5
2D8
  8
0
 10
263.17579011388131
 20
70.527801215355794
 30
0.0
 11
265.67579011388068
 21
73.027801215355794
 31
0.0
  0
LINE
  5
2D9
  8
0
 10
263.17579011388131
 20
82.52780121535568
 30
0.0
 11
265.67579011388079
 21
80.027801215355794
 31
0.0
  0
LINE
  5
2DA
  8
0
 10
265.67579011388068
 20
73.027801215355893
 30
0.0
 11
265.67579011388079
 21
80.02780121535568
 31
0.0
1001
GENIUS_GENODEF_13
1002
{
1000
HIER
1070
     0
1002
}
1002
{
1000
MANEDIT
1070
     0
1002
}
1002
{
1000
NOSEL
1070
     0
1002
}
1002
{
1000
BEHIND
1070
     0
1002
}
1002
{
1000
OTHER
1070
     0
1002
}
1002
{
1000
REACTOR
1002
}
1001
GENIUS_GENOBJ-N-CEN_13
1002
{
1000
OWNER
1000
GEN
1002
}
  0
LINE
  5
2DB
  8
0
 10
323.17579011388062
 20
53.02780121535568
 30
0.0
 11
323.17579011388062
 21
51.02780121535568
 31
0.0
  0
ARC
  5
2DC
  8
0
 10
311.17579011388062
 20
53.02780121535568
 30
0.0
 40
12.0
 50
0.0
 51
90.0
1001
GENIUS_GENOBJ-N-FIL_13
1002
{
1000
OWNER
1000
GEN
1002
}
1001
GENIUS_GENODEF_13
1002
{
1000
HIER
1070
     0
1002
}
1002
{
1000
MANEDIT
1070
     0
1002
}
1002
{
1000
NOSEL
1070
     0
1002
}
1002
{
1000
BEHIND
1070
     0
1002
}
1002
{
1000
OTHER
1070
     0
1002
}
1002
{
1000
REACTOR
1002
}
  0
ARC
  5
2DD
  8
0
 10
273.17579011388079
 20
58.214092716371169
 30
0.0
 40
11.999999999999931
 50
39.016974918050863
 51
46.567463442211782
  0
LINE
  5
2DE
  8
0
 10
281.42579011388068
 20
66.928305245337924
 30
0.0
 11
283.17579011388068
 21
68.678305245337924
 31
0.0
  0
ARC
  5
2DF
  8
0
 10
284.0532228300562
 20
67.027801215355794
 30
0.0
 40
2.0
 50
219.01697491805089
 51
270.0
1001
GENIUS_GENOBJ-N-FIL_13
1002
{
1000
OWNER
1000
GEN
1002
}
1001
GENIUS_GENODEF_13
1002
{
1000
HIER
1070
     0
1002
}
1002
{
1000
MANEDIT
1070
     0
1002
}
1002
{
1000
NOSEL
1070
     0
1002
}
1002
{
1000
BEHIND
1070
     0
1002
}
1002
{
1000
OTHER
1070
     0
1002
}
1002
{
1000
REACTOR
1002
}
  0
LINE
  5
2E0
  8
1
 10
273.17579011388062
 20
35.027801215355787
 30
0.0
 11
273.17579011388142
 21
240.02780121535571
 31
0.0
1001
GENIUS_GENODEF_13
1002
{
1000
HIER
1070
     0
1002
}
1002
{
1000
MANEDIT
1070
     0
1002
}
1002
{
1000
NOSEL
1070
     0
1002
}
1002
{
1000
BEHIND
1070
     0
1002
}
1002
{
1000
OTHER
1070
     0
1002
}
1002
{
1000
REACTOR
1002
}
1001
GENIUS_GENOBJ-N-CEN_13
1002
{
1000
OWNER
1000
GEN
1002
}
  0
ARC
  5
2E1
  8
0
 10
273.17579011388062
 20
58.214092716371169
 30
0.0
 40
11.999999999999931
 50
133.4325365577883
 51
140.98302508194911
  0
LINE
  5
2E2
  8
0
 10
264.92579011388068
 20
66.928305245337924
 30
0.0
 11
263.17579011388068
 21
68.678305245337924
 31
0.0
  0
ARC
  5
2E3
  8
0
 10
262.2983573977051
 20
67.027801215355794
 30
0.0
 40
2.0
 50
270.0
 51
320.98302508194911
1001
GENIUS_GENOBJ-N-FIL_13
1002
{
1000
OWNER
1000
GEN
1002
}
1001
GENIUS_GENODEF_13
1002
{
1000
HIER
1070
     0
1002
}
1002
{
1000
MANEDIT
1070
     0
1002
}
1002
{
1000
NOSEL
1070
     0
1002
}
1002
{
1000
BEHIND
1070
     0
1002
}
1002
{
1000
OTHER
1070
     0
1002
}
1002
{
1000
REACTOR
1002
}
  0
LINE
  5
2E4
  8
0
 10
264.92579011388068
 20
66.928305245337924
 30
0.0
 11
281.42579011388068
 21
66.928305245337924
 31
0.0
  0
LINE
  5
2E5
  8
0
 10
263.17579011388068
 20
68.678305245337924
 30
0.0
 11
283.17579011388068
 21
68.678305245337924
 31
0.0
  0
LINE
  5
2E6
  8
0
 10
223.17579011388059
 20
53.027801215355566
 30
0.0
 11
223.17579011388059
 21
51.027801215355559
 31
0.0
  0
ARC
  5
2E7
  8
0
 10
235.17579011388059
 20
53.027801215355566
 30
0.0
 40
12.0
 50
90.0
 51
180.0
1001
GENIUS_GENOBJ-N-FIL_13
1002
{
1000
OWNER
1000
GEN
1002
}
1001
GENIUS_GENODEF_13
1002
{
1000
HIER
1070
     0
1002
}
1002
{
1000
MANEDIT
1070
     0
1002
}
1002
{
1000
NOSEL
1070
     0
1002
}
1002
{
1000
BEHIND
1070
     0
1002
}
1002
{
1000
OTHER
1070
     0
1002
}
1002
{
1000
REACTOR
1002
}
  0
LINE
  5
2E8
  8
0
 10
311.17579011388062
 20
65.02780121535568
 30
0.0
 11
235.17579011388059
 21
65.027801215355566
 31
0.0
  0
LINE
  5
2E9
  8
0
 10
223.17579011388059
 20
51.027801215355559
 30
0.0
 11
323.17579011388062
 21
51.027801215355559
 31
0.0
  0
LINE
  5
2EA
  8
0
 10
225.17579011388059
 20
45.027801215355566
 30
0.0
 11
321.17579011388062
 21
45.027801215355566
 31
0.0
  0
LINE
  5
2EB
  8
0
 10
263.17579011388131
 20
227.52780121535591
 30
0.0
 11
283.17579011388131
 21
227.52780121535559
 31
0.0
  0
LINE
  5
2EC
  8
0
 10
280.67579011388131
 20
230.02780121535571
 30
0.0
 11
283.17579011388131
 21
227.52780121535571
 31
0.0
  0
LINE
  5
2ED
  8
0
 10
263.17579011388131
 20
227.52780121535591
 30
0.0
 11
265.67579011388131
 21
230.02780121535591
 31
0.0
  0
LINE
  5
2EE
  8
0
 10
263.17579011388131
 20
68.678305245337128
 30
0.0
 11
263.17579011388131
 21
70.527801215356021
 31
0.0
  0
LINE
  5
2EF
  8
3
 10
264.52879011388143
 20
67.325305245337177
 30
0.0
 11
264.52879011388143
 21
71.880801215356314
 31
0.0
  0
LINE
  5
2F0
  8
3
 10
281.82279011388118
 20
67.325305245338541
 30
0.0
 11
281.82279011388118
 21
71.880801215355163
 31
0.0
  0
LINE
  5
2F1
  8
0
 10
283.17579011388131
 20
68.678305245338606
 30
0.0
 11
283.17579011388131
 21
70.527801215354771
 31
0.0
  0
LINE
  5
2F2
  8
0
 10
265.67579011388131
 20
230.02780121535591
 30
0.0
 11
280.67579011388131
 21
230.02780121535571
 31
0.0
  0
LINE
  5
2F3
  8
2
 10
278.17579011455899
 20
230.02780121535591
 30
0.0
 11
278.17579011455899
 21
220.02780121535579
 31
0.0
  0
LINE
  5
2F4
  8
2
 10
273.17579011388131
 20
230.02780121535591
 30
0.0
 11
273.17579011388131
 21
220.02780121535591
 31
0.0
  0
LINE
  5
2F5
  8
2
 10
268.17579011862989
 20
230.02780121535591
 30
0.0
 11
268.17579011862989
 21
220.02780121535579
 31
0.0
  0
LINE
  5
2F6
  8
2
 10
268.17579011862978
 20
220.02780121535579
 30
0.0
 11
278.17579011455888
 21
220.02780121535579
 31
0.0
  0
LINE
  5
2F7
  8
0
 10
283.17579011388131
 20
153.52780121535571
 30
0.0
 11
283.17579011388131
 21
227.52780121535571
 31
0.0
  0
LINE
  5
2F8
  8
3
 10
281.82279011388118
 20
153.52780121535579
 30
0.0
 11
281.82279011388118
 21
228.8808012153558
 31
0.0
  0
LINE
  5
2F9
  8
3
 10
264.52879011388143
 20
153.52780121535571
 30
0.0
 11
264.52879011388143
 21
228.88080121535589
 31
0.0
  0
LINE
  5
2FA
  8
0
 10
263.17579011388131
 20
153.52780121535579
 30
0.0
 11
263.17579011388131
 21
227.52780121535591
 31
0.0
  0
LINE
  5
2FB
  8
0
 10
223.67579011388059
 20
51.027801215355559
 30
0.0
 11
225.17579011388059
 21
45.027801215355566
 31
0.0
  0
LINE
  5
2FC
  8
0
 10
322.67579011388051
 20
51.027801215355559
 30
0.0
 11
321.17579011388051
 21
45.027801215355566
 31
0.0
  0
LINE
  5
2FD
  8
0
 10
152.67579011388051
 20
51.027801215355559
 30
0.0
 11
151.17579011388051
 21
45.027801215355566
 31
0.0
  0
LINE
  5
2FE
  8
0
 10
53.67579011388063
 20
51.027801215355559
 30
0.0
 11
55.175790113880588
 21
45.027801215355566
 31
0.0
  0
CIRCLE
  5
2FF
  8
0
 10
103.17579011388131
 20
350.02780121535579
 30
0.0
 40
38.049999999999429
  0
CIRCLE
  5
300
  8
3
 10
103.17579011388131
 20
350.02780121535579
 30
0.0
 40
8.6470000000000002
  0
CIRCLE
  5
301
  8
0
 10
103.17579011388131
 20
350.02780121535579
 30
0.0
 40
10.0
  0
LINE
  5
302
  8
0
 10
100.28903877028139
 20
355.02780121128308
 30
0.0
 11
106.0625414621768
 21
355.02780121128308
 31
0.0
  0
LINE
  5
303
  8
0
 10
106.0625414574811
 20
355.02780121127938
 30
0.0
 11
108.9492928034292
 21
350.02780121128308
 31
0.0
  0
LINE
  5
304
  8
0
 10
108.9492928010763
 20
350.02780121535397
 30
0.0
 11
106.06254145512909
 21
345.02780121535397
 31
0.0
  0
LINE
  5
305
  8
0
 10
106.06254145747739
 20
345.02780121942118
 30
0.0
 11
100.28903876558201
 21
345.02780121942118
 31
0.0
  0
LINE
  5
306
  8
0
 10
100.28903877028139
 20
345.02780121942118
 30
0.0
 11
97.402287424333295
 21
350.02780121942118
 31
0.0
  0
LINE
  5
307
  8
0
 10
97.402287426686144
 20
350.02780121535397
 30
0.0
 11
100.2890387726333
 21
355.02780121535397
 31
0.0
  0
LINE
  5
308
  8
0
 10
93.175790113881305
 20
153.52780121535579
 30
0.0
 11
93.175790113881305
 21
227.52780121535591
 31
0.0
  0
LINE
  5
309
  8
3
 10
94.528790113881371
 20
153.52780121535571
 30
0.0
 11
94.528790113881385
 21
228.88080121535589
 31
0.0
  0
LINE
  5
30A
  8
3
 10
111.8227901138812
 20
153.52780121535579
 30
0.0
 11
111.8227901138812
 21
228.8808012153558
 31
0.0
  0
LINE
  5
30B
  8
0
 10
113.17579011388131
 20
153.52780121535571
 30
0.0
 11
113.17579011388131
 21
227.52780121535571
 31
0.0
  0
LINE
  5
30C
  8
0
 10
88.175790113881362
 20
358.68805525320022
 30
0.0
 11
88.175790113881362
 21
341.36754717751143
 31
0.0
  0
LINE
  5
30D
  8
0
 10
88.175790113881362
 20
341.36754717751143
 30
0.0
 11
103.17579011388131
 21
332.70729313966689
 31
0.0
  0
LINE
  5
30E
  8
0
 10
103.17579011388131
 20
332.70729313966689
 30
0.0
 11
118.17579011388131
 21
341.3675471775116
 31
0.0
  0
LINE
  5
30F
  8
0
 10
118.17579011388131
 20
341.3675471775116
 30
0.0
 11
118.17579011388131
 21
358.68805525319999
 31
0.0
  0
LINE
  5
310
  8
0
 10
118.17579011388131
 20
358.68805525319999
 30
0.0
 11
103.1757901138816
 21
367.34830929104459
 31
0.0
  0
LINE
  5
311
  8
0
 10
103.1757901138816
 20
367.34830929104459
 30
0.0
 11
88.175790113881362
 21
358.68805525320022
 31
0.0
  0
CIRCLE
  5
312
  8
0
 10
103.17579011388131
 20
350.02780121535579
 30
0.0
 40
14.5
  0
LINE
  5
313
  8
0
 10
258.67579011388068
 20
153.52780121535591
 30
0.0
 11
255.85528203819209
 21
151.89938011860559
 31
0.0
  0
ARC
  5
314
  8
0
 10
260.1854090571145
 20
145.57165783548459
 30
0.0
 40
7.6674682452751783
 50
55.615752531991816
 51
115.6157525295452
  0
ARC
  5
315
  8
0
 10
260.1854090571145
 20
145.57165783548459
 30
0.0
 40
7.6674682452751783
 50
124.3842474680082
 51
124.3842474680082
  0
ARC
  5
316
  8
0
 10
273.17579011395412
 20
124.5788720433671
 30
0.0
 40
28.6602540373928
 50
72.412046225870796
 51
107.58795377443001
  0
ARC
  5
317
  8
0
 10
260.1854090571145
 20
145.48394459522649
 30
0.0
 40
7.6674682452751783
 50
235.61575253199169
 51
235.61575253199169
  0
ARC
  5
318
  8
0
 10
260.1854090571145
 20
145.48394459522649
 30
0.0
 40
7.6674682452751783
 50
244.3842474704548
 51
304.3842474680082
  0
LINE
  5
319
  8
0
 10
258.67579011388068
 20
137.5278012153552
 30
0.0
 11
255.85528203819209
 21
139.1562223121056
 31
0.0
  0
LINE
  5
31A
  8
0
 10
255.85528203819231
 20
151.89938011860539
 30
0.0
 11
255.85528203790849
 21
139.15622231226919
 31
0.0
  0
LINE
  5
31B
  8
0
 10
264.51553607603648
 20
139.15622231212899
 30
0.0
 11
264.51553607619041
 21
151.89938011860539
 31
0.0
  0
ARC
  5
31C
  8
0
 10
273.17579011395412
 20
166.47673038734371
 30
0.0
 40
28.6602540373928
 50
252.41204622557001
 51
287.58795377412918
  0
LINE
  5
31D
  8
0
 10
281.83604415172488
 20
139.15622231212899
 30
0.0
 11
281.83604415157089
 21
151.89938011860539
 31
0.0
  0
LINE
  5
31E
  8
0
 10
290.49629818956907
 20
151.89938011860539
 30
0.0
 11
290.49629818985278
 21
139.15622231226919
 31
0.0
  0
LINE
  5
31F
  8
0
 10
287.67579011388068
 20
137.5278012153552
 30
0.0
 11
290.4962981895693
 21
139.1562223121056
 31
0.0
  0
ARC
  5
320
  8
0
 10
286.16617117064692
 20
145.48394459522649
 30
0.0
 40
7.6674682452751783
 50
235.61575253199169
 51
295.6157525295452
  0
ARC
  5
321
  8
0
 10
286.16617117064692
 20
145.48394459522649
 30
0.0
 40
7.6674682452751783
 50
304.3842474680082
 51
304.3842474680082
  0
ARC
  5
322
  8
0
 10
286.16617117064692
 20
145.57165783548459
 30
0.0
 40
7.6674682452751783
 50
55.615752531991816
 51
55.615752531991816
  0
ARC
  5
323
  8
0
 10
286.16617117064692
 20
145.57165783548459
 30
0.0
 40
7.6674682452751783
 50
64.384247470454795
 51
124.3842474680082
  0
LINE
  5
324
  8
0
 10
287.67579011388068
 20
153.52780121535591
 30
0.0
 11
290.4962981895693
 21
151.89938011860559
 31
0.0
  0
LINE
  5
325
  8
0
 10
258.67579011388068
 20
153.52780121535591
 30
0.0
 11
287.67579011388142
 21
153.5278012153554
 31
0.0
  0
LINE
  5
326
  8
0
 10
287.67579011388119
 20
137.52780121535551
 30
0.0
 11
258.67579011388068
 21
137.5278012153552
 31
0.0
  0
ARC
  5
327
  8
0
 10
110.67579011388101
 20
131.5764673070918
 30
0.0
 40
21.662658773668529
 50
69.743841999596995
 51
110.256158000403
  0
LINE
  5
328
  8
0
 10
117.6757901138794
 20
153.52780121535571
 30
0.0
 11
118.17579011388079
 21
153.23912608076009
 31
0.0
  0
LINE
  5
329
  8
0
 10
117.6757901138794
 20
137.52780121535579
 30
0.0
 11
118.17579011388079
 21
137.81647634995119
 31
0.0
  0
ARC
  5
32A
  8
0
 10
110.67579011388101
 20
159.4791351236197
 30
0.0
 40
21.662658773668529
 50
249.74384199959701
 51
290.25615800040299
  0
LINE
  5
32B
  8
0
 10
118.17579011388101
 20
153.23912608076009
 30
0.0
 11
118.17579011388079
 21
137.81647634995119
 31
0.0
  0
LINE
  5
32C
  8
0
 10
88.175790113881035
 20
153.23912608076009
 30
0.0
 11
88.175790113881234
 21
137.81647634995119
 31
0.0
  0
ARC
  5
32D
  8
0
 10
95.675790113881035
 20
159.4791351236197
 30
0.0
 40
21.662658773668529
 50
249.74384199959701
 51
290.25615800040299
  0
LINE
  5
32E
  8
0
 10
88.675790113882613
 20
137.52780121535579
 30
0.0
 11
88.175790113881234
 21
137.81647634995119
 31
0.0
  0
LINE
  5
32F
  8
0
 10
88.675790113882627
 20
153.52780121535571
 30
0.0
 11
88.175790113881263
 21
153.23912608076009
 31
0.0
  0
ARC
  5
330
  8
0
 10
95.675790113881035
 20
131.5764673070918
 30
0.0
 40
21.662658773668529
 50
69.743841999596995
 51
110.256158000403
  0
LINE
  5
331
  8
0
 10
88.675790113882627
 20
153.52780121535579
 30
0.0
 11
117.6757901138794
 21
153.52780121535579
 31
0.0
  0
LINE
  5
332
  8
0
 10
117.67579011388101
 20
137.52780121535579
 30
0.0
 11
88.675790113882613
 21
137.52780121535579
 31
0.0
  0
LINE
  5
333
  8
0
 10
103.17579011388101
 20
151.89938011860571
 30
0.0
 11
103.17579011388101
 21
139.15622231210111
 31
0.0
  0
LINE
  5
334
  8
2
 10
97.402287426685078
 20
220.02780121535579
 30
0.0
 11
108.9492928010777
 21
220.02780121535591
 31
0.0
  0
LINE
  5
335
  8
2
 10
97.402287426685078
 20
230.02780121535591
 30
0.0
 11
97.402287426685078
 21
220.02780121535579
 31
0.0
  0
LINE
  5
336
  8
2
 10
100.2890387702835
 20
230.02780121535579
 30
0.0
 11
100.2890387702835
 21
220.02780121535579
 31
0.0
  0
LINE
  5
337
  8
2
 10
97.402287426685078
 20
220.02780121535579
 30
0.0
 11
103.17579011388131
 21
216.69446788473601
 31
0.0
  0
LINE
  5
338
  8
2
 10
106.0625414574791
 20
230.02780121535579
 30
0.0
 11
106.0625414574791
 21
220.02780121535579
 31
0.0
  0
LINE
  5
339
  8
2
 10
108.9492928010775
 20
230.02780121535591
 30
0.0
 11
108.9492928010775
 21
220.02780121535579
 31
0.0
  0
LINE
  5
33A
  8
2
 10
108.9492928010775
 20
220.02780121535579
 30
0.0
 11
103.17579011388131
 21
216.69446788473601
 31
0.0
  0
LINE
  5
33B
  8
0
 10
95.675790113881305
 20
230.02780121535591
 30
0.0
 11
110.67579011388131
 21
230.02780121535571
 31
0.0
  0
LINE
  5
33C
  8
0
 10
113.17579011388131
 20
68.678305245338606
 30
0.0
 11
113.17579011388131
 21
137.52780121535571
 31
0.0
  0
LINE
  5
33D
  8
3
 10
111.8227901138812
 20
67.325305245338541
 30
0.0
 11
111.8227901138812
 21
137.52780121535579
 31
0.0
  0
LINE
  5
33E
  8
3
 10
94.528790113881371
 20
67.325305245337177
 30
0.0
 11
94.528790113881371
 21
137.52780121535571
 31
0.0
  0
LINE
  5
33F
  8
0
 10
93.175790113881305
 20
68.678305245337128
 30
0.0
 11
93.175790113881305
 21
137.52780121535571
 31
0.0
  0
LINE
  5
340
  8
0
 10
93.175790113881305
 20
227.52780121535591
 30
0.0
 11
95.675790113881305
 21
230.02780121535591
 31
0.0
  0
LINE
  5
341
  8
0
 10
110.67579011388131
 20
230.02780121535571
 30
0.0
 11
113.17579011388131
 21
227.52780121535571
 31
0.0
  0
LINE
  5
342
  8
0
 10
93.175790113881305
 20
227.52780121535591
 30
0.0
 11
113.17579011388131
 21
227.52780121535559
 31
0.0
  0
CIRCLE
  5
343
  8
0
 10
103.17579011388131
 20
350.02780121535579
 30
0.0
 40
50.0
  0
LINE
  5
344
  8
1
 10
103.17579011388131
 20
290.02780121535568
 30
0.0
 11
103.17579011388131
 21
410.02780121535568
 31
0.0
1001
GENIUS_GENOREF_13
1005
0
  0
LINE
  5
345
  8
1
 10
43.175790113881362
 20
350.02780121535579
 30
0.0
 11
163.17579011388131
 21
350.02780121535579
 31
0.0
1001
GENIUS_GENOREF_13
1005
0
  0
LINE
  5
346
  8
0
 10
55.175790113880588
 20
45.027801215355566
 30
0.0
 11
151.17579011388051
 21
45.027801215355566
 31
0.0
  0
LINE
  5
347
  8
0
 10
53.175790113880623
 20
51.027801215355559
 30
0.0
 11
153.17579011388059
 21
51.027801215355559
 31
0.0
  0
LINE
  5
348
  8
0
 10
141.17579011388059
 20
65.02780121535568
 30
0.0
 11
65.175790113880566
 21
65.027801215355566
 31
0.0
  0
ARC
  5
349
  8
0
 10
65.175790113880566
 20
53.027801215355566
 30
0.0
 40
12.0
 50
90.0
 51
180.0
1001
GENIUS_GENOBJ-N-FIL_13
1002
{
1000
OWNER
1000
GEN
1002
}
1001
GENIUS_GENODEF_13
1002
{
1000
HIER
1070
     0
1002
}
1002
{
1000
MANEDIT
1070
     0
1002
}
1002
{
1000
NOSEL
1070
     0
1002
}
1002
{
1000
BEHIND
1070
     0
1002
}
1002
{
1000
OTHER
1070
     0
1002
}
1002
{
1000
REACTOR
1002
}
  0
LINE
  5
34A
  8
0
 10
53.175790113880623
 20
53.027801215355566
 30
0.0
 11
53.175790113880623
 21
51.027801215355559
 31
0.0
  0
LINE
  5
34B
  8
0
 10
109.7901683915415
 20
80.027801215356249
 30
0.0
 11
109.7901683915422
 21
73.027801215355794
 31
0.0
  0
LINE
  5
34C
  8
0
 10
110.67579011388079
 20
73.913422937694122
 30
0.0
 11
109.7901683915423
 21
73.027801215355794
 31
0.0
  0
LINE
  5
34D
  8
0
 10
95.675790113880552
 20
73.913422937694122
 30
0.0
 11
96.561411836219222
 21
73.027801215355794
 31
0.0
  0
LINE
  5
34E
  8
0
 10
96.561411836219335
 20
73.027801215355794
 30
0.0
 11
96.561411836220017
 21
80.027801215356249
 31
0.0
  0
LINE
  5
34F
  8
0
 10
93.175790113880666
 20
68.678305245337924
 30
0.0
 11
113.17579011388059
 21
68.678305245337924
 31
0.0
  0
LINE
  5
350
  8
0
 10
109.7901683915422
 20
73.027801215355794
 30
0.0
 11
96.561411836219335
 21
73.027801215355794
 31
0.0
  0
ARC
  5
351
  8
0
 10
103.17579011388059
 20
80.527801215355794
 30
0.0
 40
10.00000000000003
 50
228.5903778907298
 51
311.4096221092704
  0
LINE
  5
352
  8
0
 10
94.92579011388068
 20
66.928305245337924
 30
0.0
 11
111.42579011388059
 21
66.928305245337924
 31
0.0
  0
ARC
  5
353
  8
0
 10
92.298357397705104
 20
67.027801215355794
 30
0.0
 40
2.0
 50
270.0
 51
320.98302508194911
1001
GENIUS_GENOBJ-N-FIL_13
1002
{
1000
OWNER
1000
GEN
1002
}
1001
GENIUS_GENODEF_13
1002
{
1000
HIER
1070
     0
1002
}
1002
{
1000
MANEDIT
1070
     0
1002
}
1002
{
1000
NOSEL
1070
     0
1002
}
1002
{
1000
BEHIND
1070
     0
1002
}
1002
{
1000
OTHER
1070
     0
1002
}
1002
{
1000
REACTOR
1002
}
  0
LINE
  5
354
  8
0
 10
94.92579011388068
 20
66.928305245337924
 30
0.0
 11
93.175790113880666
 21
68.678305245337924
 31
0.0
  0
ARC
  5
355
  8
0
 10
103.1757901138805
 20
58.214092716371169
 30
0.0
 40
11.999999999999931
 50
133.4325365577883
 51
140.98302508194911
  0
LINE
  5
356
  8
1
 10
103.1757901138805
 20
35.027801215355787
 30
0.0
 11
103.17579011388131
 21
240.02780121535571
 31
0.0
1001
GENIUS_GENODEF_13
1002
{
1000
HIER
1070
     0
1002
}
1002
{
1000
MANEDIT
1070
     0
1002
}
1002
{
1000
NOSEL
1070
     0
1002
}
1002
{
1000
BEHIND
1070
     0
1002
}
1002
{
1000
OTHER
1070
     0
1002
}
1002
{
1000
REACTOR
1002
}
1001
GENIUS_GENOBJ-N-CEN_13
1002
{
1000
OWNER
1000
GEN
1002
}
  0
ARC
  5
357
  8
0
 10
114.0532228300562
 20
67.027801215355794
 30
0.0
 40
2.0
 50
219.01697491805089
 51
270.0
1001
GENIUS_GENOBJ-N-FIL_13
1002
{
1000
OWNER
1000
GEN
1002
}
1001
GENIUS_GENODEF_13
1002
{
1000
HIER
1070
     0
1002
}
1002
{
1000
MANEDIT
1070
     0
1002
}
1002
{
1000
NOSEL
1070
     0
1002
}
1002
{
1000
BEHIND
1070
     0
1002
}
1002
{
1000
OTHER
1070
     0
1002
}
1002
{
1000
REACTOR
1002
}
  0
LINE
  5
358
  8
0
 10
111.42579011388059
 20
66.928305245337924
 30
0.0
 11
113.17579011388069
 21
68.678305245337924
 31
0.0
  0
ARC
  5
359
  8
0
 10
103.17579011388079
 20
58.214092716371169
 30
0.0
 40
11.999999999999931
 50
39.016974918050863
 51
46.567463442211782
  0
LINE
  5
35A
  8
0
 10
96.561411836219335
 20
80.027801215355794
 30
0.0
 11
109.7901683915422
 21
80.027801215355794
 31
0.0
  0
ARC
  5
35B
  8
0
 10
103.17579011388059
 20
72.527801215355794
 30
0.0
 40
9.9999999999999112
 50
48.590377890729648
 51
131.4096221092702
  0
LINE
  5
35C
  8
0
 10
95.675790113880552
 20
79.142179493017011
 30
0.0
 11
95.675790113880552
 21
73.913422937694122
 31
0.0
  0
LINE
  5
35D
  8
0
 10
96.561411836219335
 20
80.027801215355566
 30
0.0
 11
95.675790113880552
 21
79.142179493017011
 31
0.0
  0
LINE
  5
35E
  8
0
 10
109.7901683915422
 20
80.027801215355566
 30
0.0
 11
110.67579011388079
 21
79.142179493017011
 31
0.0
  0
LINE
  5
35F
  8
0
 10
110.67579011388079
 20
79.142179493017011
 30
0.0
 11
110.67579011388079
 21
73.913422937694122
 31
0.0
  0
ARC
  5
360
  8
0
 10
141.17579011388059
 20
53.02780121535568
 30
0.0
 40
12.0
 50
0.0
 51
90.0
1001
GENIUS_GENOBJ-N-FIL_13
1002
{
1000
OWNER
1000
GEN
1002
}
1001
GENIUS_GENODEF_13
1002
{
1000
HIER
1070
     0
1002
}
1002
{
1000
MANEDIT
1070
     0
1002
}
1002
{
1000
NOSEL
1070
     0
1002
}
1002
{
1000
BEHIND
1070
     0
1002
}
1002
{
1000
OTHER
1070
     0
1002
}
1002
{
1000
REACTOR
1002
}
  0
LINE
  5
361
  8
0
 10
153.17579011388059
 20
53.02780121535568
 30
0.0
 11
153.17579011388059
 21
51.02780121535568
 31
0.0
  0
TEXT
  5
492
  8
0
 62
     3
 10
0.0
 20
0.0
 30
0.0
 40
10.0
  1
LMR100-20B-SUS
  7
STANDARD1
  0
ENDSEC
  0
EOF
