  0
SECTION
  2
HEADER
  9
$ACADVER
  1
AC1009
  9
$INSBASE
 10
0.0
 20
0.0
 30
0.0
  9
$EXTMIN
 10
0.0
 20
-2.960436562073669
 30
0.0
  9
$EXTMAX
 10
284.02390800000001
 20
248.022482
 30
0.0
  9
$LIMMIN
 10
0.0
 20
0.0
  9
$LIMMAX
 10
390.0
 20
270.0
  9
$ORTHOMODE
 70
     1
  9
$REGENMODE
 70
     1
  9
$FILLMODE
 70
     1
  9
$QTEXTMODE
 70
     0
  9
$MIRRTEXT
 70
     0
  9
$DRAGMODE
 70
     2
  9
$LTSCALE
 40
10.0
  9
$OSMODE
 70
  3071
  9
$ATTMODE
 70
     1
  9
$TEXTSIZE
 40
5.0
  9
$TRACEWID
 40
0.05
  9
$TEXTSTYLE
  7
STANDARD
  9
$CLAYER
  8
0
  9
$CELTYPE
  6
BYLAYER
  9
$CECOLOR
 62
   256
  9
$DIMSCALE
 40
1.0
  9
$DIMASZ
 40
3.0
  9
$DIMEXO
 40
2.0
  9
$DIMDLI
 40
0.38
  9
$DIMRND
 40
0.0
  9
$DIMDLE
 40
0.0
  9
$DIMEXE
 40
2.0
  9
$DIMTP
 40
0.0
  9
$DIMTM
 40
0.0
  9
$DIMTXT
 40
3.0
  9
$DIMCEN
 40
0.0
  9
$DIMTSZ
 40
0.0
  9
$DIMTOL
 70
     0
  9
$DIMLIM
 70
     0
  9
$DIMTIH
 70
     0
  9
$DIMTOH
 70
     0
  9
$DIMSE1
 70
     0
  9
$DIMSE2
 70
     0
  9
$DIMTAD
 70
     1
  9
$DIMZIN
 70
     0
  9
$DIMBLK
  1

  9
$DIMASO
 70
     0
  9
$DIMSHO
 70
     0
  9
$DIMPOST
  1

  9
$DIMAPOST
  1

  9
$DIMALT
 70
     0
  9
$DIMALTD
 70
     2
  9
$DIMALTF
 40
25.399999999999999
  9
$DIMLFAC
 40
1.0
  9
$DIMTOFL
 70
     1
  9
$DIMTVP
 40
1.6000000000000001
  9
$DIMTIX
 70
     1
  9
$DIMSOXD
 70
     0
  9
$DIMSAH
 70
     0
  9
$DIMBLK1
  1

  9
$DIMBLK2
  1

  9
$DIMSTYLE
  2
STANDARD
  9
$DIMCLRD
 70
     0
  9
$DIMCLRE
 70
     0
  9
$DIMCLRT
 70
     0
  9
$DIMTFAC
 40
1.0
  9
$DIMGAP
 40
0.09
  9
$LUNITS
 70
     2
  9
$LUPREC
 70
     4
  9
$SKETCHINC
 40
0.1
  9
$FILLETRAD
 40
0.0
  9
$AUNITS
 70
     0
  9
$AUPREC
 70
     4
  9
$MENU
  1
E:\r13\win\SUPPORT\ACAD
  9
$ELEVATION
 40
0.0
  9
$PELEVATION
 40
0.0
  9
$THICKNESS
 40
0.0
  9
$LIMCHECK
 70
     0
  9
$BLIPMODE
 70
     0
  9
$CHAMFERA
 40
0.0
  9
$CHAMFERB
 40
0.0
  9
$SKPOLY
 70
     0
  9
$TDCREATE
 40
2449840.65193287
  9
$TDUPDATE
 40
2456597.5879860069
  9
$TDINDWG
 40
0.000093669
  9
$TDUSRTIMER
 40
0.000093669
  9
$USRTIMER
 70
     1
  9
$ANGBASE
 50
0.0
  9
$ANGDIR
 70
     0
  9
$PDMODE
 70
     0
  9
$PDSIZE
 40
0.0
  9
$PLINEWID
 40
0.0
  9
$COORDS
 70
     1
  9
$SPLFRAME
 70
     0
  9
$SPLINETYPE
 70
     6
  9
$SPLINESEGS
 70
     8
  9
$ATTDIA
 70
     0
  9
$ATTREQ
 70
     1
  9
$HANDLING
 70
     1
  9
$HANDSEED
  5
24D
  9
$SURFTAB1
 70
     6
  9
$SURFTAB2
 70
     6
  9
$SURFTYPE
 70
     6
  9
$SURFU
 70
     6
  9
$SURFV
 70
     6
  9
$UCSNAME
  2

  9
$UCSORG
 10
0.0
 20
0.0
 30
0.0
  9
$UCSXDIR
 10
1.0
 20
0.0
 30
0.0
  9
$UCSYDIR
 10
0.0
 20
1.0
 30
0.0
  9
$PUCSNAME
  2

  9
$PUCSORG
 10
0.0
 20
0.0
 30
0.0
  9
$PUCSXDIR
 10
1.0
 20
0.0
 30
0.0
  9
$PUCSYDIR
 10
0.0
 20
1.0
 30
0.0
  9
$USERI1
 70
     3
  9
$USERI2
 70
     1
  9
$USERI3
 70
     0
  9
$USERI4
 70
     0
  9
$USERI5
 70
     0
  9
$USERR1
 40
1.0
  9
$USERR2
 40
3.0
  9
$USERR3
 40
3.0
  9
$USERR4
 40
3.0
  9
$USERR5
 40
10.0
  9
$WORLDVIEW
 70
     1
  9
$SHADEDGE
 70
     3
  9
$SHADEDIF
 70
    70
  9
$TILEMODE
 70
     1
  9
$MAXACTVP
 70
    16
  9
$PLIMCHECK
 70
     0
  9
$PEXTMIN
 10
1.0000000000000000E+020
 20
1.0000000000000000E+020
 30
1.0000000000000000E+020
  9
$PEXTMAX
 10
-1.0000000000000000E+020
 20
-1.0000000000000000E+020
 30
-1.0000000000000000E+020
  9
$PLIMMIN
 10
0.0
 20
0.0
  9
$PLIMMAX
 10
12.0
 20
9.0
  9
$UNITMODE
 70
     0
  9
$VISRETAIN
 70
     0
  9
$PLINEGEN
 70
     0
  9
$PSLTSCALE
 70
     0
  0
ENDSEC
  0
SECTION
  2
TABLES
  0
TABLE
  2
VPORT
 70
     1
  0
VPORT
  2
*ACTIVE
 70
     0
 10
0.0
 20
0.0
 11
1.0
 21
1.0
 12
194.99404952627839
 22
134.10366293909439
 13
0.0
 23
0.0
 14
10.0
 24
10.0
 15
10.0
 25
10.0
 16
0.0
 26
0.0
 36
1.0
 17
0.0
 27
0.0
 37
0.0
 40
277.29405978699532
 41
2.304913294797688
 42
50.0
 43
0.0
 44
0.0
 50
0.0
 51
0.0
 71
     0
 72
   100
 73
     1
 74
     0
 75
     0
 76
     0
 77
     0
 78
     0
  0
ENDTAB
  0
TABLE
  2
LTYPE
 70
     3
  0
LTYPE
  2
CONTINUOUS
 70
     0
  3
Solid Line
 72
    65
 73
     0
 40
0.0
  0
LTYPE
  2
CENTER
 70
     0
  3
____ _ ____ _ ____ _ ____ _ ____ _ ____ _ ____
 72
    65
 73
     4
 40
2.0
 49
1.25
 49
-0.25
 49
0.25
 49
-0.25
  0
LTYPE
  2
PHANTOM2
 70
     0
  3
___ _ _ ___ _ _ ___ _ _ ___ _ _
 72
    65
 73
     6
 40
1.25
 49
0.625
 49
-0.125
 49
0.125
 49
-0.125
 49
0.125
 49
-0.125
  0
ENDTAB
  0
TABLE
  2
LAYER
 70
     5
  0
LAYER
  2
0
 70
     0
 62
     7
  6
CONTINUOUS
  0
LAYER
  2
1
 70
     0
 62
     1
  6
CENTER
  0
LAYER
  2
3
 70
     0
 62
     3
  6
CONTINUOUS
  0
LAYER
  2
ITEM_50
 70
     0
 62
     7
  6
CONTINUOUS
  0
LAYER
  2
ITEM_25
 70
     0
 62
     3
  6
CONTINUOUS
  0
ENDTAB
  0
TABLE
  2
STYLE
 70
     2
  0
STYLE
  2
STANDARD
 70
     0
 40
0.0
 41
1.0
 50
0.0
 71
     0
 42
5.0
  3
TXT
  4
BIGFONT
  0
STYLE
  2
STANDARD1
 70
     0
 40
0.0
 41
1.0
 50
0.0
 71
     0
 42
3.0
  3
txt
  4

  0
ENDTAB
  0
TABLE
  2
VIEW
 70
     1
  0
VIEW
  2
ALL
 70
     0
 40
270.0
 10
220.99159700000001
 20
135.0
 41
0.0
 11
0.0
 21
0.0
 31
1.0
 12
0.0
 22
0.0
 32
0.0
 42
0.0
 43
0.0
 44
0.0
 50
0.0
 71
     0
  0
ENDTAB
  0
TABLE
  2
UCS
 70
     0
  0
ENDTAB
  0
TABLE
  2
APPID
 70
     3
  0
APPID
  2
ACAD
 70
     0
  0
APPID
  2
ACAD_MLEADERVER
 70
     0
  0
APPID
  2
ACAD_NAV_VCDISPLAY
 70
     0
  0
ENDTAB
  0
TABLE
  2
DIMSTYLE
 70
     1
  0
DIMSTYLE
  2
STANDARD
 70
     0
  3

  4

  5

  6

  7

 40
1.0
 41
0.18
 42
0.0625
 43
0.38
 44
0.18
 45
0.0
 46
0.0
 47
0.0
 48
0.0
140
0.18
141
0.09
142
0.0
143
25.399999999999999
144
1.0
145
0.0
146
1.0
147
0.09
 71
     0
 72
     0
 73
     1
 74
     1
 75
     0
 76
     0
 77
     0
 78
     0
170
     0
171
     2
172
     0
173
     0
174
     0
175
     0
176
     0
177
     0
178
     0
  0
ENDTAB
  0
ENDSEC
  0
SECTION
  2
BLOCKS
  0
BLOCK
  8
0
  2
$MODEL_SPACE
 70
     0
 10
0.0
 20
0.0
 30
0.0
  3
$MODEL_SPACE
  1

  0
ENDBLK
  5
FD
  8
0
  0
BLOCK
 67
     1
  8
0
  2
$PAPER_SPACE
 70
     0
 10
0.0
 20
0.0
 30
0.0
  3
$PAPER_SPACE
  1

  0
ENDBLK
  5
FB
 67
     1
  8
0
  0
BLOCK
  8
0
  2
STDGX5
 70
     0
 10
0.0
 20
0.0
 30
0.0
  3
STDGX5
  1

  0
ENDBLK
  5
3F
  8
0
  0
ENDSEC
  0
SECTION
  2
ENTITIES
  0
LINE
  5
40
  8
0
 10
279.02390800000001
 20
136.156475
 30
0.0
 11
279.02390800000001
 21
60.156475
 31
0.0
  0
LINE
  5
41
  8
0
 10
179.02390800000001
 20
102.156475
 30
0.0
 11
179.02390800000001
 21
94.156475
 31
0.0
  0
LINE
  5
42
  8
0
 10
181.02390800000001
 20
104.156475
 30
0.0
 11
179.02390800000001
 21
102.156475
 31
0.0
  0
LINE
  5
43
  8
0
 10
179.02390800000001
 20
94.156475
 30
0.0
 11
181.02390800000001
 21
92.156475000000015
 31
0.0
  0
LINE
  5
44
  8
0
 10
181.02390800000001
 20
92.156475000000015
 30
0.0
 11
181.02390800000001
 21
104.156475
 31
0.0
  0
CIRCLE
  5
45
  8
0
 10
96.803088000000002
 20
98.156475
 30
0.0
 40
38.0
  0
LINE
  5
46
  8
0
 10
91.318259999999995
 20
88.656474999999986
 30
0.0
 11
102.287916
 21
88.656474999999986
 31
0.0
  0
CIRCLE
  5
47
  8
0
 10
96.803088000000002
 20
98.156475
 30
0.0
 40
9.0
  0
CIRCLE
  5
48
  8
0
 10
96.803088000000002
 20
98.156475
 30
0.0
 40
6.0
  0
CIRCLE
  5
49
  8
3
 10
96.803088000000002
 20
98.156475
 30
0.0
 40
5.052999999999999
  0
LINE
  5
4A
  8
0
 10
102.287916
 20
88.656474999999986
 30
0.0
 11
107.77274300000001
 21
98.156475
 31
0.0
  0
LINE
  5
4B
  8
0
 10
107.77274300000001
 20
98.156475
 30
0.0
 11
102.287916
 21
107.656475
 31
0.0
  0
LINE
  5
4C
  8
0
 10
102.287916
 20
107.656475
 30
0.0
 11
91.318259999999995
 21
107.656475
 31
0.0
  0
LINE
  5
4D
  8
0
 10
91.318259999999995
 20
107.656475
 30
0.0
 11
85.833433000000014
 21
98.156475
 31
0.0
  0
LINE
  5
4E
  8
0
 10
85.833433000000014
 20
98.156475
 30
0.0
 11
91.318259999999995
 21
88.656474999999986
 31
0.0
  0
CIRCLE
  5
4F
  8
0
 10
96.803088000000002
 20
98.156475
 30
0.0
 40
22.5
  0
LINE
  5
50
  8
3
 10
229.02390800000001
 20
103.209475
 30
0.0
 11
180.076908
 21
103.209475
 31
0.0
  0
LINE
  5
51
  8
0
 10
229.02390800000001
 20
104.156475
 30
0.0
 11
181.02390800000001
 21
104.156475
 31
0.0
  0
LINE
  5
52
  8
0
 10
229.02390800000001
 20
92.156475000000015
 30
0.0
 11
181.02390800000001
 21
92.156475000000015
 31
0.0
  0
LINE
  5
53
  8
3
 10
229.02390800000001
 20
93.103475000000003
 30
0.0
 11
180.076908
 21
93.103475000000003
 31
0.0
  0
LINE
  5
54
  8
1
 10
174.02390800000001
 20
98.156475
 30
0.0
 11
284.02390800000001
 21
98.156475
 31
0.0
  0
LINE
  5
55
  8
1
 10
139.803088
 20
98.156475
 30
0.0
 11
53.803088000000002
 21
98.156475
 31
0.0
  0
LINE
  5
56
  8
1
 10
96.803088000000002
 20
141.156475
 30
0.0
 11
96.803088000000002
 21
55.156475
 31
0.0
  0
LINE
  5
57
  8
1
 10
174.02390800000001
 20
210.022482
 30
0.0
 11
284.02390800000001
 21
210.022482
 31
0.0
  0
CIRCLE
  5
61
  8
0
 10
96.803088000000002
 20
98.156475
 30
0.0
 40
12.5
  0
CIRCLE
  5
62
  8
0
 10
96.803088000000002
 20
98.156475
 30
0.0
 40
12.0
  0
CIRCLE
  5
63
  8
0
 10
96.803088000000002
 20
98.156475
 30
0.0
 40
13.915787999999999
  0
INSERT
  5
64
  8
0
  2
STDGX5
 10
0.0
 20
0.0
 30
0.0
  0
LINE
  5
65
  8
ITEM_50
 10
239.02390800000001
 20
92.156475000000015
 30
0.0
 11
252.02390800000001
 21
92.156475000000015
 31
0.0
  0
LINE
  5
66
  8
ITEM_50
 10
239.02390800000001
 20
104.156475
 30
0.0
 11
252.02390800000001
 21
104.156475
 31
0.0
  0
LINE
  5
67
  8
ITEM_25
 10
239.02390800000001
 20
93.056475000000006
 30
0.0
 11
252.02390800000001
 21
93.056475000000006
 31
0.0
  0
LINE
  5
68
  8
ITEM_25
 10
239.02390800000001
 20
103.25647499999999
 30
0.0
 11
252.02390800000001
 21
103.25647499999999
 31
0.0
  0
ARC
  5
69
  8
ITEM_50
 10
233.31955199999999
 20
90.243975000000006
 30
0.0
 40
4.2956440000000002
 50
180.0
 51
217.87886399999999
  0
LINE
  5
6A
  8
ITEM_50
 10
229.02390800000001
 20
98.156475
 30
0.0
 11
229.02390800000001
 21
90.243975000000006
 31
0.0
  0
LINE
  5
6B
  8
ITEM_50
 10
229.02390800000001
 20
106.06897499999999
 30
0.0
 11
229.02390800000001
 21
98.156475
 31
0.0
  0
ARC
  5
6C
  8
ITEM_50
 10
233.31955199999999
 20
106.06897499999999
 30
0.0
 40
4.2956440000000002
 50
142.12113600000001
 51
180.0
  0
LINE
  5
6D
  8
ITEM_50
 10
238.11886200000001
 20
108.706475
 30
0.0
 11
229.928955
 21
108.706475
 31
0.0
  0
ARC
  5
6E
  8
ITEM_50
 10
234.728264
 20
106.06897499999999
 30
0.0
 40
4.2956440000000002
 50
360.0
 51
37.878864
  0
LINE
  5
6F
  8
ITEM_50
 10
239.02390800000001
 20
98.156475
 30
0.0
 11
239.02390800000001
 21
106.06897499999999
 31
0.0
  0
LINE
  5
70
  8
ITEM_50
 10
239.02390800000001
 20
90.243975000000006
 30
0.0
 11
239.02390800000001
 21
98.156475
 31
0.0
  0
ARC
  5
71
  8
ITEM_50
 10
234.728264
 20
90.243975000000006
 30
0.0
 40
4.2956440000000002
 50
322.12113599999998
 51
0.0
  0
LINE
  5
72
  8
ITEM_50
 10
229.928955
 20
87.606475000000003
 30
0.0
 11
238.11886200000001
 21
87.606475000000003
 31
0.0
  0
LINE
  5
73
  8
ITEM_50
 10
238.11886200000001
 20
92.881474999999995
 30
0.0
 11
229.928955
 21
92.881474999999995
 31
0.0
  0
LINE
  5
74
  8
ITEM_50
 10
238.11886200000001
 20
103.43147500000001
 30
0.0
 11
229.928955
 21
103.43147500000001
 31
0.0
  0
ARC
  5
75
  8
ITEM_50
 10
233.31955199999999
 20
90.243975000000006
 30
0.0
 40
4.2956440000000002
 50
142.12113600000001
 51
180.0
  0
ARC
  5
76
  8
ITEM_50
 10
244.84891500000001
 20
98.156475
 30
0.0
 40
15.825006999999999
 50
160.52878799999999
 51
199.47121200000001
  0
ARC
  5
77
  8
ITEM_50
 10
233.31955199999999
 20
106.06897499999999
 30
0.0
 40
4.2956440000000002
 50
180.0
 51
217.87886399999999
  0
ARC
  5
78
  8
ITEM_50
 10
234.728264
 20
90.243975000000006
 30
0.0
 40
4.2956440000000002
 50
360.0
 51
37.878864
  0
ARC
  5
79
  8
ITEM_50
 10
223.198902
 20
98.156475
 30
0.0
 40
15.825006999999999
 50
340.52878799999991
 51
19.471212000000001
  0
ARC
  5
7A
  8
ITEM_50
 10
234.728264
 20
106.06897499999999
 30
0.0
 40
4.2956440000000002
 50
322.12113599999998
 51
360.0
  0
ARC
  5
7B
  8
ITEM_50
 10
256.31955199999999
 20
90.243975000000006
 30
0.0
 40
4.2956440000000002
 50
180.0
 51
217.87886399999999
  0
LINE
  5
7C
  8
ITEM_50
 10
252.02390800000001
 20
98.156475
 30
0.0
 11
252.02390800000001
 21
90.243975000000006
 31
0.0
  0
LINE
  5
7D
  8
ITEM_50
 10
252.02390800000001
 20
106.06897499999999
 30
0.0
 11
252.02390800000001
 21
98.156475
 31
0.0
  0
ARC
  5
7E
  8
ITEM_50
 10
256.31955199999999
 20
106.06897499999999
 30
0.0
 40
4.2956440000000002
 50
142.12113600000001
 51
180.0
  0
LINE
  5
7F
  8
ITEM_50
 10
259.02390800000001
 20
108.706475
 30
0.0
 11
252.928955
 21
108.706475
 31
0.0
  0
LINE
  5
80
  8
ITEM_50
 10
252.928955
 20
87.606475000000003
 30
0.0
 11
259.02390800000001
 21
87.606475000000003
 31
0.0
  0
LINE
  5
81
  8
ITEM_50
 10
259.02390800000001
 20
92.881474999999995
 30
0.0
 11
252.928955
 21
92.881474999999995
 31
0.0
  0
LINE
  5
82
  8
ITEM_50
 10
259.02390800000001
 20
103.43147500000001
 30
0.0
 11
252.928955
 21
103.43147500000001
 31
0.0
  0
ARC
  5
83
  8
ITEM_50
 10
256.31955199999999
 20
90.243975000000006
 30
0.0
 40
4.2956440000000002
 50
142.12113600000001
 51
180.0
  0
ARC
  5
84
  8
ITEM_50
 10
267.84891499999998
 20
98.156475
 30
0.0
 40
15.825006999999999
 50
160.52878799999999
 51
199.47121200000001
  0
ARC
  5
85
  8
ITEM_50
 10
256.31955199999999
 20
106.06897499999999
 30
0.0
 40
4.2956440000000002
 50
180.0
 51
217.87886399999999
  0
ARC
  5
86
  8
ITEM_50
 10
275.68076300000001
 20
132.156475
 30
0.0
 40
4.0
 50
90.0
 51
135.0
  0
ARC
  5
87
  8
ITEM_50
 10
263.02390800000001
 20
119.499621
 30
0.0
 40
4.0
 50
135.0
 51
180.0
  0
ARC
  5
88
  8
ITEM_50
 10
263.02390800000001
 20
76.81332900000001
 30
0.0
 40
4.0
 50
180.0
 51
225.0
  0
ARC
  5
89
  8
ITEM_50
 10
275.68076300000001
 20
64.156475
 30
0.0
 40
4.0
 50
225.0
 51
270.0
  0
LINE
  5
8A
  8
ITEM_25
 10
274.02390800000001
 20
64.156475
 30
0.0
 11
274.02390800000001
 21
132.156475
 31
0.0
  0
LINE
  5
8B
  8
ITEM_50
 10
275.68076300000001
 20
136.156475
 30
0.0
 11
279.02390800000001
 21
136.156475
 31
0.0
  0
LINE
  5
8C
  8
ITEM_50
 10
260.19548099999997
 20
122.328048
 30
0.0
 11
272.85233499999998
 21
134.98490200000001
 31
0.0
  0
LINE
  5
8D
  8
ITEM_50
 10
259.02390800000001
 20
76.81332900000001
 30
0.0
 11
259.02390800000001
 21
119.499621
 31
0.0
  0
LINE
  5
8E
  8
ITEM_50
 10
272.85233499999998
 20
61.328047999999988
 30
0.0
 11
260.19548099999997
 21
73.984902000000005
 31
0.0
  0
LINE
  5
8F
  8
ITEM_50
 10
279.02390800000001
 20
60.156475
 30
0.0
 11
275.68076300000001
 21
60.156475
 31
0.0
  0
LINE
  5
90
  8
ITEM_50
 10
279.02390800000001
 20
172.022482
 30
0.0
 11
275.68076300000001
 21
172.022482
 31
0.0
  0
LINE
  5
91
  8
ITEM_50
 10
272.85233499999998
 20
173.19405499999999
 30
0.0
 11
260.19548099999997
 21
185.850909
 31
0.0
  0
LINE
  5
92
  8
ITEM_50
 10
259.02390800000001
 20
188.67933600000001
 30
0.0
 11
259.02390800000001
 21
231.36562799999999
 31
0.0
  0
LINE
  5
93
  8
ITEM_50
 10
260.19548099999997
 20
234.19405499999999
 30
0.0
 11
272.85233499999998
 21
246.850909
 31
0.0
  0
LINE
  5
94
  8
ITEM_50
 10
275.68076300000001
 20
248.022482
 30
0.0
 11
279.02390800000001
 21
248.022482
 31
0.0
  0
LINE
  5
95
  8
ITEM_25
 10
274.02390800000001
 20
176.022482
 30
0.0
 11
274.02390800000001
 21
244.022482
 31
0.0
  0
ARC
  5
96
  8
ITEM_50
 10
275.68076300000001
 20
176.022482
 30
0.0
 40
4.0
 50
225.0
 51
270.0
  0
ARC
  5
97
  8
ITEM_50
 10
263.02390800000001
 20
188.67933600000001
 30
0.0
 40
4.0
 50
180.0
 51
225.0
  0
ARC
  5
98
  8
ITEM_50
 10
263.02390800000001
 20
231.36562799999999
 30
0.0
 40
4.0
 50
135.0
 51
180.0
  0
ARC
  5
99
  8
ITEM_50
 10
275.68076300000001
 20
244.022482
 30
0.0
 40
4.0
 50
90.0
 51
135.0
  0
LINE
  5
9A
  8
ITEM_50
 10
252.02390800000001
 20
217.93498199999999
 30
0.0
 11
252.02390800000001
 21
210.022482
 31
0.0
  0
LINE
  5
9B
  8
ITEM_50
 10
239.02390800000001
 20
202.109982
 30
0.0
 11
239.02390800000001
 21
210.022482
 31
0.0
  0
LINE
  5
9C
  8
ITEM_25
 10
239.02390800000001
 20
215.12248199999999
 30
0.0
 11
252.02390800000001
 21
215.12248199999999
 31
0.0
  0
LINE
  5
9D
  8
ITEM_25
 10
239.02390800000001
 20
204.922482
 30
0.0
 11
252.02390800000001
 21
204.922482
 31
0.0
  0
LINE
  5
9E
  8
ITEM_50
 10
239.02390800000001
 20
216.022482
 30
0.0
 11
252.02390800000001
 21
216.022482
 31
0.0
  0
LINE
  5
9F
  8
ITEM_50
 10
239.02390800000001
 20
204.022482
 30
0.0
 11
252.02390800000001
 21
204.022482
 31
0.0
  0
LINE
  5
A0
  8
3
 10
229.02390800000001
 20
204.969482
 30
0.0
 11
180.076908
 21
204.969482
 31
0.0
  0
LINE
  5
A1
  8
0
 10
229.02390800000001
 20
204.022482
 30
0.0
 11
181.02390800000001
 21
204.022482
 31
0.0
  0
LINE
  5
A2
  8
0
 10
229.02390800000001
 20
216.022482
 30
0.0
 11
181.02390800000001
 21
216.022482
 31
0.0
  0
LINE
  5
A3
  8
3
 10
229.02390800000001
 20
215.07548199999999
 30
0.0
 11
180.076908
 21
215.07548199999999
 31
0.0
  0
LINE
  5
A4
  8
0
 10
181.02390800000001
 20
204.022482
 30
0.0
 11
181.02390800000001
 21
216.022482
 31
0.0
  0
LINE
  5
A5
  8
0
 10
179.02390800000001
 20
206.022482
 30
0.0
 11
181.02390800000001
 21
204.022482
 31
0.0
  0
LINE
  5
A6
  8
0
 10
181.02390800000001
 20
216.022482
 30
0.0
 11
179.02390800000001
 21
214.022482
 31
0.0
  0
LINE
  5
A7
  8
0
 10
179.02390800000001
 20
214.022482
 30
0.0
 11
179.02390800000001
 21
206.022482
 31
0.0
  0
LINE
  5
A8
  8
0
 10
279.02390800000001
 20
248.022482
 30
0.0
 11
279.02390800000001
 21
172.022482
 31
0.0
  0
LINE
  5
A9
  8
0
 10
229.87241399999999
 20
210.022482
 30
0.0
 11
237.88672700000001
 21
210.022482
 31
0.0
  0
LINE
  5
AA
  8
0
 10
228.73523299999999
 20
201.022482
 30
0.0
 11
228.73523299999999
 21
219.022482
 31
0.0
  0
LINE
  5
AB
  8
0
 10
229.02390800000001
 20
200.522482
 30
0.0
 11
228.73523299999999
 21
201.022482
 31
0.0
  0
ARC
  5
AC
  8
0
 10
242.74359200000001
 20
205.272482
 30
0.0
 40
13.719684000000001
 50
159.743842
 51
200.256158
  0
LINE
  5
AD
  8
0
 10
238.73523299999999
 20
200.522482
 30
0.0
 11
229.02390800000001
 21
200.522482
 31
0.0
  0
LINE
  5
AE
  8
0
 10
238.73523299999999
 20
219.522482
 30
0.0
 11
229.02390800000001
 21
219.522482
 31
0.0
  0
ARC
  5
AF
  8
0
 10
242.74359200000001
 20
214.772482
 30
0.0
 40
13.719684000000001
 50
159.743842
 51
200.256158
  0
LINE
  5
B0
  8
0
 10
229.02390800000001
 20
219.522482
 30
0.0
 11
228.73523299999999
 21
219.022482
 31
0.0
  0
LINE
  5
B1
  8
0
 10
252.31258299999999
 20
219.522482
 30
0.0
 11
252.02390800000001
 21
219.022482
 31
0.0
  0
ARC
  5
B2
  8
0
 10
266.03226699999999
 20
214.772482
 30
0.0
 40
13.719684000000001
 50
159.743842
 51
200.256158
  0
LINE
  5
B3
  8
0
 10
259.02390800000001
 20
219.022482
 30
0.0
 11
258.66343599999999
 21
219.522482
 31
0.0
  0
LINE
  5
B4
  8
0
 10
258.66343599999999
 20
219.522482
 30
0.0
 11
252.31258299999999
 21
219.522482
 31
0.0
  0
ARC
  5
B5
  8
0
 10
245.01554899999999
 20
214.772482
 30
0.0
 40
13.719684000000001
 50
339.74384199999997
 51
20.256157999999999
  0
ARC
  5
B6
  8
0
 10
245.01554899999999
 20
205.272482
 30
0.0
 40
13.719684000000001
 50
339.74384199999997
 51
20.256157999999999
  0
LINE
  5
B7
  8
0
 10
258.66343599999999
 20
200.522482
 30
0.0
 11
252.31258299999999
 21
200.522482
 31
0.0
  0
LINE
  5
B8
  8
0
 10
259.02390800000001
 20
201.022482
 30
0.0
 11
258.66343599999999
 21
200.522482
 31
0.0
  0
ARC
  5
B9
  8
0
 10
266.03226699999999
 20
205.272482
 30
0.0
 40
13.719684000000001
 50
159.743842
 51
200.256158
  0
LINE
  5
BA
  8
0
 10
252.31258299999999
 20
200.522482
 30
0.0
 11
252.02390800000001
 21
201.022482
 31
0.0
  0
LINE
  5
BB
  8
0
 10
252.02390800000001
 20
201.022482
 30
0.0
 11
252.02390800000001
 21
219.022482
 31
0.0
  0
LINE
  5
BC
  8
0
 10
253.161089
 20
210.022482
 30
0.0
 11
257.88672700000001
 21
210.022482
 31
0.0
  0
LINE
  5
BD
  8
0
 10
238.73523299999999
 20
219.522482
 30
0.0
 11
239.02390800000001
 21
219.022482
 31
0.0
  0
ARC
  5
BE
  8
0
 10
225.01554899999999
 20
214.772482
 30
0.0
 40
13.719684000000001
 50
339.74384199999997
 51
20.256157999999999
  0
ARC
  5
BF
  8
0
 10
225.01554899999999
 20
205.272482
 30
0.0
 40
13.719684000000001
 50
339.74384199999997
 51
20.256157999999999
  0
LINE
  5
C0
  8
0
 10
238.73523299999999
 20
200.522482
 30
0.0
 11
239.02390800000001
 21
201.022482
 31
0.0
  0
LINE
  5
C1
  8
0
 10
239.02390800000001
 20
201.022482
 30
0.0
 11
239.02390800000001
 21
219.022482
 31
0.0
  0
TEXT
  5
1BC
  8
0
 62
     3
 10
0.0
 20
0.0
 30
0.0
 40
10.0
  1
LPS80-M12X100
  7
STANDARD1
  0
ENDSEC
  0
EOF
