  0
SECTION
  2
HEADER
  9
$ACADVER
  1
AC1009
  9
$INSBASE
 10
0.0
 20
0.0
 30
0.0
  9
$EXTMIN
 10
0.0
 20
-2.960436562073669
 30
0.0
  9
$EXTMAX
 10
283.54260699999998
 20
248.022482
 30
0.0
  9
$LIMMIN
 10
0.0
 20
0.0
  9
$LIMMAX
 10
390.0
 20
270.0
  9
$ORTHOMODE
 70
     1
  9
$REGENMODE
 70
     1
  9
$FILLMODE
 70
     1
  9
$QTEXTMODE
 70
     0
  9
$MIRRTEXT
 70
     0
  9
$DRAGMODE
 70
     2
  9
$LTSCALE
 40
10.0
  9
$OSMODE
 70
  3071
  9
$ATTMODE
 70
     1
  9
$TEXTSIZE
 40
5.0
  9
$TRACEWID
 40
0.05
  9
$TEXTSTYLE
  7
STANDARD
  9
$CLAYER
  8
0
  9
$CELTYPE
  6
BYLAYER
  9
$CECOLOR
 62
   256
  9
$DIMSCALE
 40
1.0
  9
$DIMASZ
 40
3.0
  9
$DIMEXO
 40
2.0
  9
$DIMDLI
 40
0.38
  9
$DIMRND
 40
0.0
  9
$DIMDLE
 40
0.0
  9
$DIMEXE
 40
2.0
  9
$DIMTP
 40
0.0
  9
$DIMTM
 40
0.0
  9
$DIMTXT
 40
3.0
  9
$DIMCEN
 40
0.0
  9
$DIMTSZ
 40
0.0
  9
$DIMTOL
 70
     0
  9
$DIMLIM
 70
     0
  9
$DIMTIH
 70
     0
  9
$DIMTOH
 70
     0
  9
$DIMSE1
 70
     0
  9
$DIMSE2
 70
     0
  9
$DIMTAD
 70
     1
  9
$DIMZIN
 70
     0
  9
$DIMBLK
  1

  9
$DIMASO
 70
     0
  9
$DIMSHO
 70
     0
  9
$DIMPOST
  1

  9
$DIMAPOST
  1

  9
$DIMALT
 70
     0
  9
$DIMALTD
 70
     2
  9
$DIMALTF
 40
25.399999999999999
  9
$DIMLFAC
 40
1.0
  9
$DIMTOFL
 70
     1
  9
$DIMTVP
 40
1.6000000000000001
  9
$DIMTIX
 70
     1
  9
$DIMSOXD
 70
     0
  9
$DIMSAH
 70
     0
  9
$DIMBLK1
  1

  9
$DIMBLK2
  1

  9
$DIMSTYLE
  2
STANDARD
  9
$DIMCLRD
 70
     0
  9
$DIMCLRE
 70
     0
  9
$DIMCLRT
 70
     0
  9
$DIMTFAC
 40
1.0
  9
$DIMGAP
 40
0.09
  9
$LUNITS
 70
     2
  9
$LUPREC
 70
     4
  9
$SKETCHINC
 40
0.1
  9
$FILLETRAD
 40
0.0
  9
$AUNITS
 70
     0
  9
$AUPREC
 70
     4
  9
$MENU
  1
E:\r13\win\SUPPORT\ACAD
  9
$ELEVATION
 40
0.0
  9
$PELEVATION
 40
0.0
  9
$THICKNESS
 40
0.0
  9
$LIMCHECK
 70
     0
  9
$BLIPMODE
 70
     0
  9
$CHAMFERA
 40
0.0
  9
$CHAMFERB
 40
0.0
  9
$SKPOLY
 70
     0
  9
$TDCREATE
 40
2449840.6489467588
  9
$TDUPDATE
 40
2456597.588001979
  9
$TDINDWG
 40
0.0000951157
  9
$TDUSRTIMER
 40
0.0000951157
  9
$USRTIMER
 70
     1
  9
$ANGBASE
 50
0.0
  9
$ANGDIR
 70
     0
  9
$PDMODE
 70
     0
  9
$PDSIZE
 40
0.0
  9
$PLINEWID
 40
0.0
  9
$COORDS
 70
     1
  9
$SPLFRAME
 70
     0
  9
$SPLINETYPE
 70
     6
  9
$SPLINESEGS
 70
     8
  9
$ATTDIA
 70
     0
  9
$ATTREQ
 70
     1
  9
$HANDLING
 70
     1
  9
$HANDSEED
  5
247
  9
$SURFTAB1
 70
     6
  9
$SURFTAB2
 70
     6
  9
$SURFTYPE
 70
     6
  9
$SURFU
 70
     6
  9
$SURFV
 70
     6
  9
$UCSNAME
  2

  9
$UCSORG
 10
0.0
 20
0.0
 30
0.0
  9
$UCSXDIR
 10
1.0
 20
0.0
 30
0.0
  9
$UCSYDIR
 10
0.0
 20
1.0
 30
0.0
  9
$PUCSNAME
  2

  9
$PUCSORG
 10
0.0
 20
0.0
 30
0.0
  9
$PUCSXDIR
 10
1.0
 20
0.0
 30
0.0
  9
$PUCSYDIR
 10
0.0
 20
1.0
 30
0.0
  9
$USERI1
 70
     3
  9
$USERI2
 70
     1
  9
$USERI3
 70
     0
  9
$USERI4
 70
     0
  9
$USERI5
 70
     0
  9
$USERR1
 40
1.0
  9
$USERR2
 40
3.0
  9
$USERR3
 40
3.0
  9
$USERR4
 40
3.0
  9
$USERR5
 40
10.0
  9
$WORLDVIEW
 70
     1
  9
$SHADEDGE
 70
     3
  9
$SHADEDIF
 70
    70
  9
$TILEMODE
 70
     1
  9
$MAXACTVP
 70
    16
  9
$PLIMCHECK
 70
     0
  9
$PEXTMIN
 10
1.0000000000000000E+020
 20
1.0000000000000000E+020
 30
1.0000000000000000E+020
  9
$PEXTMAX
 10
-1.0000000000000000E+020
 20
-1.0000000000000000E+020
 30
-1.0000000000000000E+020
  9
$PLIMMIN
 10
0.0
 20
0.0
  9
$PLIMMAX
 10
12.0
 20
9.0
  9
$UNITMODE
 70
     0
  9
$VISRETAIN
 70
     0
  9
$PLINEGEN
 70
     0
  9
$PSLTSCALE
 70
     0
  0
ENDSEC
  0
SECTION
  2
TABLES
  0
TABLE
  2
VPORT
 70
     1
  0
VPORT
  2
*ACTIVE
 70
     0
 10
0.0
 20
0.0
 11
1.0
 21
1.0
 12
194.99404952627839
 22
134.10366293909439
 13
0.0
 23
0.0
 14
10.0
 24
10.0
 15
10.0
 25
10.0
 16
0.0
 26
0.0
 36
1.0
 17
0.0
 27
0.0
 37
0.0
 40
277.29405978699532
 41
2.304913294797688
 42
50.0
 43
0.0
 44
0.0
 50
0.0
 51
0.0
 71
     0
 72
   100
 73
     1
 74
     0
 75
     0
 76
     0
 77
     0
 78
     0
  0
ENDTAB
  0
TABLE
  2
LTYPE
 70
     4
  0
LTYPE
  2
CONTINUOUS
 70
     0
  3
Solid Line
 72
    65
 73
     0
 40
0.0
  0
LTYPE
  2
CENTER
 70
     0
  3
____ _ ____ _ ____ _ ____ _ ____ _ ____ _ ____
 72
    65
 73
     4
 40
2.0
 49
1.25
 49
-0.25
 49
0.25
 49
-0.25
  0
LTYPE
  2
AUSGEZOGEN
 70
     0
  3
Solid line
 72
    65
 73
     0
 40
0.0
  0
LTYPE
  2
PHANTOM2
 70
     0
  3
___ _ _ ___ _ _ ___ _ _ ___ _ _
 72
    65
 73
     6
 40
1.25
 49
0.625
 49
-0.125
 49
0.125
 49
-0.125
 49
0.125
 49
-0.125
  0
ENDTAB
  0
TABLE
  2
LAYER
 70
     5
  0
LAYER
  2
0
 70
     0
 62
     7
  6
CONTINUOUS
  0
LAYER
  2
1
 70
     0
 62
     1
  6
CENTER
  0
LAYER
  2
3
 70
     0
 62
     3
  6
CONTINUOUS
  0
LAYER
  2
ITEM_50
 70
     0
 62
     7
  6
AUSGEZOGEN
  0
LAYER
  2
ITEM_25
 70
     0
 62
     3
  6
AUSGEZOGEN
  0
ENDTAB
  0
TABLE
  2
STYLE
 70
     2
  0
STYLE
  2
STANDARD
 70
     0
 40
0.0
 41
1.0
 50
0.0
 71
     0
 42
5.0
  3
TXT
  4
BIGFONT
  0
STYLE
  2
STANDARD1
 70
     0
 40
0.0
 41
1.0
 50
0.0
 71
     0
 42
3.0
  3
txt
  4

  0
ENDTAB
  0
TABLE
  2
VIEW
 70
     1
  0
VIEW
  2
ALL
 70
     0
 40
270.0
 10
220.99159700000001
 20
135.0
 41
0.0
 11
0.0
 21
0.0
 31
1.0
 12
0.0
 22
0.0
 32
0.0
 42
0.0
 43
0.0
 44
0.0
 50
0.0
 71
     0
  0
ENDTAB
  0
TABLE
  2
UCS
 70
     0
  0
ENDTAB
  0
TABLE
  2
APPID
 70
     3
  0
APPID
  2
ACAD
 70
     0
  0
APPID
  2
ACAD_MLEADERVER
 70
     0
  0
APPID
  2
ACAD_NAV_VCDISPLAY
 70
     0
  0
ENDTAB
  0
TABLE
  2
DIMSTYLE
 70
     1
  0
DIMSTYLE
  2
STANDARD
 70
     0
  3

  4

  5

  6

  7

 40
1.0
 41
0.18
 42
0.0625
 43
0.38
 44
0.18
 45
0.0
 46
0.0
 47
0.0
 48
0.0
140
0.18
141
0.09
142
0.0
143
25.399999999999999
144
1.0
145
0.0
146
1.0
147
0.09
 71
     0
 72
     0
 73
     1
 74
     1
 75
     0
 76
     0
 77
     0
 78
     0
170
     0
171
     2
172
     0
173
     0
174
     0
175
     0
176
     0
177
     0
178
     0
  0
ENDTAB
  0
ENDSEC
  0
SECTION
  2
BLOCKS
  0
BLOCK
  8
0
  2
$MODEL_SPACE
 70
     0
 10
0.0
 20
0.0
 30
0.0
  3
$MODEL_SPACE
  1

  0
ENDBLK
  5
F7
  8
0
  0
BLOCK
 67
     1
  8
0
  2
$PAPER_SPACE
 70
     0
 10
0.0
 20
0.0
 30
0.0
  3
$PAPER_SPACE
  1

  0
ENDBLK
  5
F5
 67
     1
  8
0
  0
BLOCK
  8
0
  2
STDGX5
 70
     0
 10
0.0
 20
0.0
 30
0.0
  3
STDGX5
  1

  0
ENDBLK
  5
40
  8
0
  0
ENDSEC
  0
SECTION
  2
ENTITIES
  0
LINE
  5
41
  8
0
 10
228.542607
 20
101.610612
 30
0.0
 11
180.542607
 21
101.610612
 31
0.0
  0
LINE
  5
42
  8
0
 10
228.542607
 20
85.610612000000003
 30
0.0
 11
180.542607
 21
85.610612000000003
 31
0.0
  0
LINE
  5
43
  8
0
 10
178.542607
 20
99.610612000000003
 30
0.0
 11
178.542607
 21
87.610612000000003
 31
0.0
  0
LINE
  5
44
  8
0
 10
178.542607
 20
99.610612000000003
 30
0.0
 11
180.542607
 21
101.610612
 31
0.0
  0
LINE
  5
45
  8
0
 10
178.542607
 20
87.610612000000003
 30
0.0
 11
180.542607
 21
85.610612000000003
 31
0.0
  0
LINE
  5
46
  8
0
 10
180.542607
 20
101.610612
 30
0.0
 11
180.542607
 21
85.610612000000003
 31
0.0
  0
LINE
  5
47
  8
3
 10
179.45960700000001
 20
86.693612000000002
 30
0.0
 11
228.542607
 21
86.693612000000002
 31
0.0
  0
LINE
  5
48
  8
3
 10
179.45960700000001
 20
100.527612
 30
0.0
 11
228.542607
 21
100.527612
 31
0.0
  0
LINE
  5
49
  8
0
 10
278.54260699999998
 20
55.610612000000003
 30
0.0
 11
278.54260699999998
 21
131.610612
 31
0.0
  0
CIRCLE
  5
4A
  8
0
 10
90.0
 20
93.610611999999989
 30
0.0
 40
23.0
  0
CIRCLE
  5
4B
  8
0
 10
90.0
 20
93.610611999999989
 30
0.0
 40
38.0
  0
CIRCLE
  5
4C
  8
3
 10
90.0
 20
93.610611999999989
 30
0.0
 40
6.9175000000000004
  0
LINE
  5
4D
  8
0
 10
103.85640600000001
 20
93.610611999999989
 30
0.0
 11
96.928203000000011
 21
81.610612000000003
 31
0.0
  0
LINE
  5
4E
  8
0
 10
96.928203000000011
 20
105.610612
 30
0.0
 11
103.85640600000001
 21
93.610611999999989
 31
0.0
  0
LINE
  5
4F
  8
0
 10
83.071797000000004
 20
105.610612
 30
0.0
 11
96.928203000000011
 21
105.610612
 31
0.0
  0
LINE
  5
50
  8
0
 10
76.143593999999993
 20
93.610611999999989
 30
0.0
 11
83.071797000000004
 21
105.610612
 31
0.0
  0
LINE
  5
51
  8
0
 10
83.071797000000004
 20
81.610612000000003
 30
0.0
 11
76.143593999999993
 21
93.610611999999989
 31
0.0
  0
LINE
  5
52
  8
0
 10
96.928203000000011
 20
81.610612000000003
 30
0.0
 11
83.071797000000004
 21
81.610612000000003
 31
0.0
  0
CIRCLE
  5
53
  8
0
 10
90.0
 20
93.610611999999989
 30
0.0
 40
11.5
  0
CIRCLE
  5
54
  8
0
 10
90.0
 20
93.610611999999989
 30
0.0
 40
8.0
  0
LINE
  5
55
  8
1
 10
133.0
 20
93.610611999999989
 30
0.0
 11
47.0
 21
93.610611999999989
 31
0.0
  0
LINE
  5
56
  8
1
 10
90.0
 20
136.610612
 30
0.0
 11
90.0
 21
50.610612000000003
 31
0.0
  0
LINE
  5
57
  8
1
 10
173.542607
 20
93.610611999999989
 30
0.0
 11
283.54260699999998
 21
93.610611999999989
 31
0.0
  0
LINE
  5
58
  8
1
 10
173.542607
 20
210.022482
 30
0.0
 11
283.54260699999998
 21
210.022482
 31
0.0
  0
INSERT
  5
62
  8
0
  2
STDGX5
 10
0.0
 20
0.0
 30
0.0
  0
ARC
  5
63
  8
ITEM_50
 10
236.09670700000001
 20
103.641863
 30
0.0
 40
5.4458989999999989
 50
322.12113599999998
 51
360.0
  0
ARC
  5
64
  8
ITEM_50
 10
221.480099
 20
93.610613000000015
 30
0.0
 40
20.062508000000001
 50
340.52878799999991
 51
19.471212000000001
  0
ARC
  5
65
  8
ITEM_50
 10
236.09670700000001
 20
83.579363000000001
 30
0.0
 40
5.4458989999999989
 50
360.0
 51
37.878864
  0
ARC
  5
66
  8
ITEM_50
 10
233.988506
 20
103.641863
 30
0.0
 40
5.4458989999999989
 50
180.0
 51
217.87886399999999
  0
ARC
  5
67
  8
ITEM_50
 10
248.60511500000001
 20
93.610613000000015
 30
0.0
 40
20.062508000000001
 50
160.52878799999999
 51
199.47121200000001
  0
ARC
  5
68
  8
ITEM_50
 10
233.988506
 20
83.579363000000001
 30
0.0
 40
5.4458989999999989
 50
142.12113600000001
 51
180.0
  0
LINE
  5
69
  8
ITEM_50
 10
240.39521400000001
 20
100.298113
 30
0.0
 11
229.69
 21
100.298113
 31
0.0
  0
LINE
  5
6A
  8
ITEM_50
 10
240.39521400000001
 20
86.923113000000001
 30
0.0
 11
229.69
 21
86.923113000000001
 31
0.0
  0
LINE
  5
6B
  8
ITEM_50
 10
229.69
 20
80.235613000000001
 30
0.0
 11
240.39521400000001
 21
80.235613000000001
 31
0.0
  0
ARC
  5
6C
  8
ITEM_50
 10
236.09670700000001
 20
83.579363000000001
 30
0.0
 40
5.4458989999999989
 50
322.12113599999998
 51
0.0
  0
LINE
  5
6D
  8
ITEM_50
 10
241.542607
 20
83.579363000000001
 30
0.0
 11
241.542607
 21
93.610613000000015
 31
0.0
  0
LINE
  5
6E
  8
ITEM_50
 10
241.542607
 20
93.610613000000015
 30
0.0
 11
241.542607
 21
103.641863
 31
0.0
  0
ARC
  5
6F
  8
ITEM_50
 10
236.09670700000001
 20
103.641863
 30
0.0
 40
5.4458989999999989
 50
360.0
 51
37.878864
  0
LINE
  5
70
  8
ITEM_50
 10
240.39521400000001
 20
106.985613
 30
0.0
 11
229.69
 21
106.985613
 31
0.0
  0
ARC
  5
71
  8
ITEM_50
 10
233.988506
 20
103.641863
 30
0.0
 40
5.4458989999999989
 50
142.12113600000001
 51
180.0
  0
LINE
  5
72
  8
ITEM_50
 10
228.542607
 20
103.641863
 30
0.0
 11
228.542607
 21
93.610613000000015
 31
0.0
  0
LINE
  5
73
  8
ITEM_50
 10
228.542607
 20
93.610613000000015
 30
0.0
 11
228.542607
 21
83.579363000000001
 31
0.0
  0
ARC
  5
74
  8
ITEM_50
 10
233.988506
 20
83.579363000000001
 30
0.0
 40
5.4458989999999989
 50
180.0
 51
217.87886399999999
  0
LINE
  5
75
  8
ITEM_50
 10
252.69
 20
80.235612000000003
 30
0.0
 11
258.54260699999998
 21
80.235612000000003
 31
0.0
  0
ARC
  5
76
  8
ITEM_50
 10
256.98850599999997
 20
83.579362000000003
 30
0.0
 40
5.4458989999999989
 50
180.0
 51
217.87886399999999
  0
LINE
  5
77
  8
ITEM_50
 10
251.542607
 20
93.610611999999989
 30
0.0
 11
251.542607
 21
83.579362000000003
 31
0.0
  0
LINE
  5
78
  8
ITEM_50
 10
251.542607
 20
103.641862
 30
0.0
 11
251.542607
 21
93.610611999999989
 31
0.0
  0
ARC
  5
79
  8
ITEM_50
 10
256.98850599999997
 20
103.641862
 30
0.0
 40
5.4458989999999989
 50
142.12113600000001
 51
180.0
  0
LINE
  5
7A
  8
ITEM_50
 10
258.54260699999998
 20
106.985612
 30
0.0
 11
252.69
 21
106.985612
 31
0.0
  0
LINE
  5
7B
  8
ITEM_50
 10
252.69
 20
100.298112
 30
0.0
 11
258.54260699999998
 21
100.298112
 31
0.0
  0
LINE
  5
7C
  8
ITEM_50
 10
252.69
 20
86.923112000000003
 30
0.0
 11
258.54260699999998
 21
86.923112000000003
 31
0.0
  0
ARC
  5
7D
  8
ITEM_50
 10
256.98850599999997
 20
103.641862
 30
0.0
 40
5.4458989999999989
 50
180.0
 51
217.87886399999999
  0
ARC
  5
7E
  8
ITEM_50
 10
271.60511500000001
 20
93.610611999999989
 30
0.0
 40
20.062508000000001
 50
160.52878799999999
 51
199.47121200000001
  0
ARC
  5
7F
  8
ITEM_50
 10
256.98850599999997
 20
83.579362000000003
 30
0.0
 40
5.4458989999999989
 50
142.12113600000001
 51
180.0
  0
LINE
  5
80
  8
ITEM_50
 10
278.54260699999998
 20
55.610612000000003
 30
0.0
 11
275.19946099999999
 21
55.610612000000003
 31
0.0
  0
LINE
  5
81
  8
ITEM_50
 10
272.37103400000001
 20
56.782183999999987
 30
0.0
 11
259.71418
 21
69.439039000000008
 31
0.0
  0
LINE
  5
82
  8
ITEM_50
 10
258.54260699999998
 20
72.267465999999999
 30
0.0
 11
258.54260699999998
 21
114.953757
 31
0.0
  0
LINE
  5
83
  8
ITEM_50
 10
259.71418
 20
117.782184
 30
0.0
 11
272.37103400000001
 21
130.43903900000001
 31
0.0
  0
LINE
  5
84
  8
ITEM_50
 10
275.19946099999999
 20
131.610612
 30
0.0
 11
278.54260699999998
 21
131.610612
 31
0.0
  0
LINE
  5
85
  8
ITEM_25
 10
273.54260699999998
 20
59.610611999999989
 30
0.0
 11
273.54260699999998
 21
127.610612
 31
0.0
  0
ARC
  5
86
  8
ITEM_50
 10
275.19946099999999
 20
59.610611999999989
 30
0.0
 40
4.0
 50
225.0
 51
270.0
  0
ARC
  5
87
  8
ITEM_50
 10
262.54260699999998
 20
72.267465999999999
 30
0.0
 40
4.0
 50
180.0
 51
225.0
  0
ARC
  5
88
  8
ITEM_50
 10
262.54260699999998
 20
114.953757
 30
0.0
 40
4.0
 50
135.0
 51
180.0
  0
ARC
  5
89
  8
ITEM_50
 10
275.19946099999999
 20
127.610612
 30
0.0
 40
4.0
 50
90.0
 51
135.0
  0
LINE
  5
8A
  8
ITEM_25
 10
241.542607
 20
100.610612
 30
0.0
 11
251.542607
 21
100.610612
 31
0.0
  0
LINE
  5
8B
  8
ITEM_25
 10
241.542607
 20
86.610612000000003
 30
0.0
 11
251.542607
 21
86.610612000000003
 31
0.0
  0
LINE
  5
8C
  8
ITEM_50
 10
241.542607
 20
101.610612
 30
0.0
 11
251.542607
 21
101.610612
 31
0.0
  0
LINE
  5
8D
  8
ITEM_50
 10
241.542607
 20
85.610612000000003
 30
0.0
 11
251.542607
 21
85.610612000000003
 31
0.0
  0
LINE
  5
8E
  8
ITEM_50
 10
241.542607
 20
202.022482
 30
0.0
 11
251.542607
 21
202.022482
 31
0.0
  0
LINE
  5
8F
  8
ITEM_50
 10
241.542607
 20
218.022482
 30
0.0
 11
251.542607
 21
218.022482
 31
0.0
  0
LINE
  5
90
  8
ITEM_25
 10
241.542607
 20
203.022482
 30
0.0
 11
251.542607
 21
203.022482
 31
0.0
  0
LINE
  5
91
  8
ITEM_25
 10
241.542607
 20
217.022482
 30
0.0
 11
251.542607
 21
217.022482
 31
0.0
  0
ARC
  5
92
  8
ITEM_50
 10
275.19946099999999
 20
244.022482
 30
0.0
 40
4.0
 50
90.0
 51
135.0
  0
ARC
  5
93
  8
ITEM_50
 10
262.54260699999998
 20
231.36562799999999
 30
0.0
 40
4.0
 50
135.0
 51
180.0
  0
ARC
  5
94
  8
ITEM_50
 10
262.54260699999998
 20
188.67933600000001
 30
0.0
 40
4.0
 50
180.0
 51
225.0
  0
ARC
  5
95
  8
ITEM_50
 10
275.19946099999999
 20
176.022482
 30
0.0
 40
4.0
 50
225.0
 51
270.0
  0
LINE
  5
96
  8
ITEM_25
 10
273.54260699999998
 20
176.022482
 30
0.0
 11
273.54260699999998
 21
244.022482
 31
0.0
  0
LINE
  5
97
  8
ITEM_50
 10
275.19946099999999
 20
248.022482
 30
0.0
 11
278.54260699999998
 21
248.022482
 31
0.0
  0
LINE
  5
98
  8
ITEM_50
 10
259.71418
 20
234.19405499999999
 30
0.0
 11
272.37103400000001
 21
246.850909
 31
0.0
  0
LINE
  5
99
  8
ITEM_50
 10
258.54260699999998
 20
188.67933600000001
 30
0.0
 11
258.54260699999998
 21
231.36562799999999
 31
0.0
  0
LINE
  5
9A
  8
ITEM_50
 10
272.37103400000001
 20
173.19405499999999
 30
0.0
 11
259.71418
 21
185.850909
 31
0.0
  0
LINE
  5
9B
  8
ITEM_50
 10
278.54260699999998
 20
172.022482
 30
0.0
 11
275.19946099999999
 21
172.022482
 31
0.0
  0
LINE
  5
9C
  8
1
 10
173.542607
 20
210.022482
 30
0.0
 11
283.54260699999998
 21
210.022482
 31
0.0
  0
LINE
  5
9D
  8
0
 10
278.54260699999998
 20
172.022482
 30
0.0
 11
278.54260699999998
 21
248.022482
 31
0.0
  0
LINE
  5
9E
  8
3
 10
179.45960700000001
 20
216.939482
 30
0.0
 11
228.542607
 21
216.939482
 31
0.0
  0
LINE
  5
9F
  8
3
 10
179.45960700000001
 20
203.10548199999999
 30
0.0
 11
228.542607
 21
203.10548199999999
 31
0.0
  0
LINE
  5
A0
  8
0
 10
180.542607
 20
218.022482
 30
0.0
 11
180.542607
 21
202.022482
 31
0.0
  0
LINE
  5
A1
  8
0
 10
178.542607
 20
204.022482
 30
0.0
 11
180.542607
 21
202.022482
 31
0.0
  0
LINE
  5
A2
  8
0
 10
178.542607
 20
216.022482
 30
0.0
 11
180.542607
 21
218.022482
 31
0.0
  0
LINE
  5
A3
  8
0
 10
178.542607
 20
216.022482
 30
0.0
 11
178.542607
 21
204.022482
 31
0.0
  0
LINE
  5
A4
  8
0
 10
228.542607
 20
202.022482
 30
0.0
 11
180.542607
 21
202.022482
 31
0.0
  0
LINE
  5
A5
  8
0
 10
228.542607
 20
218.022482
 30
0.0
 11
180.542607
 21
218.022482
 31
0.0
  0
LINE
  5
A6
  8
0
 10
228.542607
 20
198.522482
 30
0.0
 11
228.542607
 21
221.522482
 31
0.0
  0
ARC
  5
A7
  8
0
 10
246.16140899999999
 20
204.022482
 30
0.0
 40
17.33012699999999
 50
159.743842
 51
200.256158
  0
LINE
  5
A8
  8
0
 10
228.83128199999999
 20
198.022482
 30
0.0
 11
228.542607
 21
198.522482
 31
0.0
  0
LINE
  5
A9
  8
0
 10
228.83128199999999
 20
198.022482
 30
0.0
 11
241.25393199999999
 21
198.022482
 31
0.0
  0
LINE
  5
AA
  8
0
 10
241.542607
 20
210.022482
 30
0.0
 11
229.90307899999999
 21
210.022482
 31
0.0
  0
LINE
  5
AB
  8
0
 10
228.83128199999999
 20
222.022482
 30
0.0
 11
241.25393199999999
 21
222.022482
 31
0.0
  0
LINE
  5
AC
  8
0
 10
228.83128199999999
 20
222.022482
 30
0.0
 11
228.542607
 21
221.522482
 31
0.0
  0
ARC
  5
AD
  8
0
 10
246.16140899999999
 20
216.022482
 30
0.0
 40
17.33012699999999
 50
159.743842
 51
200.256158
  0
ARC
  5
AE
  8
0
 10
269.16140899999999
 20
216.022482
 30
0.0
 40
17.33012699999999
 50
159.743842
 51
200.256158
  0
LINE
  5
AF
  8
0
 10
251.83128199999999
 20
222.022482
 30
0.0
 11
251.542607
 21
221.522482
 31
0.0
  0
LINE
  5
B0
  8
0
 10
251.83128199999999
 20
222.022482
 30
0.0
 11
258.54260699999998
 21
222.022482
 31
0.0
  0
LINE
  5
B1
  8
0
 10
258.54260699999998
 20
210.022482
 30
0.0
 11
252.90307899999999
 21
210.022482
 31
0.0
  0
LINE
  5
B2
  8
0
 10
251.83128199999999
 20
198.022482
 30
0.0
 11
258.54260699999998
 21
198.022482
 31
0.0
  0
LINE
  5
B3
  8
0
 10
251.83128199999999
 20
198.022482
 30
0.0
 11
251.542607
 21
198.522482
 31
0.0
  0
ARC
  5
B4
  8
0
 10
269.16140899999999
 20
204.022482
 30
0.0
 40
17.33012699999999
 50
159.743842
 51
200.256158
  0
LINE
  5
B5
  8
0
 10
251.542607
 20
198.522482
 30
0.0
 11
251.542607
 21
221.522482
 31
0.0
  0
ARC
  5
B6
  8
0
 10
223.92380499999999
 20
216.022482
 30
0.0
 40
17.33012699999999
 50
339.74384199999997
 51
20.256157999999999
  0
LINE
  5
B7
  8
0
 10
241.25393199999999
 20
222.022482
 30
0.0
 11
241.542607
 21
221.522482
 31
0.0
  0
LINE
  5
B8
  8
0
 10
241.25393199999999
 20
198.022482
 30
0.0
 11
241.542607
 21
198.522482
 31
0.0
  0
ARC
  5
B9
  8
0
 10
223.92380499999999
 20
204.022482
 30
0.0
 40
17.33012699999999
 50
339.74384199999997
 51
20.256157999999999
  0
LINE
  5
BA
  8
0
 10
241.542607
 20
198.522482
 30
0.0
 11
241.542607
 21
221.522482
 31
0.0
  0
TEXT
  5
1B6
  8
0
 62
     3
 10
0.0
 20
0.0
 30
0.0
 40
10.0
  1
LPS80-M16X100
  7
STANDARD1
  0
ENDSEC
  0
EOF
