  0
SECTION
  2
HEADER
  9
$ACADVER
  1
AC1009
  9
$INSBASE
 10
0.0
 20
0.0
 30
0.0
  9
$EXTMIN
 10
0.0
 20
-2.960436562073669
 30
0.0
  9
$EXTMAX
 10
218.00000000239999
 20
268.9999999999626
 30
0.0
  9
$LIMMIN
 10
0.0
 20
0.0
  9
$LIMMAX
 10
375.0
 20
270.0
  9
$ORTHOMODE
 70
     1
  9
$REGENMODE
 70
     1
  9
$FILLMODE
 70
     1
  9
$QTEXTMODE
 70
     0
  9
$MIRRTEXT
 70
     0
  9
$DRAGMODE
 70
     2
  9
$LTSCALE
 40
3.0
  9
$OSMODE
 70
    37
  9
$ATTMODE
 70
     1
  9
$TEXTSIZE
 40
0.2
  9
$TRACEWID
 40
0.05
  9
$TEXTSTYLE
  7
STANDARD
  9
$CLAYER
  8
0
  9
$CELTYPE
  6
BYLAYER
  9
$CECOLOR
 62
   256
  9
$DIMSCALE
 40
1.0
  9
$DIMASZ
 40
3.0
  9
$DIMEXO
 40
2.0
  9
$DIMDLI
 40
0.38
  9
$DIMRND
 40
0.0
  9
$DIMDLE
 40
0.0
  9
$DIMEXE
 40
2.0
  9
$DIMTP
 40
0.0
  9
$DIMTM
 40
0.0
  9
$DIMTXT
 40
3.2000000000000002
  9
$DIMCEN
 40
0.0
  9
$DIMTSZ
 40
0.0
  9
$DIMTOL
 70
     0
  9
$DIMLIM
 70
     0
  9
$DIMTIH
 70
     0
  9
$DIMTOH
 70
     0
  9
$DIMSE1
 70
     0
  9
$DIMSE2
 70
     0
  9
$DIMTAD
 70
     1
  9
$DIMZIN
 70
     0
  9
$DIMBLK
  1

  9
$DIMASO
 70
     0
  9
$DIMSHO
 70
     0
  9
$DIMPOST
  1

  9
$DIMAPOST
  1

  9
$DIMALT
 70
     0
  9
$DIMALTD
 70
     2
  9
$DIMALTF
 40
25.399999999999999
  9
$DIMLFAC
 40
1.0
  9
$DIMTOFL
 70
     0
  9
$DIMTVP
 40
1.6000000000000001
  9
$DIMTIX
 70
     1
  9
$DIMSOXD
 70
     0
  9
$DIMSAH
 70
     0
  9
$DIMBLK1
  1

  9
$DIMBLK2
  1

  9
$DIMSTYLE
  2
STANDARD
  9
$DIMCLRD
 70
     4
  9
$DIMCLRE
 70
     4
  9
$DIMCLRT
 70
     4
  9
$DIMTFAC
 40
1.0
  9
$DIMGAP
 40
0.09
  9
$LUNITS
 70
     2
  9
$LUPREC
 70
     1
  9
$SKETCHINC
 40
0.1
  9
$FILLETRAD
 40
0.0
  9
$AUNITS
 70
     0
  9
$AUPREC
 70
     1
  9
$MENU
  1
E:\r13\win\SUPPORT\ACAD
  9
$ELEVATION
 40
0.0
  9
$PELEVATION
 40
0.0
  9
$THICKNESS
 40
0.0
  9
$LIMCHECK
 70
     0
  9
$BLIPMODE
 70
     0
  9
$CHAMFERA
 40
0.0
  9
$CHAMFERB
 40
0.0
  9
$SKPOLY
 70
     0
  9
$TDCREATE
 40
2449840.6508564819
  9
$TDUPDATE
 40
2457968.4254217711
  9
$TDINDWG
 40
0.2972856944
  9
$TDUSRTIMER
 40
0.2972856944
  9
$USRTIMER
 70
     1
  9
$ANGBASE
 50
0.0
  9
$ANGDIR
 70
     0
  9
$PDMODE
 70
     0
  9
$PDSIZE
 40
0.0
  9
$PLINEWID
 40
0.0
  9
$COORDS
 70
     1
  9
$SPLFRAME
 70
     0
  9
$SPLINETYPE
 70
     6
  9
$SPLINESEGS
 70
     8
  9
$ATTDIA
 70
     0
  9
$ATTREQ
 70
     1
  9
$HANDLING
 70
     1
  9
$HANDSEED
  5
32DA
  9
$SURFTAB1
 70
     6
  9
$SURFTAB2
 70
     6
  9
$SURFTYPE
 70
     6
  9
$SURFU
 70
     6
  9
$SURFV
 70
     6
  9
$UCSNAME
  2

  9
$UCSORG
 10
0.0
 20
0.0
 30
0.0
  9
$UCSXDIR
 10
1.0
 20
0.0
 30
0.0
  9
$UCSYDIR
 10
0.0
 20
1.0
 30
0.0
  9
$PUCSNAME
  2

  9
$PUCSORG
 10
0.0
 20
0.0
 30
0.0
  9
$PUCSXDIR
 10
1.0
 20
0.0
 30
0.0
  9
$PUCSYDIR
 10
0.0
 20
1.0
 30
0.0
  9
$USERI1
 70
     0
  9
$USERI2
 70
     1
  9
$USERI3
 70
     1
  9
$USERI4
 70
     0
  9
$USERI5
 70
     0
  9
$USERR1
 40
0.0
  9
$USERR2
 40
0.0
  9
$USERR3
 40
0.0
  9
$USERR4
 40
0.0
  9
$USERR5
 40
0.0
  9
$WORLDVIEW
 70
     1
  9
$SHADEDGE
 70
     3
  9
$SHADEDIF
 70
    70
  9
$TILEMODE
 70
     1
  9
$MAXACTVP
 70
    16
  9
$PLIMCHECK
 70
     0
  9
$PEXTMIN
 10
1.0000000000000000E+020
 20
1.0000000000000000E+020
 30
1.0000000000000000E+020
  9
$PEXTMAX
 10
-1.0000000000000000E+020
 20
-1.0000000000000000E+020
 30
-1.0000000000000000E+020
  9
$PLIMMIN
 10
0.0
 20
0.0
  9
$PLIMMAX
 10
12.0
 20
9.0
  9
$UNITMODE
 70
     0
  9
$VISRETAIN
 70
     0
  9
$PLINEGEN
 70
     0
  9
$PSLTSCALE
 70
     0
  0
ENDSEC
  0
SECTION
  2
TABLES
  0
TABLE
  2
VPORT
 70
     1
  0
VPORT
  2
*ACTIVE
 70
     0
 10
0.0
 20
0.0
 11
1.0
 21
1.0
 12
272.4358974358974
 22
150.0
 13
0.0
 23
0.0
 14
10.0
 24
10.0
 15
10.0
 25
10.0
 16
0.0
 26
0.0
 36
1.0
 17
0.0
 27
0.0
 37
0.0
 40
300.0
 41
1.816239316239316
 42
50.0
 43
0.0
 44
0.0
 50
0.0
 51
0.0
 71
     0
 72
   500
 73
     1
 74
     0
 75
     0
 76
     0
 77
     0
 78
     2
  0
ENDTAB
  0
TABLE
  2
LTYPE
 70
     3
  0
LTYPE
  2
CONTINUOUS
 70
     0
  3
Solid Line
 72
    65
 73
     0
 40
0.0
  0
LTYPE
  2
CENTER
 70
     0
  3
____ _ ____ _ ____ _ ____ _ ____ _ ____ _ ____
 72
    65
 73
     4
 40
2.0
 49
1.25
 49
-0.25
 49
0.25
 49
-0.25
  0
LTYPE
  2
PHANTOM2
 70
     0
  3
___ _ _ ___ _ _ ___ _ _ ___ _ _
 72
    65
 73
     6
 40
1.25
 49
0.625
 49
-0.125
 49
0.125
 49
-0.125
 49
0.125
 49
-0.125
  0
ENDTAB
  0
TABLE
  2
LAYER
 70
     3
  0
LAYER
  2
0
 70
     0
 62
     7
  6
CONTINUOUS
  0
LAYER
  2
1
 70
     0
 62
     1
  6
CENTER
  0
LAYER
  2
3
 70
     0
 62
     3
  6
CONTINUOUS
  0
ENDTAB
  0
TABLE
  2
STYLE
 70
     2
  0
STYLE
  2
STANDARD
 70
     0
 40
0.0
 41
1.0
 50
0.0
 71
     0
 42
0.2
  3
TXT
  4
BIGFONT
  0
STYLE
  2
STANDARD1
 70
     0
 40
0.0
 41
1.0
 50
0.0
 71
     0
 42
3.0
  3
txt
  4

  0
ENDTAB
  0
TABLE
  2
VIEW
 70
     1
  0
VIEW
  2
ALL
 70
     0
 40
270.0
 10
220.99159663865549
 20
135.0
 41
0.0
 11
0.0
 21
0.0
 31
1.0
 12
0.0
 22
0.0
 32
0.0
 42
0.0
 43
0.0
 44
0.0
 50
0.0
 71
     0
  0
ENDTAB
  0
TABLE
  2
UCS
 70
     0
  0
ENDTAB
  0
TABLE
  2
APPID
 70
    16
  0
APPID
  2
ACAD
 70
     0
  0
APPID
  2
GENIUS_GENODEF_13
 70
     0
  0
APPID
  2
GENIUS_GENOENT_13
 70
     0
  0
APPID
  2
GENIUS_GENOBJ_13
 70
     0
  0
APPID
  2
GENIUS_GENOLIS_13
 70
     0
  0
APPID
  2
GENIUS_GENOREF_13
 70
     0
  0
APPID
  2
GENIUS_GENOBJ-N-FIL_13
 70
     0
  0
APPID
  2
ACAD_MLEADERVER
 70
     0
  0
APPID
  2
ACAD_DSTYLE_DIMJAG
 70
     0
  0
APPID
  2
ACAD_DSTYLE_DIMTALN
 70
     0
  0
APPID
  2
ACAD_NAV_VCDISPLAY
 70
     0
  0
APPID
  2
ACAD_EXEMPT_FROM_CAD_STANDARDS
 70
     0
  0
APPID
  2
ACADANNOTATIVE
 70
     0
  0
APPID
  2
ACAECLAYERSTANDARD
 70
     0
  0
APPID
  2
ACCMTRANSPARENCY
 70
     0
  0
APPID
  2
ACAD_DSTYLE_DIMRADIAL_EXTENSION
 70
     0
  0
ENDTAB
  0
TABLE
  2
DIMSTYLE
 70
     1
  0
DIMSTYLE
  2
STANDARD
 70
     0
  3

  4

  5

  6

  7

 40
1.0
 41
0.18
 42
0.0625
 43
0.38
 44
0.18
 45
0.0
 46
0.0
 47
0.0
 48
0.0
140
0.18
141
0.09
142
0.0
143
25.399999999999999
144
1.0
145
0.0
146
1.0
147
0.09
 71
     0
 72
     0
 73
     1
 74
     1
 75
     0
 76
     0
 77
     0
 78
     0
170
     0
171
     2
172
     0
173
     0
174
     0
175
     0
176
     0
177
     0
178
     0
  0
ENDTAB
  0
ENDSEC
  0
SECTION
  2
BLOCKS
  0
BLOCK
  8
0
  2
$MODEL_SPACE
 70
     0
 10
0.0
 20
0.0
 30
0.0
  3
$MODEL_SPACE
  1

  0
ENDBLK
  5
DC
  8
0
  0
BLOCK
 67
     1
  8
0
  2
$PAPER_SPACE
 70
     0
 10
0.0
 20
0.0
 30
0.0
  3
$PAPER_SPACE
  1

  0
ENDBLK
  5
DA
 67
     1
  8
0
  0
ENDSEC
  0
SECTION
  2
ENTITIES
  0
TEXT
  5
452
  8
0
 62
     3
 10
0.0
 20
0.0
 30
0.0
 40
10.0
  1
LPS8040-M12X120
  7
STANDARD1
  0
LINE
  5
2545
  8
0
 10
100.0500000001739
 20
77.393782217299986
 30
0.0
 11
99.000000000009564
 21
78.000000000043656
 31
0.0
  0
LINE
  5
2546
  8
0
 10
78.949999999844906
 20
71.60621778259997
 30
0.0
 11
79.999999999890406
 21
70.999999999924967
 31
0.0
  0
LINE
  5
2547
  8
0
 10
79.999999999890406
 20
78.000000000043656
 30
0.0
 11
78.94999999986976
 21
77.393782217382977
 31
0.0
  0
LINE
  5
2548
  8
0
 10
99.000000000009564
 20
70.999999999924967
 30
0.0
 11
100.05000000005511
 21
71.60621778259997
 31
0.0
  0
LINE
  5
2549
  8
0
 10
78.949999999950023
 20
77.393782217382977
 30
0.0
 11
78.949999999950023
 21
71.60621778259997
 31
0.0
  0
LINE
  5
254A
  8
0
 10
100.04999999995
 20
71.60621778259997
 30
0.0
 11
100.04999999995
 21
77.393782217299986
 31
0.0
  0
LINE
  5
2551
  8
0
 10
95.499999999950049
 20
78.000000000064816
 30
0.0
 11
95.499999999925549
 21
84.199999999937916
 31
0.0
  0
LINE
  5
2552
  8
0
 10
95.499999999925549
 20
95.000000000012221
 30
0.0
 11
95.499999999950035
 21
174.05278500000011
 31
0.0
  0
LINE
  5
2553
  8
0
 10
83.499999999949964
 20
174.05278500000011
 30
0.0
 11
83.499999999925507
 21
95.000000000012221
 31
0.0
  0
LINE
  5
2554
  8
0
 10
83.499999999925507
 20
84.199999999937916
 30
0.0
 11
83.499999999949992
 21
78.000000000086246
 31
0.0
  0
LINE
  5
2555
  8
0
 10
95.499999999925308
 20
174.05278500000011
 30
0.0
 11
94.552784999925294
 21
175.0
 31
0.0
  0
LINE
  5
2556
  8
0
 10
84.447214999974676
 20
175.0
 30
0.0
 11
83.499999999974705
 21
174.05278500000011
 31
0.0
  0
ARC
  5
2558
  8
0
 10
97.845742025691436
 20
72.907488751539859
 30
0.0
 40
5.0938897936428544
 50
91.333009196237072
 51
118.2705934786475
  0
LINE
  5
2559
  8
0
 10
95.433091166509655
 20
77.393782217360808
 30
0.0
 11
94.088300338855447
 21
77.39378221736456
 31
0.0
  0
ARC
  5
255A
  8
0
 10
89.362612850091693
 20
59.293235154187407
 30
0.0
 40
18.707269341829459
 50
75.367847695374593
 51
89.579213060748785
  0
LINE
  5
255B
  8
0
 10
83.566908833382683
 20
71.606217782569729
 30
0.0
 11
84.911699661044565
 21
71.606217782569729
 31
0.0
  0
POLYLINE
  5
255C
  8
0
 66
     1
 10
0.0
 20
0.0
 30
0.0
 70
   128
  0
VERTEX
  5
2C9A
  8
0
 10
89.499999999949978
 20
70.999999999895635
 30
0.0
  0
VERTEX
  5
2C9B
  8
0
 10
87.205849830487224
 20
71.15766376587419
 30
0.0
  0
VERTEX
  5
2C9C
  8
0
 10
84.911699661024457
 20
71.606217782544377
 30
0.0
  0
SEQEND
  5
2C9D
  8
0
  0
ARC
  5
255D
  8
0
 10
81.152544907486913
 20
76.098994120714224
 30
0.0
 40
5.100411002189789
 50
271.35055366143371
 51
298.25304901176781
  0
ARC
  5
255E
  8
0
 10
89.635429359403133
 20
59.308053146389057
 30
0.0
 40
18.692437462564691
 50
90.415119677229015
 51
104.6378195666926
  0
LINE
  5
255F
  8
0
 10
84.911699661029274
 20
77.393782217360808
 30
0.0
 11
83.566908833382683
 21
77.39378221736456
 31
0.0
  0
ARC
  5
2560
  8
0
 10
81.152544907600657
 20
72.901005879938893
 30
0.0
 40
5.1004110015026942
 50
61.746950985535761
 51
88.649446339662575
  0
LINE
  5
2562
  8
0
 10
94.088300338855447
 20
71.606217782569729
 30
0.0
 11
95.433091166517315
 21
71.606217782569729
 31
0.0
  0
POLYLINE
  5
2563
  8
0
 66
     1
 10
0.0
 20
0.0
 30
0.0
 70
   128
  0
VERTEX
  5
2C9E
  8
0
 10
97.727241335931524
 20
70.999999999895635
 30
0.0
  0
VERTEX
  5
2C9F
  8
0
 10
96.580166251223204
 20
71.15766376587419
 30
0.0
  0
VERTEX
  5
2CA0
  8
0
 10
95.433091166507268
 20
71.606217782544377
 30
0.0
  0
SEQEND
  5
2CA1
  8
0
  0
ARC
  5
2564
  8
0
 10
89.362612849866309
 20
89.706764848511284
 30
0.0
 40
18.707269344561109
 50
270.4207869398814
 51
284.63215230315569
  0
LINE
  5
2565
  8
0
 10
95.433091166509655
 20
77.393782217360808
 30
0.0
 11
95.433091166517315
 21
71.606217782569729
 31
0.0
  0
LINE
  5
2566
  8
0
 10
94.088300338855447
 20
71.606217782569729
 30
0.0
 11
94.088300338855447
 21
77.39378221736456
 31
0.0
  0
LINE
  5
2567
  8
0
 10
84.911699661029274
 20
77.393782217360808
 30
0.0
 11
84.911699661044565
 21
71.606217782569729
 31
0.0
  0
LINE
  5
2568
  8
0
 10
83.566908833382683
 20
71.606217782569729
 30
0.0
 11
83.566908833382683
 21
77.39378221736456
 31
0.0
  0
ARC
  5
2569
  8
0
 10
97.607027579570982
 20
72.901005879918671
 30
0.0
 40
5.1004110015243169
 50
61.746950985563451
 51
88.64944633899961
  0
LINE
  5
256A
  8
0
 10
100.0213915053609
 20
71.606217782569615
 30
0.0
 11
100.0213915053609
 21
77.39378221736456
 31
0.0
  0
ARC
  5
256B
  8
0
 10
97.607027579457224
 20
76.098994120734574
 30
0.0
 40
5.1004110022114872
 50
271.35055366209662
 51
298.25304901173939
  0
POLYLINE
  5
256C
  8
0
 66
     1
 10
0.0
 20
0.0
 30
0.0
 70
   128
  0
VERTEX
  5
2CA2
  8
0
 10
81.272758663968474
 20
70.999999999895635
 30
0.0
  0
VERTEX
  5
2CA3
  8
0
 10
80.125683579244935
 20
71.15766376587419
 30
0.0
  0
VERTEX
  5
2CA4
  8
0
 10
78.978608494529055
 20
71.606217782544377
 30
0.0
  0
SEQEND
  5
2CA5
  8
0
  0
LINE
  5
256D
  8
0
 10
78.97860849449296
 20
77.393782217382977
 30
0.0
 11
78.978608494539046
 21
71.606217782569615
 31
0.0
  0
ARC
  5
256E
  8
0
 10
81.391259353858061
 20
72.907488750684479
 30
0.0
 40
5.0938897945025099
 50
91.333009198222697
 51
118.27059347578709
  0
LINE
  5
256F
  8
0
 10
100.0499999999567
 20
77.393782217360695
 30
0.0
 11
100.0213915053609
 21
77.39378221736456
 31
0.0
  0
LINE
  5
2570
  8
0
 10
98.999999999979764
 20
78.000000000058549
 30
0.0
 11
79.999999999975032
 21
78.000000000092484
 31
0.0
  0
LINE
  5
2571
  8
0
 10
78.949999999950023
 20
71.606217782569729
 30
0.0
 11
78.978608494539046
 21
71.606217782569615
 31
0.0
  0
LINE
  5
2572
  8
0
 10
78.949999999909949
 20
77.393782217406056
 30
0.0
 11
78.97860849449296
 21
77.393782217382977
 31
0.0
  0
LINE
  5
2574
  8
0
 10
100.0213915053609
 20
71.606217782569615
 30
0.0
 11
100.04999999995
 21
71.606217782569729
 31
0.0
  0
LINE
  5
2597
  8
0
 10
95.499999999950035
 20
174.05278500000011
 30
0.0
 11
83.499999999949964
 21
174.05278500000011
 31
0.0
  0
LINE
  5
2598
  8
0
 10
94.552784999925294
 20
175.0
 30
0.0
 11
84.447214999974676
 21
175.0
 31
0.0
  0
LINE
  5
2599
  8
0
 10
50.000000004999983
 20
54.591319190000043
 30
0.0
 11
49.999999998607763
 21
50.0
 31
0.0
  0
ARC
  5
259A
  8
0
 10
51.000001135306462
 20
54.591318878535503
 30
0.0
 40
1.0000011303065439
 50
149.99782983926951
 51
179.9999821544163
  0
LINE
  5
25A4
  8
0
 10
67.768342613176117
 20
71.0
 30
0.0
 11
111.2316573867239
 21
71.0
 31
0.0
  0
ARC
  5
25A6
  8
0
 10
51.000000130518821
 20
54.591319104128608
 30
0.0
 40
1.00000014735002
 50
135.54221627673419
 51
149.99781224593471
  0
LINE
  5
25A7
  8
0
 10
57.685372875442567
 20
62.832227124984911
 30
0.0
 11
50.286233249105798
 21
55.291702667610927
 31
0.0
  0
ARC
  5
25A9
  8
0
 10
66.11976805194368
 20
70.000000026877956
 30
0.0
 40
0.9999999742720717
 50
90.000000059446336
 51
108.5903966884712
  0
LINE
  5
25AA
  8
0
 10
66.119768049862017
 20
71.0
 30
0.0
 11
67.768342613176117
 21
71.0
 31
0.0
  0
LINE
  5
25AB
  8
0
 10
49.999999998607763
 20
50.0
 30
0.0
 11
128.99999999990001
 21
50.0
 31
0.0
  0
ARC
  5
25AD
  8
0
 10
128.00000168012599
 20
54.591319652257432
 30
0.0
 40
0.9999983247741329
 50
359.99997351456022
 51
30.002212287218001
  0
LINE
  5
25AE
  8
0
 10
128.99999999850769
 20
50.0
 30
0.0
 11
129.00000000489999
 21
54.591319190000043
 31
0.0
  0
LINE
  5
25B0
  8
0
 10
128.71376668988799
 20
55.291702750063109
 30
0.0
 11
121.3146281911287
 21
62.832226058313609
 31
0.0
  0
ARC
  5
25B1
  8
0
 10
128.00000000991449
 20
54.591319189964111
 30
0.0
 40
1.0000000023496709
 50
30.002187374279529
 51
44.457785049792747
  0
LINE
  5
25B2
  8
0
 10
111.2316573867239
 20
71.0
 30
0.0
 11
112.88023195995
 21
71.0
 31
0.0
  0
ARC
  5
25B3
  8
0
 10
112.88023195995
 20
70.000000000000114
 30
0.0
 40
0.9999999999999191
 50
71.409604924079403
 51
90.0
  0
LINE
  5
25B4
  8
0
 10
57.685372875512058
 20
62.832227125055049
 30
0.0
 11
65.406001378697155
 21
70.700383558724525
 31
0.0
  0
ARC
  5
25B5
  8
0
 10
66.119768059950019
 20
70.0
 30
0.0
 40
1.000000002299968
 50
108.5903966323154
 51
135.54221505268211
  0
LINE
  5
25B6
  8
0
 10
113.5939986403817
 20
70.700383557919281
 30
0.0
 11
121.3146281911083
 21
62.832226058334072
 31
0.0
  0
ARC
  5
25B7
  8
0
 10
112.88023195995
 20
70.0
 30
0.0
 40
1.0000000011491119
 50
44.457784947340627
 51
71.409604924080938
  0
ARC
  5
25B8
  8
0
 10
89.499999999949978
 20
244.5
 30
0.0
 40
10.55000000000665
 50
55.779566205617542
 51
64.220433793861659
  0
LINE
  5
25BF
  8
0
 10
94.088300338747473
 20
234.9999999999404
 30
0.0
 11
84.911699661029274
 21
235.0
 31
0.0
  0
ARC
  5
25C0
  8
0
 10
89.499999999949978
 20
244.5
 30
0.0
 40
10.55000000000663
 50
235.77956620561829
 51
244.22043379386159
  0
LINE
  5
25C1
  8
0
 10
83.566908833382683
 20
235.77641534636129
 30
0.0
 11
78.97860849450305
 21
243.72358465370991
 31
0.0
  0
LINE
  5
25C4
  8
0
 10
78.97860849450305
 20
245.27641534629009
 30
0.0
 11
83.566908833428826
 21
253.22358465371869
 31
0.0
  0
ARC
  5
25C5
  8
0
 10
89.499999999949978
 20
244.5
 30
0.0
 40
10.5500000000401
 50
115.7795662065152
 51
124.22043379393121
  0
LINE
  5
25C6
  8
0
 10
84.911699660952308
 20
254.0
 30
0.0
 11
94.088300338747388
 21
254.0000000000596
 31
0.0
  0
ARC
  5
25CA
  8
0
 10
89.499999999949978
 20
244.5
 30
0.0
 40
10.550000000006669
 50
295.77956620606369
 51
304.22043379430738
  0
LINE
  5
25CE
  8
0
 10
95.433091166623043
 20
253.2235846535749
 30
0.0
 11
100.0213915053685
 21
245.27641534622009
 31
0.0
  0
ARC
  5
25CF
  8
0
 10
89.499999999949978
 20
244.5
 30
0.0
 40
10.55000000000665
 50
355.77956620650889
 51
4.2204337934159879
  0
LINE
  5
25D0
  8
0
 10
100.0213915053609
 20
243.72358465376669
 30
0.0
 11
95.433091166622987
 21
235.7764153464251
 31
0.0
  0
ARC
  5
25D3
  8
0
 10
89.499999999949978
 20
244.5
 30
0.0
 40
10.550000000040081
 50
175.77956620695949
 51
184.2204337930404
  0
CIRCLE
  5
25EE
  8
0
 10
89.499999999949978
 20
244.5
 30
0.0
 40
6.0
  0
CIRCLE
  5
25EF
  8
3
 10
89.499999999949978
 20
244.5
 30
0.0
 40
5.0527849999753007
  0
LINE
  5
25F1
  8
0
 10
65.406001378697155
 20
260.0
 30
0.0
 11
65.406001378697155
 21
229.0
 31
0.0
  0
ARC
  5
25F3
  8
0
 10
68.601276237349168
 20
259.913004803452
 30
0.0
 40
2.8016596101878841
 50
152.3412349902834
 51
178.22060505902991
  0
ARC
  5
25F5
  8
0
 10
68.601276237351328
 20
229.0869951965488
 30
0.0
 40
2.801659610190177
 50
181.779394940983
 51
207.65876500971279
  0
POLYLINE
  5
25F6
  8
0
 10
57.685372875437963
 20
260.0
 30
0.0
 66
     1
 70
     8
  0
VERTEX
  8
0
  5
2CC2
 10
57.6854
 20
260.000
 30
0.000000
  70
    32
  0
VERTEX
  8
0
  5
2CC3
 10
57.6849
 20
260.007
 30
0.000000
  70
    32
  0
VERTEX
  8
0
  5
2CC4
 10
57.6836
 20
260.014
 30
0.000000
  70
    32
  0
VERTEX
  8
0
  5
2CC5
 10
57.6813
 20
260.021
 30
0.000000
  70
    32
  0
VERTEX
  8
0
  5
2CC6
 10
57.6781
 20
260.028
 30
0.000000
  70
    32
  0
VERTEX
  8
0
  5
2CC7
 10
57.6740
 20
260.035
 30
0.000000
  70
    32
  0
VERTEX
  8
0
  5
2CC8
 10
57.6690
 20
260.042
 30
0.000000
  70
    32
  0
VERTEX
  8
0
  5
2CC9
 10
57.6632
 20
260.049
 30
0.000000
  70
    32
  0
VERTEX
  8
0
  5
2CCA
 10
57.6563
 20
260.056
 30
0.000000
  70
    32
  0
VERTEX
  8
0
  5
2CCB
 10
57.6486
 20
260.063
 30
0.000000
  70
    32
  0
VERTEX
  8
0
  5
2CCC
 10
57.6400
 20
260.070
 30
0.000000
  70
    32
  0
VERTEX
  8
0
  5
2CCD
 10
57.6305
 20
260.077
 30
0.000000
  70
    32
  0
VERTEX
  8
0
  5
2CCE
 10
57.6201
 20
260.084
 30
0.000000
  70
    32
  0
VERTEX
  8
0
  5
2CCF
 10
57.6087
 20
260.091
 30
0.000000
  70
    32
  0
VERTEX
  8
0
  5
2CD0
 10
57.5965
 20
260.098
 30
0.000000
  70
    32
  0
VERTEX
  8
0
  5
2CD1
 10
57.5833
 20
260.105
 30
0.000000
  70
    32
  0
VERTEX
  8
0
  5
2CD2
 10
57.5693
 20
260.112
 30
0.000000
  70
    32
  0
VERTEX
  8
0
  5
2CD3
 10
57.5543
 20
260.119
 30
0.000000
  70
    32
  0
VERTEX
  8
0
  5
2CD4
 10
57.5385
 20
260.126
 30
0.000000
  70
    32
  0
VERTEX
  8
0
  5
2CD5
 10
57.5217
 20
260.133
 30
0.000000
  70
    32
  0
VERTEX
  8
0
  5
2CD6
 10
57.5040
 20
260.140
 30
0.000000
  70
    32
  0
VERTEX
  8
0
  5
2CD7
 10
57.4854
 20
260.147
 30
0.000000
  70
    32
  0
VERTEX
  8
0
  5
2CD8
 10
57.4659
 20
260.154
 30
0.000000
  70
    32
  0
VERTEX
  8
0
  5
2CD9
 10
57.4455
 20
260.161
 30
0.000000
  70
    32
  0
VERTEX
  8
0
  5
2CDA
 10
57.4242
 20
260.168
 30
0.000000
  70
    32
  0
VERTEX
  8
0
  5
2CDB
 10
57.4020
 20
260.175
 30
0.000000
  70
    32
  0
VERTEX
  8
0
  5
2CDC
 10
57.3789
 20
260.182
 30
0.000000
  70
    32
  0
VERTEX
  8
0
  5
2CDD
 10
57.3548
 20
260.189
 30
0.000000
  70
    32
  0
VERTEX
  8
0
  5
2CDE
 10
57.3299
 20
260.196
 30
0.000000
  70
    32
  0
VERTEX
  8
0
  5
2CDF
 10
57.3041
 20
260.203
 30
0.000000
  70
    32
  0
VERTEX
  8
0
  5
2CE0
 10
57.2773
 20
260.210
 30
0.000000
  70
    32
  0
VERTEX
  8
0
  5
2CE1
 10
57.2497
 20
260.217
 30
0.000000
  70
    32
  0
VERTEX
  8
0
  5
2CE2
 10
57.2211
 20
260.224
 30
0.000000
  70
    32
  0
VERTEX
  8
0
  5
2CE3
 10
57.1916
 20
260.231
 30
0.000000
  70
    32
  0
VERTEX
  8
0
  5
2CE4
 10
57.1613
 20
260.238
 30
0.000000
  70
    32
  0
VERTEX
  8
0
  5
2CE5
 10
57.1300
 20
260.245
 30
0.000000
  70
    32
  0
VERTEX
  8
0
  5
2CE6
 10
57.0978
 20
260.252
 30
0.000000
  70
    32
  0
VERTEX
  8
0
  5
2CE7
 10
57.0647
 20
260.259
 30
0.000000
  70
    32
  0
VERTEX
  8
0
  5
2CE8
 10
57.0308
 20
260.266
 30
0.000000
  70
    32
  0
VERTEX
  8
0
  5
2CE9
 10
56.9959
 20
260.273
 30
0.000000
  70
    32
  0
VERTEX
  8
0
  5
2CEA
 10
56.9601
 20
260.280
 30
0.000000
  70
    32
  0
VERTEX
  8
0
  5
2CEB
 10
56.9234
 20
260.287
 30
0.000000
  70
    32
  0
VERTEX
  8
0
  5
2CEC
 10
56.8858
 20
260.294
 30
0.000000
  70
    32
  0
VERTEX
  8
0
  5
2CED
 10
56.8472
 20
260.301
 30
0.000000
  70
    32
  0
VERTEX
  8
0
  5
2CEE
 10
56.8078
 20
260.308
 30
0.000000
  70
    32
  0
VERTEX
  8
0
  5
2CEF
 10
56.7675
 20
260.315
 30
0.000000
  70
    32
  0
VERTEX
  8
0
  5
2CF0
 10
56.7263
 20
260.322
 30
0.000000
  70
    32
  0
VERTEX
  8
0
  5
2CF1
 10
56.6842
 20
260.329
 30
0.000000
  70
    32
  0
VERTEX
  8
0
  5
2CF2
 10
56.6411
 20
260.336
 30
0.000000
  70
    32
  0
VERTEX
  8
0
  5
2CF3
 10
56.5972
 20
260.343
 30
0.000000
  70
    32
  0
VERTEX
  8
0
  5
2CF4
 10
56.5523
 20
260.350
 30
0.000000
  70
    32
  0
VERTEX
  8
0
  5
2CF5
 10
56.5066
 20
260.357
 30
0.000000
  70
    32
  0
VERTEX
  8
0
  5
2CF6
 10
56.4600
 20
260.364
 30
0.000000
  70
    32
  0
VERTEX
  8
0
  5
2CF7
 10
56.4124
 20
260.371
 30
0.000000
  70
    32
  0
VERTEX
  8
0
  5
2CF8
 10
56.3639
 20
260.378
 30
0.000000
  70
    32
  0
VERTEX
  8
0
  5
2CF9
 10
56.3146
 20
260.384
 30
0.000000
  70
    32
  0
VERTEX
  8
0
  5
2CFA
 10
56.2643
 20
260.391
 30
0.000000
  70
    32
  0
VERTEX
  8
0
  5
2CFB
 10
56.2132
 20
260.398
 30
0.000000
  70
    32
  0
VERTEX
  8
0
  5
2CFC
 10
56.1611
 20
260.405
 30
0.000000
  70
    32
  0
VERTEX
  8
0
  5
2CFD
 10
56.1081
 20
260.412
 30
0.000000
  70
    32
  0
VERTEX
  8
0
  5
2CFE
 10
56.0543
 20
260.419
 30
0.000000
  70
    32
  0
VERTEX
  8
0
  5
2CFF
 10
55.9995
 20
260.426
 30
0.000000
  70
    32
  0
VERTEX
  8
0
  5
2D00
 10
55.9438
 20
260.433
 30
0.000000
  70
    32
  0
VERTEX
  8
0
  5
2D01
 10
55.8872
 20
260.440
 30
0.000000
  70
    32
  0
VERTEX
  8
0
  5
2D02
 10
55.8298
 20
260.447
 30
0.000000
  70
    32
  0
VERTEX
  8
0
  5
2D03
 10
55.7714
 20
260.454
 30
0.000000
  70
    32
  0
VERTEX
  8
0
  5
2D04
 10
55.7121
 20
260.461
 30
0.000000
  70
    32
  0
VERTEX
  8
0
  5
2D05
 10
55.6519
 20
260.468
 30
0.000000
  70
    32
  0
VERTEX
  8
0
  5
2D06
 10
55.5909
 20
260.475
 30
0.000000
  70
    32
  0
VERTEX
  8
0
  5
2D07
 10
55.5289
 20
260.482
 30
0.000000
  70
    32
  0
VERTEX
  8
0
  5
2D08
 10
55.4660
 20
260.489
 30
0.000000
  70
    32
  0
VERTEX
  8
0
  5
2D09
 10
55.4022
 20
260.496
 30
0.000000
  70
    32
  0
VERTEX
  8
0
  5
2D0A
 10
55.3375
 20
260.503
 30
0.000000
  70
    32
  0
VERTEX
  8
0
  5
2D0B
 10
55.2719
 20
260.510
 30
0.000000
  70
    32
  0
VERTEX
  8
0
  5
2D0C
 10
55.2055
 20
260.517
 30
0.000000
  70
    32
  0
VERTEX
  8
0
  5
2D0D
 10
55.1381
 20
260.524
 30
0.000000
  70
    32
  0
VERTEX
  8
0
  5
2D0E
 10
55.0698
 20
260.531
 30
0.000000
  70
    32
  0
VERTEX
  8
0
  5
2D0F
 10
55.0006
 20
260.537
 30
0.000000
  70
    32
  0
VERTEX
  8
0
  5
2D10
 10
54.9306
 20
260.544
 30
0.000000
  70
    32
  0
VERTEX
  8
0
  5
2D11
 10
54.8596
 20
260.551
 30
0.000000
  70
    32
  0
VERTEX
  8
0
  5
2D12
 10
54.7877
 20
260.558
 30
0.000000
  70
    32
  0
VERTEX
  8
0
  5
2D13
 10
54.7149
 20
260.565
 30
0.000000
  70
    32
  0
VERTEX
  8
0
  5
2D14
 10
54.6413
 20
260.572
 30
0.000000
  70
    32
  0
VERTEX
  8
0
  5
2D15
 10
54.5667
 20
260.579
 30
0.000000
  70
    32
  0
VERTEX
  8
0
  5
2D16
 10
54.4912
 20
260.586
 30
0.000000
  70
    32
  0
VERTEX
  8
0
  5
2D17
 10
54.4149
 20
260.593
 30
0.000000
  70
    32
  0
VERTEX
  8
0
  5
2D18
 10
54.3376
 20
260.600
 30
0.000000
  70
    32
  0
VERTEX
  8
0
  5
2D19
 10
54.2594
 20
260.607
 30
0.000000
  70
    32
  0
VERTEX
  8
0
  5
2D1A
 10
54.1804
 20
260.614
 30
0.000000
  70
    32
  0
VERTEX
  8
0
  5
2D1B
 10
54.1004
 20
260.621
 30
0.000000
  70
    32
  0
VERTEX
  8
0
  5
2D1C
 10
54.0196
 20
260.628
 30
0.000000
  70
    32
  0
VERTEX
  8
0
  5
2D1D
 10
53.9379
 20
260.634
 30
0.000000
  70
    32
  0
VERTEX
  8
0
  5
2D1E
 10
53.8552
 20
260.641
 30
0.000000
  70
    32
  0
VERTEX
  8
0
  5
2D1F
 10
53.7717
 20
260.648
 30
0.000000
  70
    32
  0
VERTEX
  8
0
  5
2D20
 10
53.6873
 20
260.655
 30
0.000000
  70
    32
  0
VERTEX
  8
0
  5
2D21
 10
53.6019
 20
260.662
 30
0.000000
  70
    32
  0
VERTEX
  8
0
  5
2D22
 10
53.5157
 20
260.669
 30
0.000000
  70
    32
  0
VERTEX
  8
0
  5
2D23
 10
53.4286
 20
260.676
 30
0.000000
  70
    32
  0
VERTEX
  8
0
  5
2D24
 10
53.3406
 20
260.683
 30
0.000000
  70
    32
  0
VERTEX
  8
0
  5
2D25
 10
53.2517
 20
260.690
 30
0.000000
  70
    32
  0
VERTEX
  8
0
  5
2D26
 10
53.1619
 20
260.697
 30
0.000000
  70
    32
  0
VERTEX
  8
0
  5
2D27
 10
53.0712
 20
260.703
 30
0.000000
  70
    32
  0
VERTEX
  8
0
  5
2D28
 10
52.9797
 20
260.710
 30
0.000000
  70
    32
  0
VERTEX
  8
0
  5
2D29
 10
52.8872
 20
260.717
 30
0.000000
  70
    32
  0
VERTEX
  8
0
  5
2D2A
 10
52.7938
 20
260.724
 30
0.000000
  70
    32
  0
VERTEX
  8
0
  5
2D2B
 10
52.6996
 20
260.731
 30
0.000000
  70
    32
  0
VERTEX
  8
0
  5
2D2C
 10
52.6044
 20
260.738
 30
0.000000
  70
    32
  0
VERTEX
  8
0
  5
2D2D
 10
52.5084
 20
260.745
 30
0.000000
  70
    32
  0
VERTEX
  8
0
  5
2D2E
 10
52.4115
 20
260.752
 30
0.000000
  70
    32
  0
VERTEX
  8
0
  5
2D2F
 10
52.3136
 20
260.759
 30
0.000000
  70
    32
  0
VERTEX
  8
0
  5
2D30
 10
52.2149
 20
260.765
 30
0.000000
  70
    32
  0
VERTEX
  8
0
  5
2D31
 10
52.1153
 20
260.772
 30
0.000000
  70
    32
  0
VERTEX
  8
0
  5
2D32
 10
52.0148
 20
260.779
 30
0.000000
  70
    32
  0
VERTEX
  8
0
  5
2D33
 10
51.9135
 20
260.786
 30
0.000000
  70
    32
  0
VERTEX
  8
0
  5
2D34
 10
51.8112
 20
260.793
 30
0.000000
  70
    32
  0
VERTEX
  8
0
  5
2D35
 10
51.7080
 20
260.800
 30
0.000000
  70
    32
  0
VERTEX
  8
0
  5
2D36
 10
51.6040
 20
260.807
 30
0.000000
  70
    32
  0
VERTEX
  8
0
  5
2D37
 10
51.4991
 20
260.813
 30
0.000000
  70
    32
  0
VERTEX
  8
0
  5
2D38
 10
51.3932
 20
260.820
 30
0.000000
  70
    32
  0
VERTEX
  8
0
  5
2D39
 10
51.2865
 20
260.827
 30
0.000000
  70
    32
  0
VERTEX
  8
0
  5
2D3A
 10
51.1789
 20
260.834
 30
0.000000
  70
    32
  0
VERTEX
  8
0
  5
2D3B
 10
51.0704
 20
260.841
 30
0.000000
  70
    32
  0
VERTEX
  8
0
  5
2D3C
 10
50.9611
 20
260.848
 30
0.000000
  70
    32
  0
VERTEX
  8
0
  5
2D3D
 10
50.8508
 20
260.855
 30
0.000000
  70
    32
  0
VERTEX
  8
0
  5
2D3E
 10
50.7397
 20
260.861
 30
0.000000
  70
    32
  0
VERTEX
  8
0
  5
2D3F
 10
50.6276
 20
260.868
 30
0.000000
  70
    32
  0
VERTEX
  8
0
  5
2D40
 10
50.5147
 20
260.875
 30
0.000000
  70
    32
  0
VERTEX
  8
0
  5
2D41
 10
50.4009
 20
260.882
 30
0.000000
  70
    32
  0
VERTEX
  8
0
  5
2D42
 10
50.2862
 20
260.889
 30
0.000000
  70
    32
  0
SEQEND
  8
0
  5
2D43
  0
ARC
  5
25F7
  8
0
 10
50.341601400153479
 20
261.10279665942249
 30
0.0
 40
0.2211343190312225
 50
200.1438782283324
 51
255.4998775119428
  0
ARC
  5
25F8
  8
0
 10
54.000000000049987
 20
259.99999999994998
 30
0.0
 40
3.9999999999879479
 50
90.000000001431374
 51
165.1279898262141
  0
LINE
  5
25F9
  8
0
 10
124.9999999999477
 20
264.0
 30
0.0
 11
53.999999999949999
 21
263.99999999992508
 31
0.0
  0
ARC
  5
25FA
  8
0
 10
70.807510156304545
 20
258.92598646896448
 30
0.0
 40
5.0827281656868326
 50
93.355643783533637
 51
126.7225180019521
  0
POLYLINE
  5
25FB
  8
0
 10
67.768342613176074
 20
262.99999999999994
 30
0.0
 66
     1
 70
     8
  0
VERTEX
  8
0
  5
2D44
 10
67.7683
 20
263.000
 30
0.000000
  70
    32
  0
VERTEX
  8
0
  5
2D45
 10
67.7505
 20
262.989
 30
0.000000
  70
    32
  0
VERTEX
  8
0
  5
2D46
 10
67.7327
 20
262.978
 30
0.000000
  70
    32
  0
VERTEX
  8
0
  5
2D47
 10
67.7150
 20
262.966
 30
0.000000
  70
    32
  0
VERTEX
  8
0
  5
2D48
 10
67.6973
 20
262.955
 30
0.000000
  70
    32
  0
VERTEX
  8
0
  5
2D49
 10
67.6797
 20
262.944
 30
0.000000
  70
    32
  0
VERTEX
  8
0
  5
2D4A
 10
67.6622
 20
262.932
 30
0.000000
  70
    32
  0
VERTEX
  8
0
  5
2D4B
 10
67.6447
 20
262.921
 30
0.000000
  70
    32
  0
VERTEX
  8
0
  5
2D4C
 10
67.6274
 20
262.909
 30
0.000000
  70
    32
  0
VERTEX
  8
0
  5
2D4D
 10
67.6100
 20
262.897
 30
0.000000
  70
    32
  0
VERTEX
  8
0
  5
2D4E
 10
67.5928
 20
262.886
 30
0.000000
  70
    32
  0
VERTEX
  8
0
  5
2D4F
 10
67.5756
 20
262.874
 30
0.000000
  70
    32
  0
VERTEX
  8
0
  5
2D50
 10
67.5585
 20
262.862
 30
0.000000
  70
    32
  0
VERTEX
  8
0
  5
2D51
 10
67.5415
 20
262.851
 30
0.000000
  70
    32
  0
VERTEX
  8
0
  5
2D52
 10
67.5245
 20
262.839
 30
0.000000
  70
    32
  0
VERTEX
  8
0
  5
2D53
 10
67.5076
 20
262.827
 30
0.000000
  70
    32
  0
VERTEX
  8
0
  5
2D54
 10
67.4908
 20
262.815
 30
0.000000
  70
    32
  0
VERTEX
  8
0
  5
2D55
 10
67.4740
 20
262.803
 30
0.000000
  70
    32
  0
VERTEX
  8
0
  5
2D56
 10
67.4574
 20
262.791
 30
0.000000
  70
    32
  0
VERTEX
  8
0
  5
2D57
 10
67.4408
 20
262.779
 30
0.000000
  70
    32
  0
VERTEX
  8
0
  5
2D58
 10
67.4242
 20
262.766
 30
0.000000
  70
    32
  0
VERTEX
  8
0
  5
2D59
 10
67.4078
 20
262.754
 30
0.000000
  70
    32
  0
VERTEX
  8
0
  5
2D5A
 10
67.3914
 20
262.742
 30
0.000000
  70
    32
  0
VERTEX
  8
0
  5
2D5B
 10
67.3750
 20
262.730
 30
0.000000
  70
    32
  0
VERTEX
  8
0
  5
2D5C
 10
67.3588
 20
262.717
 30
0.000000
  70
    32
  0
VERTEX
  8
0
  5
2D5D
 10
67.3426
 20
262.705
 30
0.000000
  70
    32
  0
VERTEX
  8
0
  5
2D5E
 10
67.3265
 20
262.692
 30
0.000000
  70
    32
  0
VERTEX
  8
0
  5
2D5F
 10
67.3105
 20
262.680
 30
0.000000
  70
    32
  0
VERTEX
  8
0
  5
2D60
 10
67.2946
 20
262.667
 30
0.000000
  70
    32
  0
VERTEX
  8
0
  5
2D61
 10
67.2787
 20
262.655
 30
0.000000
  70
    32
  0
VERTEX
  8
0
  5
2D62
 10
67.2629
 20
262.642
 30
0.000000
  70
    32
  0
VERTEX
  8
0
  5
2D63
 10
67.2472
 20
262.629
 30
0.000000
  70
    32
  0
VERTEX
  8
0
  5
2D64
 10
67.2315
 20
262.617
 30
0.000000
  70
    32
  0
VERTEX
  8
0
  5
2D65
 10
67.2160
 20
262.604
 30
0.000000
  70
    32
  0
VERTEX
  8
0
  5
2D66
 10
67.2005
 20
262.591
 30
0.000000
  70
    32
  0
VERTEX
  8
0
  5
2D67
 10
67.1851
 20
262.578
 30
0.000000
  70
    32
  0
VERTEX
  8
0
  5
2D68
 10
67.1697
 20
262.565
 30
0.000000
  70
    32
  0
VERTEX
  8
0
  5
2D69
 10
67.1545
 20
262.552
 30
0.000000
  70
    32
  0
VERTEX
  8
0
  5
2D6A
 10
67.1393
 20
262.539
 30
0.000000
  70
    32
  0
VERTEX
  8
0
  5
2D6B
 10
67.1242
 20
262.526
 30
0.000000
  70
    32
  0
VERTEX
  8
0
  5
2D6C
 10
67.1091
 20
262.513
 30
0.000000
  70
    32
  0
VERTEX
  8
0
  5
2D6D
 10
67.0942
 20
262.500
 30
0.000000
  70
    32
  0
VERTEX
  8
0
  5
2D6E
 10
67.0793
 20
262.487
 30
0.000000
  70
    32
  0
VERTEX
  8
0
  5
2D6F
 10
67.0645
 20
262.474
 30
0.000000
  70
    32
  0
VERTEX
  8
0
  5
2D70
 10
67.0498
 20
262.460
 30
0.000000
  70
    32
  0
VERTEX
  8
0
  5
2D71
 10
67.0352
 20
262.447
 30
0.000000
  70
    32
  0
VERTEX
  8
0
  5
2D72
 10
67.0206
 20
262.434
 30
0.000000
  70
    32
  0
VERTEX
  8
0
  5
2D73
 10
67.0062
 20
262.420
 30
0.000000
  70
    32
  0
VERTEX
  8
0
  5
2D74
 10
66.9918
 20
262.407
 30
0.000000
  70
    32
  0
VERTEX
  8
0
  5
2D75
 10
66.9774
 20
262.393
 30
0.000000
  70
    32
  0
VERTEX
  8
0
  5
2D76
 10
66.9632
 20
262.380
 30
0.000000
  70
    32
  0
VERTEX
  8
0
  5
2D77
 10
66.9491
 20
262.366
 30
0.000000
  70
    32
  0
VERTEX
  8
0
  5
2D78
 10
66.9350
 20
262.353
 30
0.000000
  70
    32
  0
VERTEX
  8
0
  5
2D79
 10
66.9210
 20
262.339
 30
0.000000
  70
    32
  0
VERTEX
  8
0
  5
2D7A
 10
66.9071
 20
262.325
 30
0.000000
  70
    32
  0
VERTEX
  8
0
  5
2D7B
 10
66.8933
 20
262.311
 30
0.000000
  70
    32
  0
VERTEX
  8
0
  5
2D7C
 10
66.8795
 20
262.298
 30
0.000000
  70
    32
  0
VERTEX
  8
0
  5
2D7D
 10
66.8658
 20
262.284
 30
0.000000
  70
    32
  0
VERTEX
  8
0
  5
2D7E
 10
66.8523
 20
262.270
 30
0.000000
  70
    32
  0
VERTEX
  8
0
  5
2D7F
 10
66.8388
 20
262.256
 30
0.000000
  70
    32
  0
VERTEX
  8
0
  5
2D80
 10
66.8254
 20
262.242
 30
0.000000
  70
    32
  0
VERTEX
  8
0
  5
2D81
 10
66.8120
 20
262.228
 30
0.000000
  70
    32
  0
VERTEX
  8
0
  5
2D82
 10
66.7988
 20
262.214
 30
0.000000
  70
    32
  0
VERTEX
  8
0
  5
2D83
 10
66.7856
 20
262.200
 30
0.000000
  70
    32
  0
VERTEX
  8
0
  5
2D84
 10
66.7725
 20
262.186
 30
0.000000
  70
    32
  0
VERTEX
  8
0
  5
2D85
 10
66.7595
 20
262.172
 30
0.000000
  70
    32
  0
VERTEX
  8
0
  5
2D86
 10
66.7466
 20
262.158
 30
0.000000
  70
    32
  0
VERTEX
  8
0
  5
2D87
 10
66.7338
 20
262.143
 30
0.000000
  70
    32
  0
VERTEX
  8
0
  5
2D88
 10
66.7211
 20
262.129
 30
0.000000
  70
    32
  0
VERTEX
  8
0
  5
2D89
 10
66.7084
 20
262.115
 30
0.000000
  70
    32
  0
VERTEX
  8
0
  5
2D8A
 10
66.6958
 20
262.100
 30
0.000000
  70
    32
  0
VERTEX
  8
0
  5
2D8B
 10
66.6834
 20
262.086
 30
0.000000
  70
    32
  0
VERTEX
  8
0
  5
2D8C
 10
66.6710
 20
262.072
 30
0.000000
  70
    32
  0
VERTEX
  8
0
  5
2D8D
 10
66.6586
 20
262.057
 30
0.000000
  70
    32
  0
VERTEX
  8
0
  5
2D8E
 10
66.6464
 20
262.043
 30
0.000000
  70
    32
  0
VERTEX
  8
0
  5
2D8F
 10
66.6343
 20
262.028
 30
0.000000
  70
    32
  0
VERTEX
  8
0
  5
2D90
 10
66.6222
 20
262.014
 30
0.000000
  70
    32
  0
VERTEX
  8
0
  5
2D91
 10
66.6103
 20
261.999
 30
0.000000
  70
    32
  0
VERTEX
  8
0
  5
2D92
 10
66.5984
 20
261.984
 30
0.000000
  70
    32
  0
VERTEX
  8
0
  5
2D93
 10
66.5866
 20
261.970
 30
0.000000
  70
    32
  0
VERTEX
  8
0
  5
2D94
 10
66.5749
 20
261.955
 30
0.000000
  70
    32
  0
VERTEX
  8
0
  5
2D95
 10
66.5633
 20
261.940
 30
0.000000
  70
    32
  0
VERTEX
  8
0
  5
2D96
 10
66.5517
 20
261.926
 30
0.000000
  70
    32
  0
VERTEX
  8
0
  5
2D97
 10
66.5403
 20
261.911
 30
0.000000
  70
    32
  0
VERTEX
  8
0
  5
2D98
 10
66.5289
 20
261.896
 30
0.000000
  70
    32
  0
VERTEX
  8
0
  5
2D99
 10
66.5177
 20
261.881
 30
0.000000
  70
    32
  0
VERTEX
  8
0
  5
2D9A
 10
66.5065
 20
261.866
 30
0.000000
  70
    32
  0
VERTEX
  8
0
  5
2D9B
 10
66.4954
 20
261.851
 30
0.000000
  70
    32
  0
VERTEX
  8
0
  5
2D9C
 10
66.4844
 20
261.836
 30
0.000000
  70
    32
  0
VERTEX
  8
0
  5
2D9D
 10
66.4735
 20
261.821
 30
0.000000
  70
    32
  0
VERTEX
  8
0
  5
2D9E
 10
66.4627
 20
261.806
 30
0.000000
  70
    32
  0
VERTEX
  8
0
  5
2D9F
 10
66.4520
 20
261.791
 30
0.000000
  70
    32
  0
VERTEX
  8
0
  5
2DA0
 10
66.4413
 20
261.776
 30
0.000000
  70
    32
  0
VERTEX
  8
0
  5
2DA1
 10
66.4308
 20
261.761
 30
0.000000
  70
    32
  0
VERTEX
  8
0
  5
2DA2
 10
66.4203
 20
261.746
 30
0.000000
  70
    32
  0
VERTEX
  8
0
  5
2DA3
 10
66.4100
 20
261.731
 30
0.000000
  70
    32
  0
VERTEX
  8
0
  5
2DA4
 10
66.3997
 20
261.715
 30
0.000000
  70
    32
  0
VERTEX
  8
0
  5
2DA5
 10
66.3895
 20
261.700
 30
0.000000
  70
    32
  0
VERTEX
  8
0
  5
2DA6
 10
66.3794
 20
261.685
 30
0.000000
  70
    32
  0
VERTEX
  8
0
  5
2DA7
 10
66.3694
 20
261.669
 30
0.000000
  70
    32
  0
VERTEX
  8
0
  5
2DA8
 10
66.3595
 20
261.654
 30
0.000000
  70
    32
  0
VERTEX
  8
0
  5
2DA9
 10
66.3497
 20
261.639
 30
0.000000
  70
    32
  0
VERTEX
  8
0
  5
2DAA
 10
66.3399
 20
261.623
 30
0.000000
  70
    32
  0
VERTEX
  8
0
  5
2DAB
 10
66.3303
 20
261.608
 30
0.000000
  70
    32
  0
VERTEX
  8
0
  5
2DAC
 10
66.3208
 20
261.592
 30
0.000000
  70
    32
  0
VERTEX
  8
0
  5
2DAD
 10
66.3113
 20
261.577
 30
0.000000
  70
    32
  0
VERTEX
  8
0
  5
2DAE
 10
66.3020
 20
261.561
 30
0.000000
  70
    32
  0
VERTEX
  8
0
  5
2DAF
 10
66.2927
 20
261.546
 30
0.000000
  70
    32
  0
VERTEX
  8
0
  5
2DB0
 10
66.2835
 20
261.530
 30
0.000000
  70
    32
  0
VERTEX
  8
0
  5
2DB1
 10
66.2744
 20
261.515
 30
0.000000
  70
    32
  0
VERTEX
  8
0
  5
2DB2
 10
66.2654
 20
261.499
 30
0.000000
  70
    32
  0
VERTEX
  8
0
  5
2DB3
 10
66.2566
 20
261.483
 30
0.000000
  70
    32
  0
VERTEX
  8
0
  5
2DB4
 10
66.2478
 20
261.468
 30
0.000000
  70
    32
  0
VERTEX
  8
0
  5
2DB5
 10
66.2390
 20
261.452
 30
0.000000
  70
    32
  0
VERTEX
  8
0
  5
2DB6
 10
66.2304
 20
261.436
 30
0.000000
  70
    32
  0
VERTEX
  8
0
  5
2DB7
 10
66.2219
 20
261.421
 30
0.000000
  70
    32
  0
VERTEX
  8
0
  5
2DB8
 10
66.2135
 20
261.405
 30
0.000000
  70
    32
  0
VERTEX
  8
0
  5
2DB9
 10
66.2052
 20
261.389
 30
0.000000
  70
    32
  0
VERTEX
  8
0
  5
2DBA
 10
66.1969
 20
261.373
 30
0.000000
  70
    32
  0
VERTEX
  8
0
  5
2DBB
 10
66.1888
 20
261.357
 30
0.000000
  70
    32
  0
VERTEX
  8
0
  5
2DBC
 10
66.1807
 20
261.341
 30
0.000000
  70
    32
  0
VERTEX
  8
0
  5
2DBD
 10
66.1728
 20
261.326
 30
0.000000
  70
    32
  0
VERTEX
  8
0
  5
2DBE
 10
66.1649
 20
261.310
 30
0.000000
  70
    32
  0
VERTEX
  8
0
  5
2DBF
 10
66.1572
 20
261.294
 30
0.000000
  70
    32
  0
VERTEX
  8
0
  5
2DC0
 10
66.1495
 20
261.278
 30
0.000000
  70
    32
  0
VERTEX
  8
0
  5
2DC1
 10
66.1419
 20
261.262
 30
0.000000
  70
    32
  0
VERTEX
  8
0
  5
2DC2
 10
66.1344
 20
261.246
 30
0.000000
  70
    32
  0
VERTEX
  8
0
  5
2DC3
 10
66.1271
 20
261.230
 30
0.000000
  70
    32
  0
VERTEX
  8
0
  5
2DC4
 10
66.1198
 20
261.214
 30
0.000000
  70
    32
  0
SEQEND
  8
0
  5
2DC5
  0
ARC
  5
25FC
  8
0
 10
50.331570106038207
 20
227.90827480929491
 30
0.0
 40
0.2080196406243215
 50
102.5883431401484
 51
161.76790111570611
  0
POLYLINE
  5
25FD
  8
0
 10
50.286233249209687
 20
228.11129389164262
 30
0.0
 66
     1
 70
     8
  0
VERTEX
  8
0
  5
2DC6
 10
50.2862
 20
228.111
 30
0.000000
  70
    32
  0
VERTEX
  8
0
  5
2DC7
 10
50.4009
 20
228.118
 30
0.000000
  70
    32
  0
VERTEX
  8
0
  5
2DC8
 10
50.5147
 20
228.125
 30
0.000000
  70
    32
  0
VERTEX
  8
0
  5
2DC9
 10
50.6276
 20
228.132
 30
0.000000
  70
    32
  0
VERTEX
  8
0
  5
2DCA
 10
50.7397
 20
228.139
 30
0.000000
  70
    32
  0
VERTEX
  8
0
  5
2DCB
 10
50.8508
 20
228.145
 30
0.000000
  70
    32
  0
VERTEX
  8
0
  5
2DCC
 10
50.9611
 20
228.152
 30
0.000000
  70
    32
  0
VERTEX
  8
0
  5
2DCD
 10
51.0704
 20
228.159
 30
0.000000
  70
    32
  0
VERTEX
  8
0
  5
2DCE
 10
51.1789
 20
228.166
 30
0.000000
  70
    32
  0
VERTEX
  8
0
  5
2DCF
 10
51.2865
 20
228.173
 30
0.000000
  70
    32
  0
VERTEX
  8
0
  5
2DD0
 10
51.3932
 20
228.180
 30
0.000000
  70
    32
  0
VERTEX
  8
0
  5
2DD1
 10
51.4991
 20
228.187
 30
0.000000
  70
    32
  0
VERTEX
  8
0
  5
2DD2
 10
51.6040
 20
228.193
 30
0.000000
  70
    32
  0
VERTEX
  8
0
  5
2DD3
 10
51.7080
 20
228.200
 30
0.000000
  70
    32
  0
VERTEX
  8
0
  5
2DD4
 10
51.8112
 20
228.207
 30
0.000000
  70
    32
  0
VERTEX
  8
0
  5
2DD5
 10
51.9135
 20
228.214
 30
0.000000
  70
    32
  0
VERTEX
  8
0
  5
2DD6
 10
52.0148
 20
228.221
 30
0.000000
  70
    32
  0
VERTEX
  8
0
  5
2DD7
 10
52.1153
 20
228.228
 30
0.000000
  70
    32
  0
VERTEX
  8
0
  5
2DD8
 10
52.2149
 20
228.235
 30
0.000000
  70
    32
  0
VERTEX
  8
0
  5
2DD9
 10
52.3136
 20
228.241
 30
0.000000
  70
    32
  0
VERTEX
  8
0
  5
2DDA
 10
52.4115
 20
228.248
 30
0.000000
  70
    32
  0
VERTEX
  8
0
  5
2DDB
 10
52.5084
 20
228.255
 30
0.000000
  70
    32
  0
VERTEX
  8
0
  5
2DDC
 10
52.6044
 20
228.262
 30
0.000000
  70
    32
  0
VERTEX
  8
0
  5
2DDD
 10
52.6996
 20
228.269
 30
0.000000
  70
    32
  0
VERTEX
  8
0
  5
2DDE
 10
52.7938
 20
228.276
 30
0.000000
  70
    32
  0
VERTEX
  8
0
  5
2DDF
 10
52.8872
 20
228.283
 30
0.000000
  70
    32
  0
VERTEX
  8
0
  5
2DE0
 10
52.9797
 20
228.290
 30
0.000000
  70
    32
  0
VERTEX
  8
0
  5
2DE1
 10
53.0712
 20
228.297
 30
0.000000
  70
    32
  0
VERTEX
  8
0
  5
2DE2
 10
53.1619
 20
228.303
 30
0.000000
  70
    32
  0
VERTEX
  8
0
  5
2DE3
 10
53.2517
 20
228.310
 30
0.000000
  70
    32
  0
VERTEX
  8
0
  5
2DE4
 10
53.3406
 20
228.317
 30
0.000000
  70
    32
  0
VERTEX
  8
0
  5
2DE5
 10
53.4286
 20
228.324
 30
0.000000
  70
    32
  0
VERTEX
  8
0
  5
2DE6
 10
53.5157
 20
228.331
 30
0.000000
  70
    32
  0
VERTEX
  8
0
  5
2DE7
 10
53.6019
 20
228.338
 30
0.000000
  70
    32
  0
VERTEX
  8
0
  5
2DE8
 10
53.6873
 20
228.345
 30
0.000000
  70
    32
  0
VERTEX
  8
0
  5
2DE9
 10
53.7717
 20
228.352
 30
0.000000
  70
    32
  0
VERTEX
  8
0
  5
2DEA
 10
53.8552
 20
228.359
 30
0.000000
  70
    32
  0
VERTEX
  8
0
  5
2DEB
 10
53.9379
 20
228.366
 30
0.000000
  70
    32
  0
VERTEX
  8
0
  5
2DEC
 10
54.0196
 20
228.372
 30
0.000000
  70
    32
  0
VERTEX
  8
0
  5
2DED
 10
54.1004
 20
228.379
 30
0.000000
  70
    32
  0
VERTEX
  8
0
  5
2DEE
 10
54.1804
 20
228.386
 30
0.000000
  70
    32
  0
VERTEX
  8
0
  5
2DEF
 10
54.2594
 20
228.393
 30
0.000000
  70
    32
  0
VERTEX
  8
0
  5
2DF0
 10
54.3376
 20
228.400
 30
0.000000
  70
    32
  0
VERTEX
  8
0
  5
2DF1
 10
54.4149
 20
228.407
 30
0.000000
  70
    32
  0
VERTEX
  8
0
  5
2DF2
 10
54.4912
 20
228.414
 30
0.000000
  70
    32
  0
VERTEX
  8
0
  5
2DF3
 10
54.5667
 20
228.421
 30
0.000000
  70
    32
  0
VERTEX
  8
0
  5
2DF4
 10
54.6413
 20
228.428
 30
0.000000
  70
    32
  0
VERTEX
  8
0
  5
2DF5
 10
54.7149
 20
228.435
 30
0.000000
  70
    32
  0
VERTEX
  8
0
  5
2DF6
 10
54.7877
 20
228.442
 30
0.000000
  70
    32
  0
VERTEX
  8
0
  5
2DF7
 10
54.8596
 20
228.449
 30
0.000000
  70
    32
  0
VERTEX
  8
0
  5
2DF8
 10
54.9306
 20
228.456
 30
0.000000
  70
    32
  0
VERTEX
  8
0
  5
2DF9
 10
55.0006
 20
228.463
 30
0.000000
  70
    32
  0
VERTEX
  8
0
  5
2DFA
 10
55.0698
 20
228.469
 30
0.000000
  70
    32
  0
VERTEX
  8
0
  5
2DFB
 10
55.1381
 20
228.476
 30
0.000000
  70
    32
  0
VERTEX
  8
0
  5
2DFC
 10
55.2055
 20
228.483
 30
0.000000
  70
    32
  0
VERTEX
  8
0
  5
2DFD
 10
55.2719
 20
228.490
 30
0.000000
  70
    32
  0
VERTEX
  8
0
  5
2DFE
 10
55.3375
 20
228.497
 30
0.000000
  70
    32
  0
VERTEX
  8
0
  5
2DFF
 10
55.4022
 20
228.504
 30
0.000000
  70
    32
  0
VERTEX
  8
0
  5
2E00
 10
55.4660
 20
228.511
 30
0.000000
  70
    32
  0
VERTEX
  8
0
  5
2E01
 10
55.5289
 20
228.518
 30
0.000000
  70
    32
  0
VERTEX
  8
0
  5
2E02
 10
55.5909
 20
228.525
 30
0.000000
  70
    32
  0
VERTEX
  8
0
  5
2E03
 10
55.6519
 20
228.532
 30
0.000000
  70
    32
  0
VERTEX
  8
0
  5
2E04
 10
55.7121
 20
228.539
 30
0.000000
  70
    32
  0
VERTEX
  8
0
  5
2E05
 10
55.7714
 20
228.546
 30
0.000000
  70
    32
  0
VERTEX
  8
0
  5
2E06
 10
55.8298
 20
228.553
 30
0.000000
  70
    32
  0
VERTEX
  8
0
  5
2E07
 10
55.8872
 20
228.560
 30
0.000000
  70
    32
  0
VERTEX
  8
0
  5
2E08
 10
55.9438
 20
228.567
 30
0.000000
  70
    32
  0
VERTEX
  8
0
  5
2E09
 10
55.9995
 20
228.574
 30
0.000000
  70
    32
  0
VERTEX
  8
0
  5
2E0A
 10
56.0543
 20
228.581
 30
0.000000
  70
    32
  0
VERTEX
  8
0
  5
2E0B
 10
56.1081
 20
228.588
 30
0.000000
  70
    32
  0
VERTEX
  8
0
  5
2E0C
 10
56.1611
 20
228.595
 30
0.000000
  70
    32
  0
VERTEX
  8
0
  5
2E0D
 10
56.2132
 20
228.602
 30
0.000000
  70
    32
  0
VERTEX
  8
0
  5
2E0E
 10
56.2643
 20
228.609
 30
0.000000
  70
    32
  0
VERTEX
  8
0
  5
2E0F
 10
56.3146
 20
228.616
 30
0.000000
  70
    32
  0
VERTEX
  8
0
  5
2E10
 10
56.3639
 20
228.622
 30
0.000000
  70
    32
  0
VERTEX
  8
0
  5
2E11
 10
56.4124
 20
228.629
 30
0.000000
  70
    32
  0
VERTEX
  8
0
  5
2E12
 10
56.4600
 20
228.636
 30
0.000000
  70
    32
  0
VERTEX
  8
0
  5
2E13
 10
56.5066
 20
228.643
 30
0.000000
  70
    32
  0
VERTEX
  8
0
  5
2E14
 10
56.5523
 20
228.650
 30
0.000000
  70
    32
  0
VERTEX
  8
0
  5
2E15
 10
56.5972
 20
228.657
 30
0.000000
  70
    32
  0
VERTEX
  8
0
  5
2E16
 10
56.6411
 20
228.664
 30
0.000000
  70
    32
  0
VERTEX
  8
0
  5
2E17
 10
56.6842
 20
228.671
 30
0.000000
  70
    32
  0
VERTEX
  8
0
  5
2E18
 10
56.7263
 20
228.678
 30
0.000000
  70
    32
  0
VERTEX
  8
0
  5
2E19
 10
56.7675
 20
228.685
 30
0.000000
  70
    32
  0
VERTEX
  8
0
  5
2E1A
 10
56.8078
 20
228.692
 30
0.000000
  70
    32
  0
VERTEX
  8
0
  5
2E1B
 10
56.8472
 20
228.699
 30
0.000000
  70
    32
  0
VERTEX
  8
0
  5
2E1C
 10
56.8858
 20
228.706
 30
0.000000
  70
    32
  0
VERTEX
  8
0
  5
2E1D
 10
56.9234
 20
228.713
 30
0.000000
  70
    32
  0
VERTEX
  8
0
  5
2E1E
 10
56.9601
 20
228.720
 30
0.000000
  70
    32
  0
VERTEX
  8
0
  5
2E1F
 10
56.9959
 20
228.727
 30
0.000000
  70
    32
  0
VERTEX
  8
0
  5
2E20
 10
57.0308
 20
228.734
 30
0.000000
  70
    32
  0
VERTEX
  8
0
  5
2E21
 10
57.0647
 20
228.741
 30
0.000000
  70
    32
  0
VERTEX
  8
0
  5
2E22
 10
57.0978
 20
228.748
 30
0.000000
  70
    32
  0
VERTEX
  8
0
  5
2E23
 10
57.1300
 20
228.755
 30
0.000000
  70
    32
  0
VERTEX
  8
0
  5
2E24
 10
57.1613
 20
228.762
 30
0.000000
  70
    32
  0
VERTEX
  8
0
  5
2E25
 10
57.1916
 20
228.769
 30
0.000000
  70
    32
  0
VERTEX
  8
0
  5
2E26
 10
57.2211
 20
228.776
 30
0.000000
  70
    32
  0
VERTEX
  8
0
  5
2E27
 10
57.2497
 20
228.783
 30
0.000000
  70
    32
  0
VERTEX
  8
0
  5
2E28
 10
57.2773
 20
228.790
 30
0.000000
  70
    32
  0
VERTEX
  8
0
  5
2E29
 10
57.3041
 20
228.797
 30
0.000000
  70
    32
  0
VERTEX
  8
0
  5
2E2A
 10
57.3299
 20
228.804
 30
0.000000
  70
    32
  0
VERTEX
  8
0
  5
2E2B
 10
57.3548
 20
228.811
 30
0.000000
  70
    32
  0
VERTEX
  8
0
  5
2E2C
 10
57.3789
 20
228.818
 30
0.000000
  70
    32
  0
VERTEX
  8
0
  5
2E2D
 10
57.4020
 20
228.825
 30
0.000000
  70
    32
  0
VERTEX
  8
0
  5
2E2E
 10
57.4242
 20
228.832
 30
0.000000
  70
    32
  0
VERTEX
  8
0
  5
2E2F
 10
57.4455
 20
228.839
 30
0.000000
  70
    32
  0
VERTEX
  8
0
  5
2E30
 10
57.4659
 20
228.846
 30
0.000000
  70
    32
  0
VERTEX
  8
0
  5
2E31
 10
57.4854
 20
228.853
 30
0.000000
  70
    32
  0
VERTEX
  8
0
  5
2E32
 10
57.5040
 20
228.860
 30
0.000000
  70
    32
  0
VERTEX
  8
0
  5
2E33
 10
57.5217
 20
228.867
 30
0.000000
  70
    32
  0
VERTEX
  8
0
  5
2E34
 10
57.5385
 20
228.874
 30
0.000000
  70
    32
  0
VERTEX
  8
0
  5
2E35
 10
57.5543
 20
228.881
 30
0.000000
  70
    32
  0
VERTEX
  8
0
  5
2E36
 10
57.5693
 20
228.888
 30
0.000000
  70
    32
  0
VERTEX
  8
0
  5
2E37
 10
57.5833
 20
228.895
 30
0.000000
  70
    32
  0
VERTEX
  8
0
  5
2E38
 10
57.5965
 20
228.902
 30
0.000000
  70
    32
  0
VERTEX
  8
0
  5
2E39
 10
57.6087
 20
228.909
 30
0.000000
  70
    32
  0
VERTEX
  8
0
  5
2E3A
 10
57.6201
 20
228.916
 30
0.000000
  70
    32
  0
VERTEX
  8
0
  5
2E3B
 10
57.6305
 20
228.923
 30
0.000000
  70
    32
  0
VERTEX
  8
0
  5
2E3C
 10
57.6400
 20
228.930
 30
0.000000
  70
    32
  0
VERTEX
  8
0
  5
2E3D
 10
57.6486
 20
228.937
 30
0.000000
  70
    32
  0
VERTEX
  8
0
  5
2E3E
 10
57.6563
 20
228.944
 30
0.000000
  70
    32
  0
VERTEX
  8
0
  5
2E3F
 10
57.6632
 20
228.951
 30
0.000000
  70
    32
  0
VERTEX
  8
0
  5
2E40
 10
57.6690
 20
228.958
 30
0.000000
  70
    32
  0
VERTEX
  8
0
  5
2E41
 10
57.6740
 20
228.965
 30
0.000000
  70
    32
  0
VERTEX
  8
0
  5
2E42
 10
57.6781
 20
228.972
 30
0.000000
  70
    32
  0
VERTEX
  8
0
  5
2E43
 10
57.6813
 20
228.979
 30
0.000000
  70
    32
  0
VERTEX
  8
0
  5
2E44
 10
57.6836
 20
228.986
 30
0.000000
  70
    32
  0
VERTEX
  8
0
  5
2E45
 10
57.6849
 20
228.993
 30
0.000000
  70
    32
  0
VERTEX
  8
0
  5
2E46
 10
57.6854
 20
229.000
 30
0.000000
  70
    32
  0
SEQEND
  8
0
  5
2E47
  0
POLYLINE
  5
25FE
  8
0
 10
66.119768049862074
 20
227.78645158229043
 30
0.0
 66
     1
 70
     8
  0
VERTEX
  8
0
  5
2E48
 10
66.1198
 20
227.786
 30
0.000000
  70
    32
  0
VERTEX
  8
0
  5
2E49
 10
66.1271
 20
227.770
 30
0.000000
  70
    32
  0
VERTEX
  8
0
  5
2E4A
 10
66.1344
 20
227.754
 30
0.000000
  70
    32
  0
VERTEX
  8
0
  5
2E4B
 10
66.1419
 20
227.738
 30
0.000000
  70
    32
  0
VERTEX
  8
0
  5
2E4C
 10
66.1495
 20
227.722
 30
0.000000
  70
    32
  0
VERTEX
  8
0
  5
2E4D
 10
66.1572
 20
227.706
 30
0.000000
  70
    32
  0
VERTEX
  8
0
  5
2E4E
 10
66.1649
 20
227.690
 30
0.000000
  70
    32
  0
VERTEX
  8
0
  5
2E4F
 10
66.1728
 20
227.674
 30
0.000000
  70
    32
  0
VERTEX
  8
0
  5
2E50
 10
66.1807
 20
227.659
 30
0.000000
  70
    32
  0
VERTEX
  8
0
  5
2E51
 10
66.1888
 20
227.643
 30
0.000000
  70
    32
  0
VERTEX
  8
0
  5
2E52
 10
66.1969
 20
227.627
 30
0.000000
  70
    32
  0
VERTEX
  8
0
  5
2E53
 10
66.2052
 20
227.611
 30
0.000000
  70
    32
  0
VERTEX
  8
0
  5
2E54
 10
66.2135
 20
227.595
 30
0.000000
  70
    32
  0
VERTEX
  8
0
  5
2E55
 10
66.2219
 20
227.579
 30
0.000000
  70
    32
  0
VERTEX
  8
0
  5
2E56
 10
66.2304
 20
227.564
 30
0.000000
  70
    32
  0
VERTEX
  8
0
  5
2E57
 10
66.2390
 20
227.548
 30
0.000000
  70
    32
  0
VERTEX
  8
0
  5
2E58
 10
66.2478
 20
227.532
 30
0.000000
  70
    32
  0
VERTEX
  8
0
  5
2E59
 10
66.2566
 20
227.517
 30
0.000000
  70
    32
  0
VERTEX
  8
0
  5
2E5A
 10
66.2654
 20
227.501
 30
0.000000
  70
    32
  0
VERTEX
  8
0
  5
2E5B
 10
66.2744
 20
227.485
 30
0.000000
  70
    32
  0
VERTEX
  8
0
  5
2E5C
 10
66.2835
 20
227.470
 30
0.000000
  70
    32
  0
VERTEX
  8
0
  5
2E5D
 10
66.2927
 20
227.454
 30
0.000000
  70
    32
  0
VERTEX
  8
0
  5
2E5E
 10
66.3020
 20
227.439
 30
0.000000
  70
    32
  0
VERTEX
  8
0
  5
2E5F
 10
66.3113
 20
227.423
 30
0.000000
  70
    32
  0
VERTEX
  8
0
  5
2E60
 10
66.3208
 20
227.408
 30
0.000000
  70
    32
  0
VERTEX
  8
0
  5
2E61
 10
66.3303
 20
227.392
 30
0.000000
  70
    32
  0
VERTEX
  8
0
  5
2E62
 10
66.3399
 20
227.377
 30
0.000000
  70
    32
  0
VERTEX
  8
0
  5
2E63
 10
66.3497
 20
227.361
 30
0.000000
  70
    32
  0
VERTEX
  8
0
  5
2E64
 10
66.3595
 20
227.346
 30
0.000000
  70
    32
  0
VERTEX
  8
0
  5
2E65
 10
66.3694
 20
227.331
 30
0.000000
  70
    32
  0
VERTEX
  8
0
  5
2E66
 10
66.3794
 20
227.315
 30
0.000000
  70
    32
  0
VERTEX
  8
0
  5
2E67
 10
66.3895
 20
227.300
 30
0.000000
  70
    32
  0
VERTEX
  8
0
  5
2E68
 10
66.3997
 20
227.285
 30
0.000000
  70
    32
  0
VERTEX
  8
0
  5
2E69
 10
66.4100
 20
227.269
 30
0.000000
  70
    32
  0
VERTEX
  8
0
  5
2E6A
 10
66.4203
 20
227.254
 30
0.000000
  70
    32
  0
VERTEX
  8
0
  5
2E6B
 10
66.4308
 20
227.239
 30
0.000000
  70
    32
  0
VERTEX
  8
0
  5
2E6C
 10
66.4413
 20
227.224
 30
0.000000
  70
    32
  0
VERTEX
  8
0
  5
2E6D
 10
66.4520
 20
227.209
 30
0.000000
  70
    32
  0
VERTEX
  8
0
  5
2E6E
 10
66.4627
 20
227.194
 30
0.000000
  70
    32
  0
VERTEX
  8
0
  5
2E6F
 10
66.4735
 20
227.179
 30
0.000000
  70
    32
  0
VERTEX
  8
0
  5
2E70
 10
66.4844
 20
227.164
 30
0.000000
  70
    32
  0
VERTEX
  8
0
  5
2E71
 10
66.4954
 20
227.149
 30
0.000000
  70
    32
  0
VERTEX
  8
0
  5
2E72
 10
66.5065
 20
227.134
 30
0.000000
  70
    32
  0
VERTEX
  8
0
  5
2E73
 10
66.5177
 20
227.119
 30
0.000000
  70
    32
  0
VERTEX
  8
0
  5
2E74
 10
66.5289
 20
227.104
 30
0.000000
  70
    32
  0
VERTEX
  8
0
  5
2E75
 10
66.5403
 20
227.089
 30
0.000000
  70
    32
  0
VERTEX
  8
0
  5
2E76
 10
66.5517
 20
227.074
 30
0.000000
  70
    32
  0
VERTEX
  8
0
  5
2E77
 10
66.5633
 20
227.060
 30
0.000000
  70
    32
  0
VERTEX
  8
0
  5
2E78
 10
66.5749
 20
227.045
 30
0.000000
  70
    32
  0
VERTEX
  8
0
  5
2E79
 10
66.5866
 20
227.030
 30
0.000000
  70
    32
  0
VERTEX
  8
0
  5
2E7A
 10
66.5984
 20
227.016
 30
0.000000
  70
    32
  0
VERTEX
  8
0
  5
2E7B
 10
66.6103
 20
227.001
 30
0.000000
  70
    32
  0
VERTEX
  8
0
  5
2E7C
 10
66.6222
 20
226.986
 30
0.000000
  70
    32
  0
VERTEX
  8
0
  5
2E7D
 10
66.6343
 20
226.972
 30
0.000000
  70
    32
  0
VERTEX
  8
0
  5
2E7E
 10
66.6464
 20
226.957
 30
0.000000
  70
    32
  0
VERTEX
  8
0
  5
2E7F
 10
66.6586
 20
226.943
 30
0.000000
  70
    32
  0
VERTEX
  8
0
  5
2E80
 10
66.6710
 20
226.928
 30
0.000000
  70
    32
  0
VERTEX
  8
0
  5
2E81
 10
66.6834
 20
226.914
 30
0.000000
  70
    32
  0
VERTEX
  8
0
  5
2E82
 10
66.6958
 20
226.900
 30
0.000000
  70
    32
  0
VERTEX
  8
0
  5
2E83
 10
66.7084
 20
226.885
 30
0.000000
  70
    32
  0
VERTEX
  8
0
  5
2E84
 10
66.7211
 20
226.871
 30
0.000000
  70
    32
  0
VERTEX
  8
0
  5
2E85
 10
66.7338
 20
226.857
 30
0.000000
  70
    32
  0
VERTEX
  8
0
  5
2E86
 10
66.7466
 20
226.842
 30
0.000000
  70
    32
  0
VERTEX
  8
0
  5
2E87
 10
66.7595
 20
226.828
 30
0.000000
  70
    32
  0
VERTEX
  8
0
  5
2E88
 10
66.7725
 20
226.814
 30
0.000000
  70
    32
  0
VERTEX
  8
0
  5
2E89
 10
66.7856
 20
226.800
 30
0.000000
  70
    32
  0
VERTEX
  8
0
  5
2E8A
 10
66.7988
 20
226.786
 30
0.000000
  70
    32
  0
VERTEX
  8
0
  5
2E8B
 10
66.8120
 20
226.772
 30
0.000000
  70
    32
  0
VERTEX
  8
0
  5
2E8C
 10
66.8254
 20
226.758
 30
0.000000
  70
    32
  0
VERTEX
  8
0
  5
2E8D
 10
66.8388
 20
226.744
 30
0.000000
  70
    32
  0
VERTEX
  8
0
  5
2E8E
 10
66.8523
 20
226.730
 30
0.000000
  70
    32
  0
VERTEX
  8
0
  5
2E8F
 10
66.8658
 20
226.716
 30
0.000000
  70
    32
  0
VERTEX
  8
0
  5
2E90
 10
66.8795
 20
226.702
 30
0.000000
  70
    32
  0
VERTEX
  8
0
  5
2E91
 10
66.8933
 20
226.689
 30
0.000000
  70
    32
  0
VERTEX
  8
0
  5
2E92
 10
66.9071
 20
226.675
 30
0.000000
  70
    32
  0
VERTEX
  8
0
  5
2E93
 10
66.9210
 20
226.661
 30
0.000000
  70
    32
  0
VERTEX
  8
0
  5
2E94
 10
66.9350
 20
226.647
 30
0.000000
  70
    32
  0
VERTEX
  8
0
  5
2E95
 10
66.9491
 20
226.634
 30
0.000000
  70
    32
  0
VERTEX
  8
0
  5
2E96
 10
66.9632
 20
226.620
 30
0.000000
  70
    32
  0
VERTEX
  8
0
  5
2E97
 10
66.9774
 20
226.607
 30
0.000000
  70
    32
  0
VERTEX
  8
0
  5
2E98
 10
66.9918
 20
226.593
 30
0.000000
  70
    32
  0
VERTEX
  8
0
  5
2E99
 10
67.0062
 20
226.580
 30
0.000000
  70
    32
  0
VERTEX
  8
0
  5
2E9A
 10
67.0206
 20
226.566
 30
0.000000
  70
    32
  0
VERTEX
  8
0
  5
2E9B
 10
67.0352
 20
226.553
 30
0.000000
  70
    32
  0
VERTEX
  8
0
  5
2E9C
 10
67.0498
 20
226.540
 30
0.000000
  70
    32
  0
VERTEX
  8
0
  5
2E9D
 10
67.0645
 20
226.526
 30
0.000000
  70
    32
  0
VERTEX
  8
0
  5
2E9E
 10
67.0793
 20
226.513
 30
0.000000
  70
    32
  0
VERTEX
  8
0
  5
2E9F
 10
67.0942
 20
226.500
 30
0.000000
  70
    32
  0
VERTEX
  8
0
  5
2EA0
 10
67.1091
 20
226.487
 30
0.000000
  70
    32
  0
VERTEX
  8
0
  5
2EA1
 10
67.1242
 20
226.474
 30
0.000000
  70
    32
  0
VERTEX
  8
0
  5
2EA2
 10
67.1393
 20
226.461
 30
0.000000
  70
    32
  0
VERTEX
  8
0
  5
2EA3
 10
67.1545
 20
226.448
 30
0.000000
  70
    32
  0
VERTEX
  8
0
  5
2EA4
 10
67.1697
 20
226.435
 30
0.000000
  70
    32
  0
VERTEX
  8
0
  5
2EA5
 10
67.1851
 20
226.422
 30
0.000000
  70
    32
  0
VERTEX
  8
0
  5
2EA6
 10
67.2005
 20
226.409
 30
0.000000
  70
    32
  0
VERTEX
  8
0
  5
2EA7
 10
67.2160
 20
226.396
 30
0.000000
  70
    32
  0
VERTEX
  8
0
  5
2EA8
 10
67.2315
 20
226.383
 30
0.000000
  70
    32
  0
VERTEX
  8
0
  5
2EA9
 10
67.2472
 20
226.371
 30
0.000000
  70
    32
  0
VERTEX
  8
0
  5
2EAA
 10
67.2629
 20
226.358
 30
0.000000
  70
    32
  0
VERTEX
  8
0
  5
2EAB
 10
67.2787
 20
226.345
 30
0.000000
  70
    32
  0
VERTEX
  8
0
  5
2EAC
 10
67.2946
 20
226.333
 30
0.000000
  70
    32
  0
VERTEX
  8
0
  5
2EAD
 10
67.3105
 20
226.320
 30
0.000000
  70
    32
  0
VERTEX
  8
0
  5
2EAE
 10
67.3265
 20
226.308
 30
0.000000
  70
    32
  0
VERTEX
  8
0
  5
2EAF
 10
67.3426
 20
226.295
 30
0.000000
  70
    32
  0
VERTEX
  8
0
  5
2EB0
 10
67.3588
 20
226.283
 30
0.000000
  70
    32
  0
VERTEX
  8
0
  5
2EB1
 10
67.3750
 20
226.270
 30
0.000000
  70
    32
  0
VERTEX
  8
0
  5
2EB2
 10
67.3914
 20
226.258
 30
0.000000
  70
    32
  0
VERTEX
  8
0
  5
2EB3
 10
67.4078
 20
226.246
 30
0.000000
  70
    32
  0
VERTEX
  8
0
  5
2EB4
 10
67.4242
 20
226.234
 30
0.000000
  70
    32
  0
VERTEX
  8
0
  5
2EB5
 10
67.4408
 20
226.221
 30
0.000000
  70
    32
  0
VERTEX
  8
0
  5
2EB6
 10
67.4574
 20
226.209
 30
0.000000
  70
    32
  0
VERTEX
  8
0
  5
2EB7
 10
67.4740
 20
226.197
 30
0.000000
  70
    32
  0
VERTEX
  8
0
  5
2EB8
 10
67.4908
 20
226.185
 30
0.000000
  70
    32
  0
VERTEX
  8
0
  5
2EB9
 10
67.5076
 20
226.173
 30
0.000000
  70
    32
  0
VERTEX
  8
0
  5
2EBA
 10
67.5245
 20
226.161
 30
0.000000
  70
    32
  0
VERTEX
  8
0
  5
2EBB
 10
67.5415
 20
226.149
 30
0.000000
  70
    32
  0
VERTEX
  8
0
  5
2EBC
 10
67.5585
 20
226.138
 30
0.000000
  70
    32
  0
VERTEX
  8
0
  5
2EBD
 10
67.5756
 20
226.126
 30
0.000000
  70
    32
  0
VERTEX
  8
0
  5
2EBE
 10
67.5928
 20
226.114
 30
0.000000
  70
    32
  0
VERTEX
  8
0
  5
2EBF
 10
67.6100
 20
226.103
 30
0.000000
  70
    32
  0
VERTEX
  8
0
  5
2EC0
 10
67.6274
 20
226.091
 30
0.000000
  70
    32
  0
VERTEX
  8
0
  5
2EC1
 10
67.6447
 20
226.079
 30
0.000000
  70
    32
  0
VERTEX
  8
0
  5
2EC2
 10
67.6622
 20
226.068
 30
0.000000
  70
    32
  0
VERTEX
  8
0
  5
2EC3
 10
67.6797
 20
226.056
 30
0.000000
  70
    32
  0
VERTEX
  8
0
  5
2EC4
 10
67.6973
 20
226.045
 30
0.000000
  70
    32
  0
VERTEX
  8
0
  5
2EC5
 10
67.7150
 20
226.034
 30
0.000000
  70
    32
  0
VERTEX
  8
0
  5
2EC6
 10
67.7327
 20
226.022
 30
0.000000
  70
    32
  0
VERTEX
  8
0
  5
2EC7
 10
67.7505
 20
226.011
 30
0.000000
  70
    32
  0
VERTEX
  8
0
  5
2EC8
 10
67.7683
 20
226.000
 30
0.000000
  70
    32
  0
SEQEND
  8
0
  5
2EC9
  0
ARC
  5
25FF
  8
0
 10
70.947990878127371
 20
230.45916353972049
 30
0.0
 40
5.4767054478746484
 50
234.5088762715572
 51
265.41296194295842
  0
LINE
  5
2600
  8
0
 10
54.000000000001158
 20
225.0
 30
0.0
 11
124.99999999985
 21
225.0
 31
0.0
  0
ARC
  5
2601
  8
0
 10
54.000000000049987
 20
229.00000000004999
 30
0.0
 40
4.0000000000500222
 50
194.8720101737116
 51
269.99999999930139
  0
POLYLINE
  5
2603
  8
0
 10
112.88023195994997
 20
261.21354839569642
 30
0.0
 66
     1
 70
     8
  0
VERTEX
  8
0
  5
2ECA
 10
112.880
 20
261.214
 30
0.000000
  70
    32
  0
VERTEX
  8
0
  5
2ECB
 10
112.873
 20
261.230
 30
0.000000
  70
    32
  0
VERTEX
  8
0
  5
2ECC
 10
112.866
 20
261.246
 30
0.000000
  70
    32
  0
VERTEX
  8
0
  5
2ECD
 10
112.858
 20
261.262
 30
0.000000
  70
    32
  0
VERTEX
  8
0
  5
2ECE
 10
112.851
 20
261.278
 30
0.000000
  70
    32
  0
VERTEX
  8
0
  5
2ECF
 10
112.843
 20
261.294
 30
0.000000
  70
    32
  0
VERTEX
  8
0
  5
2ED0
 10
112.835
 20
261.310
 30
0.000000
  70
    32
  0
VERTEX
  8
0
  5
2ED1
 10
112.827
 20
261.326
 30
0.000000
  70
    32
  0
VERTEX
  8
0
  5
2ED2
 10
112.819
 20
261.341
 30
0.000000
  70
    32
  0
VERTEX
  8
0
  5
2ED3
 10
112.811
 20
261.357
 30
0.000000
  70
    32
  0
VERTEX
  8
0
  5
2ED4
 10
112.803
 20
261.373
 30
0.000000
  70
    32
  0
VERTEX
  8
0
  5
2ED5
 10
112.795
 20
261.389
 30
0.000000
  70
    32
  0
VERTEX
  8
0
  5
2ED6
 10
112.787
 20
261.405
 30
0.000000
  70
    32
  0
VERTEX
  8
0
  5
2ED7
 10
112.778
 20
261.421
 30
0.000000
  70
    32
  0
VERTEX
  8
0
  5
2ED8
 10
112.770
 20
261.436
 30
0.000000
  70
    32
  0
VERTEX
  8
0
  5
2ED9
 10
112.761
 20
261.452
 30
0.000000
  70
    32
  0
VERTEX
  8
0
  5
2EDA
 10
112.752
 20
261.468
 30
0.000000
  70
    32
  0
VERTEX
  8
0
  5
2EDB
 10
112.743
 20
261.483
 30
0.000000
  70
    32
  0
VERTEX
  8
0
  5
2EDC
 10
112.735
 20
261.499
 30
0.000000
  70
    32
  0
VERTEX
  8
0
  5
2EDD
 10
112.726
 20
261.515
 30
0.000000
  70
    32
  0
VERTEX
  8
0
  5
2EDE
 10
112.716
 20
261.530
 30
0.000000
  70
    32
  0
VERTEX
  8
0
  5
2EDF
 10
112.707
 20
261.546
 30
0.000000
  70
    32
  0
VERTEX
  8
0
  5
2EE0
 10
112.698
 20
261.561
 30
0.000000
  70
    32
  0
VERTEX
  8
0
  5
2EE1
 10
112.689
 20
261.577
 30
0.000000
  70
    32
  0
VERTEX
  8
0
  5
2EE2
 10
112.679
 20
261.592
 30
0.000000
  70
    32
  0
VERTEX
  8
0
  5
2EE3
 10
112.670
 20
261.608
 30
0.000000
  70
    32
  0
VERTEX
  8
0
  5
2EE4
 10
112.660
 20
261.623
 30
0.000000
  70
    32
  0
VERTEX
  8
0
  5
2EE5
 10
112.650
 20
261.639
 30
0.000000
  70
    32
  0
VERTEX
  8
0
  5
2EE6
 10
112.641
 20
261.654
 30
0.000000
  70
    32
  0
VERTEX
  8
0
  5
2EE7
 10
112.631
 20
261.669
 30
0.000000
  70
    32
  0
VERTEX
  8
0
  5
2EE8
 10
112.621
 20
261.685
 30
0.000000
  70
    32
  0
VERTEX
  8
0
  5
2EE9
 10
112.610
 20
261.700
 30
0.000000
  70
    32
  0
VERTEX
  8
0
  5
2EEA
 10
112.600
 20
261.715
 30
0.000000
  70
    32
  0
VERTEX
  8
0
  5
2EEB
 10
112.590
 20
261.731
 30
0.000000
  70
    32
  0
VERTEX
  8
0
  5
2EEC
 10
112.580
 20
261.746
 30
0.000000
  70
    32
  0
VERTEX
  8
0
  5
2EED
 10
112.569
 20
261.761
 30
0.000000
  70
    32
  0
VERTEX
  8
0
  5
2EEE
 10
112.559
 20
261.776
 30
0.000000
  70
    32
  0
VERTEX
  8
0
  5
2EEF
 10
112.548
 20
261.791
 30
0.000000
  70
    32
  0
VERTEX
  8
0
  5
2EF0
 10
112.537
 20
261.806
 30
0.000000
  70
    32
  0
VERTEX
  8
0
  5
2EF1
 10
112.526
 20
261.821
 30
0.000000
  70
    32
  0
VERTEX
  8
0
  5
2EF2
 10
112.516
 20
261.836
 30
0.000000
  70
    32
  0
VERTEX
  8
0
  5
2EF3
 10
112.505
 20
261.851
 30
0.000000
  70
    32
  0
VERTEX
  8
0
  5
2EF4
 10
112.493
 20
261.866
 30
0.000000
  70
    32
  0
VERTEX
  8
0
  5
2EF5
 10
112.482
 20
261.881
 30
0.000000
  70
    32
  0
VERTEX
  8
0
  5
2EF6
 10
112.471
 20
261.896
 30
0.000000
  70
    32
  0
VERTEX
  8
0
  5
2EF7
 10
112.460
 20
261.911
 30
0.000000
  70
    32
  0
VERTEX
  8
0
  5
2EF8
 10
112.448
 20
261.926
 30
0.000000
  70
    32
  0
VERTEX
  8
0
  5
2EF9
 10
112.437
 20
261.940
 30
0.000000
  70
    32
  0
VERTEX
  8
0
  5
2EFA
 10
112.425
 20
261.955
 30
0.000000
  70
    32
  0
VERTEX
  8
0
  5
2EFB
 10
112.413
 20
261.970
 30
0.000000
  70
    32
  0
VERTEX
  8
0
  5
2EFC
 10
112.402
 20
261.984
 30
0.000000
  70
    32
  0
VERTEX
  8
0
  5
2EFD
 10
112.390
 20
261.999
 30
0.000000
  70
    32
  0
VERTEX
  8
0
  5
2EFE
 10
112.378
 20
262.014
 30
0.000000
  70
    32
  0
VERTEX
  8
0
  5
2EFF
 10
112.366
 20
262.028
 30
0.000000
  70
    32
  0
VERTEX
  8
0
  5
2F00
 10
112.354
 20
262.043
 30
0.000000
  70
    32
  0
VERTEX
  8
0
  5
2F01
 10
112.341
 20
262.057
 30
0.000000
  70
    32
  0
VERTEX
  8
0
  5
2F02
 10
112.329
 20
262.072
 30
0.000000
  70
    32
  0
VERTEX
  8
0
  5
2F03
 10
112.317
 20
262.086
 30
0.000000
  70
    32
  0
VERTEX
  8
0
  5
2F04
 10
112.304
 20
262.100
 30
0.000000
  70
    32
  0
VERTEX
  8
0
  5
2F05
 10
112.292
 20
262.115
 30
0.000000
  70
    32
  0
VERTEX
  8
0
  5
2F06
 10
112.279
 20
262.129
 30
0.000000
  70
    32
  0
VERTEX
  8
0
  5
2F07
 10
112.266
 20
262.143
 30
0.000000
  70
    32
  0
VERTEX
  8
0
  5
2F08
 10
112.253
 20
262.158
 30
0.000000
  70
    32
  0
VERTEX
  8
0
  5
2F09
 10
112.240
 20
262.172
 30
0.000000
  70
    32
  0
VERTEX
  8
0
  5
2F0A
 10
112.227
 20
262.186
 30
0.000000
  70
    32
  0
VERTEX
  8
0
  5
2F0B
 10
112.214
 20
262.200
 30
0.000000
  70
    32
  0
VERTEX
  8
0
  5
2F0C
 10
112.201
 20
262.214
 30
0.000000
  70
    32
  0
VERTEX
  8
0
  5
2F0D
 10
112.188
 20
262.228
 30
0.000000
  70
    32
  0
VERTEX
  8
0
  5
2F0E
 10
112.175
 20
262.242
 30
0.000000
  70
    32
  0
VERTEX
  8
0
  5
2F0F
 10
112.161
 20
262.256
 30
0.000000
  70
    32
  0
VERTEX
  8
0
  5
2F10
 10
112.148
 20
262.270
 30
0.000000
  70
    32
  0
VERTEX
  8
0
  5
2F11
 10
112.134
 20
262.284
 30
0.000000
  70
    32
  0
VERTEX
  8
0
  5
2F12
 10
112.120
 20
262.298
 30
0.000000
  70
    32
  0
VERTEX
  8
0
  5
2F13
 10
112.107
 20
262.311
 30
0.000000
  70
    32
  0
VERTEX
  8
0
  5
2F14
 10
112.093
 20
262.325
 30
0.000000
  70
    32
  0
VERTEX
  8
0
  5
2F15
 10
112.079
 20
262.339
 30
0.000000
  70
    32
  0
VERTEX
  8
0
  5
2F16
 10
112.065
 20
262.353
 30
0.000000
  70
    32
  0
VERTEX
  8
0
  5
2F17
 10
112.051
 20
262.366
 30
0.000000
  70
    32
  0
VERTEX
  8
0
  5
2F18
 10
112.037
 20
262.380
 30
0.000000
  70
    32
  0
VERTEX
  8
0
  5
2F19
 10
112.023
 20
262.393
 30
0.000000
  70
    32
  0
VERTEX
  8
0
  5
2F1A
 10
112.008
 20
262.407
 30
0.000000
  70
    32
  0
VERTEX
  8
0
  5
2F1B
 10
111.994
 20
262.420
 30
0.000000
  70
    32
  0
VERTEX
  8
0
  5
2F1C
 10
111.979
 20
262.434
 30
0.000000
  70
    32
  0
VERTEX
  8
0
  5
2F1D
 10
111.965
 20
262.447
 30
0.000000
  70
    32
  0
VERTEX
  8
0
  5
2F1E
 10
111.950
 20
262.460
 30
0.000000
  70
    32
  0
VERTEX
  8
0
  5
2F1F
 10
111.935
 20
262.474
 30
0.000000
  70
    32
  0
VERTEX
  8
0
  5
2F20
 10
111.921
 20
262.487
 30
0.000000
  70
    32
  0
VERTEX
  8
0
  5
2F21
 10
111.906
 20
262.500
 30
0.000000
  70
    32
  0
VERTEX
  8
0
  5
2F22
 10
111.891
 20
262.513
 30
0.000000
  70
    32
  0
VERTEX
  8
0
  5
2F23
 10
111.876
 20
262.526
 30
0.000000
  70
    32
  0
VERTEX
  8
0
  5
2F24
 10
111.861
 20
262.539
 30
0.000000
  70
    32
  0
VERTEX
  8
0
  5
2F25
 10
111.846
 20
262.552
 30
0.000000
  70
    32
  0
VERTEX
  8
0
  5
2F26
 10
111.830
 20
262.565
 30
0.000000
  70
    32
  0
VERTEX
  8
0
  5
2F27
 10
111.815
 20
262.578
 30
0.000000
  70
    32
  0
VERTEX
  8
0
  5
2F28
 10
111.800
 20
262.591
 30
0.000000
  70
    32
  0
VERTEX
  8
0
  5
2F29
 10
111.784
 20
262.604
 30
0.000000
  70
    32
  0
VERTEX
  8
0
  5
2F2A
 10
111.768
 20
262.617
 30
0.000000
  70
    32
  0
VERTEX
  8
0
  5
2F2B
 10
111.753
 20
262.629
 30
0.000000
  70
    32
  0
VERTEX
  8
0
  5
2F2C
 10
111.737
 20
262.642
 30
0.000000
  70
    32
  0
VERTEX
  8
0
  5
2F2D
 10
111.721
 20
262.655
 30
0.000000
  70
    32
  0
VERTEX
  8
0
  5
2F2E
 10
111.705
 20
262.667
 30
0.000000
  70
    32
  0
VERTEX
  8
0
  5
2F2F
 10
111.689
 20
262.680
 30
0.000000
  70
    32
  0
VERTEX
  8
0
  5
2F30
 10
111.673
 20
262.692
 30
0.000000
  70
    32
  0
VERTEX
  8
0
  5
2F31
 10
111.657
 20
262.705
 30
0.000000
  70
    32
  0
VERTEX
  8
0
  5
2F32
 10
111.641
 20
262.717
 30
0.000000
  70
    32
  0
VERTEX
  8
0
  5
2F33
 10
111.625
 20
262.730
 30
0.000000
  70
    32
  0
VERTEX
  8
0
  5
2F34
 10
111.609
 20
262.742
 30
0.000000
  70
    32
  0
VERTEX
  8
0
  5
2F35
 10
111.592
 20
262.754
 30
0.000000
  70
    32
  0
VERTEX
  8
0
  5
2F36
 10
111.576
 20
262.766
 30
0.000000
  70
    32
  0
VERTEX
  8
0
  5
2F37
 10
111.559
 20
262.779
 30
0.000000
  70
    32
  0
VERTEX
  8
0
  5
2F38
 10
111.543
 20
262.791
 30
0.000000
  70
    32
  0
VERTEX
  8
0
  5
2F39
 10
111.526
 20
262.803
 30
0.000000
  70
    32
  0
VERTEX
  8
0
  5
2F3A
 10
111.509
 20
262.815
 30
0.000000
  70
    32
  0
VERTEX
  8
0
  5
2F3B
 10
111.492
 20
262.827
 30
0.000000
  70
    32
  0
VERTEX
  8
0
  5
2F3C
 10
111.475
 20
262.839
 30
0.000000
  70
    32
  0
VERTEX
  8
0
  5
2F3D
 10
111.459
 20
262.851
 30
0.000000
  70
    32
  0
VERTEX
  8
0
  5
2F3E
 10
111.441
 20
262.862
 30
0.000000
  70
    32
  0
VERTEX
  8
0
  5
2F3F
 10
111.424
 20
262.874
 30
0.000000
  70
    32
  0
VERTEX
  8
0
  5
2F40
 10
111.407
 20
262.886
 30
0.000000
  70
    32
  0
VERTEX
  8
0
  5
2F41
 10
111.390
 20
262.897
 30
0.000000
  70
    32
  0
VERTEX
  8
0
  5
2F42
 10
111.373
 20
262.909
 30
0.000000
  70
    32
  0
VERTEX
  8
0
  5
2F43
 10
111.355
 20
262.921
 30
0.000000
  70
    32
  0
VERTEX
  8
0
  5
2F44
 10
111.338
 20
262.932
 30
0.000000
  70
    32
  0
VERTEX
  8
0
  5
2F45
 10
111.320
 20
262.944
 30
0.000000
  70
    32
  0
VERTEX
  8
0
  5
2F46
 10
111.303
 20
262.955
 30
0.000000
  70
    32
  0
VERTEX
  8
0
  5
2F47
 10
111.285
 20
262.966
 30
0.000000
  70
    32
  0
VERTEX
  8
0
  5
2F48
 10
111.267
 20
262.978
 30
0.000000
  70
    32
  0
VERTEX
  8
0
  5
2F49
 10
111.250
 20
262.989
 30
0.000000
  70
    32
  0
VERTEX
  8
0
  5
2F4A
 10
111.232
 20
263.000
 30
0.000000
  70
    32
  0
SEQEND
  8
0
  5
2F4B
  0
POLYLINE
  5
2605
  8
0
 10
111.23165738672391
 20
226.00000000000006
 30
0.0
 66
     1
 70
     8
  0
VERTEX
  8
0
  5
2F4C
 10
111.232
 20
226.000
 30
0.000000
  70
    32
  0
VERTEX
  8
0
  5
2F4D
 10
111.250
 20
226.011
 30
0.000000
  70
    32
  0
VERTEX
  8
0
  5
2F4E
 10
111.267
 20
226.022
 30
0.000000
  70
    32
  0
VERTEX
  8
0
  5
2F4F
 10
111.285
 20
226.034
 30
0.000000
  70
    32
  0
VERTEX
  8
0
  5
2F50
 10
111.303
 20
226.045
 30
0.000000
  70
    32
  0
VERTEX
  8
0
  5
2F51
 10
111.320
 20
226.056
 30
0.000000
  70
    32
  0
VERTEX
  8
0
  5
2F52
 10
111.338
 20
226.068
 30
0.000000
  70
    32
  0
VERTEX
  8
0
  5
2F53
 10
111.355
 20
226.079
 30
0.000000
  70
    32
  0
VERTEX
  8
0
  5
2F54
 10
111.373
 20
226.091
 30
0.000000
  70
    32
  0
VERTEX
  8
0
  5
2F55
 10
111.390
 20
226.103
 30
0.000000
  70
    32
  0
VERTEX
  8
0
  5
2F56
 10
111.407
 20
226.114
 30
0.000000
  70
    32
  0
VERTEX
  8
0
  5
2F57
 10
111.424
 20
226.126
 30
0.000000
  70
    32
  0
VERTEX
  8
0
  5
2F58
 10
111.441
 20
226.138
 30
0.000000
  70
    32
  0
VERTEX
  8
0
  5
2F59
 10
111.459
 20
226.149
 30
0.000000
  70
    32
  0
VERTEX
  8
0
  5
2F5A
 10
111.475
 20
226.161
 30
0.000000
  70
    32
  0
VERTEX
  8
0
  5
2F5B
 10
111.492
 20
226.173
 30
0.000000
  70
    32
  0
VERTEX
  8
0
  5
2F5C
 10
111.509
 20
226.185
 30
0.000000
  70
    32
  0
VERTEX
  8
0
  5
2F5D
 10
111.526
 20
226.197
 30
0.000000
  70
    32
  0
VERTEX
  8
0
  5
2F5E
 10
111.543
 20
226.209
 30
0.000000
  70
    32
  0
VERTEX
  8
0
  5
2F5F
 10
111.559
 20
226.221
 30
0.000000
  70
    32
  0
VERTEX
  8
0
  5
2F60
 10
111.576
 20
226.234
 30
0.000000
  70
    32
  0
VERTEX
  8
0
  5
2F61
 10
111.592
 20
226.246
 30
0.000000
  70
    32
  0
VERTEX
  8
0
  5
2F62
 10
111.609
 20
226.258
 30
0.000000
  70
    32
  0
VERTEX
  8
0
  5
2F63
 10
111.625
 20
226.270
 30
0.000000
  70
    32
  0
VERTEX
  8
0
  5
2F64
 10
111.641
 20
226.283
 30
0.000000
  70
    32
  0
VERTEX
  8
0
  5
2F65
 10
111.657
 20
226.295
 30
0.000000
  70
    32
  0
VERTEX
  8
0
  5
2F66
 10
111.673
 20
226.308
 30
0.000000
  70
    32
  0
VERTEX
  8
0
  5
2F67
 10
111.689
 20
226.320
 30
0.000000
  70
    32
  0
VERTEX
  8
0
  5
2F68
 10
111.705
 20
226.333
 30
0.000000
  70
    32
  0
VERTEX
  8
0
  5
2F69
 10
111.721
 20
226.345
 30
0.000000
  70
    32
  0
VERTEX
  8
0
  5
2F6A
 10
111.737
 20
226.358
 30
0.000000
  70
    32
  0
VERTEX
  8
0
  5
2F6B
 10
111.753
 20
226.371
 30
0.000000
  70
    32
  0
VERTEX
  8
0
  5
2F6C
 10
111.768
 20
226.383
 30
0.000000
  70
    32
  0
VERTEX
  8
0
  5
2F6D
 10
111.784
 20
226.396
 30
0.000000
  70
    32
  0
VERTEX
  8
0
  5
2F6E
 10
111.800
 20
226.409
 30
0.000000
  70
    32
  0
VERTEX
  8
0
  5
2F6F
 10
111.815
 20
226.422
 30
0.000000
  70
    32
  0
VERTEX
  8
0
  5
2F70
 10
111.830
 20
226.435
 30
0.000000
  70
    32
  0
VERTEX
  8
0
  5
2F71
 10
111.846
 20
226.448
 30
0.000000
  70
    32
  0
VERTEX
  8
0
  5
2F72
 10
111.861
 20
226.461
 30
0.000000
  70
    32
  0
VERTEX
  8
0
  5
2F73
 10
111.876
 20
226.474
 30
0.000000
  70
    32
  0
VERTEX
  8
0
  5
2F74
 10
111.891
 20
226.487
 30
0.000000
  70
    32
  0
VERTEX
  8
0
  5
2F75
 10
111.906
 20
226.500
 30
0.000000
  70
    32
  0
VERTEX
  8
0
  5
2F76
 10
111.921
 20
226.513
 30
0.000000
  70
    32
  0
VERTEX
  8
0
  5
2F77
 10
111.935
 20
226.526
 30
0.000000
  70
    32
  0
VERTEX
  8
0
  5
2F78
 10
111.950
 20
226.540
 30
0.000000
  70
    32
  0
VERTEX
  8
0
  5
2F79
 10
111.965
 20
226.553
 30
0.000000
  70
    32
  0
VERTEX
  8
0
  5
2F7A
 10
111.979
 20
226.566
 30
0.000000
  70
    32
  0
VERTEX
  8
0
  5
2F7B
 10
111.994
 20
226.580
 30
0.000000
  70
    32
  0
VERTEX
  8
0
  5
2F7C
 10
112.008
 20
226.593
 30
0.000000
  70
    32
  0
VERTEX
  8
0
  5
2F7D
 10
112.023
 20
226.607
 30
0.000000
  70
    32
  0
VERTEX
  8
0
  5
2F7E
 10
112.037
 20
226.620
 30
0.000000
  70
    32
  0
VERTEX
  8
0
  5
2F7F
 10
112.051
 20
226.634
 30
0.000000
  70
    32
  0
VERTEX
  8
0
  5
2F80
 10
112.065
 20
226.647
 30
0.000000
  70
    32
  0
VERTEX
  8
0
  5
2F81
 10
112.079
 20
226.661
 30
0.000000
  70
    32
  0
VERTEX
  8
0
  5
2F82
 10
112.093
 20
226.675
 30
0.000000
  70
    32
  0
VERTEX
  8
0
  5
2F83
 10
112.107
 20
226.689
 30
0.000000
  70
    32
  0
VERTEX
  8
0
  5
2F84
 10
112.120
 20
226.702
 30
0.000000
  70
    32
  0
VERTEX
  8
0
  5
2F85
 10
112.134
 20
226.716
 30
0.000000
  70
    32
  0
VERTEX
  8
0
  5
2F86
 10
112.148
 20
226.730
 30
0.000000
  70
    32
  0
VERTEX
  8
0
  5
2F87
 10
112.161
 20
226.744
 30
0.000000
  70
    32
  0
VERTEX
  8
0
  5
2F88
 10
112.175
 20
226.758
 30
0.000000
  70
    32
  0
VERTEX
  8
0
  5
2F89
 10
112.188
 20
226.772
 30
0.000000
  70
    32
  0
VERTEX
  8
0
  5
2F8A
 10
112.201
 20
226.786
 30
0.000000
  70
    32
  0
VERTEX
  8
0
  5
2F8B
 10
112.214
 20
226.800
 30
0.000000
  70
    32
  0
VERTEX
  8
0
  5
2F8C
 10
112.227
 20
226.814
 30
0.000000
  70
    32
  0
VERTEX
  8
0
  5
2F8D
 10
112.240
 20
226.828
 30
0.000000
  70
    32
  0
VERTEX
  8
0
  5
2F8E
 10
112.253
 20
226.842
 30
0.000000
  70
    32
  0
VERTEX
  8
0
  5
2F8F
 10
112.266
 20
226.857
 30
0.000000
  70
    32
  0
VERTEX
  8
0
  5
2F90
 10
112.279
 20
226.871
 30
0.000000
  70
    32
  0
VERTEX
  8
0
  5
2F91
 10
112.292
 20
226.885
 30
0.000000
  70
    32
  0
VERTEX
  8
0
  5
2F92
 10
112.304
 20
226.900
 30
0.000000
  70
    32
  0
VERTEX
  8
0
  5
2F93
 10
112.317
 20
226.914
 30
0.000000
  70
    32
  0
VERTEX
  8
0
  5
2F94
 10
112.329
 20
226.928
 30
0.000000
  70
    32
  0
VERTEX
  8
0
  5
2F95
 10
112.341
 20
226.943
 30
0.000000
  70
    32
  0
VERTEX
  8
0
  5
2F96
 10
112.354
 20
226.957
 30
0.000000
  70
    32
  0
VERTEX
  8
0
  5
2F97
 10
112.366
 20
226.972
 30
0.000000
  70
    32
  0
VERTEX
  8
0
  5
2F98
 10
112.378
 20
226.986
 30
0.000000
  70
    32
  0
VERTEX
  8
0
  5
2F99
 10
112.390
 20
227.001
 30
0.000000
  70
    32
  0
VERTEX
  8
0
  5
2F9A
 10
112.402
 20
227.016
 30
0.000000
  70
    32
  0
VERTEX
  8
0
  5
2F9B
 10
112.413
 20
227.030
 30
0.000000
  70
    32
  0
VERTEX
  8
0
  5
2F9C
 10
112.425
 20
227.045
 30
0.000000
  70
    32
  0
VERTEX
  8
0
  5
2F9D
 10
112.437
 20
227.060
 30
0.000000
  70
    32
  0
VERTEX
  8
0
  5
2F9E
 10
112.448
 20
227.074
 30
0.000000
  70
    32
  0
VERTEX
  8
0
  5
2F9F
 10
112.460
 20
227.089
 30
0.000000
  70
    32
  0
VERTEX
  8
0
  5
2FA0
 10
112.471
 20
227.104
 30
0.000000
  70
    32
  0
VERTEX
  8
0
  5
2FA1
 10
112.482
 20
227.119
 30
0.000000
  70
    32
  0
VERTEX
  8
0
  5
2FA2
 10
112.493
 20
227.134
 30
0.000000
  70
    32
  0
VERTEX
  8
0
  5
2FA3
 10
112.505
 20
227.149
 30
0.000000
  70
    32
  0
VERTEX
  8
0
  5
2FA4
 10
112.516
 20
227.164
 30
0.000000
  70
    32
  0
VERTEX
  8
0
  5
2FA5
 10
112.526
 20
227.179
 30
0.000000
  70
    32
  0
VERTEX
  8
0
  5
2FA6
 10
112.537
 20
227.194
 30
0.000000
  70
    32
  0
VERTEX
  8
0
  5
2FA7
 10
112.548
 20
227.209
 30
0.000000
  70
    32
  0
VERTEX
  8
0
  5
2FA8
 10
112.559
 20
227.224
 30
0.000000
  70
    32
  0
VERTEX
  8
0
  5
2FA9
 10
112.569
 20
227.239
 30
0.000000
  70
    32
  0
VERTEX
  8
0
  5
2FAA
 10
112.580
 20
227.254
 30
0.000000
  70
    32
  0
VERTEX
  8
0
  5
2FAB
 10
112.590
 20
227.269
 30
0.000000
  70
    32
  0
VERTEX
  8
0
  5
2FAC
 10
112.600
 20
227.285
 30
0.000000
  70
    32
  0
VERTEX
  8
0
  5
2FAD
 10
112.610
 20
227.300
 30
0.000000
  70
    32
  0
VERTEX
  8
0
  5
2FAE
 10
112.621
 20
227.315
 30
0.000000
  70
    32
  0
VERTEX
  8
0
  5
2FAF
 10
112.631
 20
227.331
 30
0.000000
  70
    32
  0
VERTEX
  8
0
  5
2FB0
 10
112.641
 20
227.346
 30
0.000000
  70
    32
  0
VERTEX
  8
0
  5
2FB1
 10
112.650
 20
227.361
 30
0.000000
  70
    32
  0
VERTEX
  8
0
  5
2FB2
 10
112.660
 20
227.377
 30
0.000000
  70
    32
  0
VERTEX
  8
0
  5
2FB3
 10
112.670
 20
227.392
 30
0.000000
  70
    32
  0
VERTEX
  8
0
  5
2FB4
 10
112.679
 20
227.408
 30
0.000000
  70
    32
  0
VERTEX
  8
0
  5
2FB5
 10
112.689
 20
227.423
 30
0.000000
  70
    32
  0
VERTEX
  8
0
  5
2FB6
 10
112.698
 20
227.439
 30
0.000000
  70
    32
  0
VERTEX
  8
0
  5
2FB7
 10
112.707
 20
227.454
 30
0.000000
  70
    32
  0
VERTEX
  8
0
  5
2FB8
 10
112.716
 20
227.470
 30
0.000000
  70
    32
  0
VERTEX
  8
0
  5
2FB9
 10
112.726
 20
227.485
 30
0.000000
  70
    32
  0
VERTEX
  8
0
  5
2FBA
 10
112.735
 20
227.501
 30
0.000000
  70
    32
  0
VERTEX
  8
0
  5
2FBB
 10
112.743
 20
227.517
 30
0.000000
  70
    32
  0
VERTEX
  8
0
  5
2FBC
 10
112.752
 20
227.532
 30
0.000000
  70
    32
  0
VERTEX
  8
0
  5
2FBD
 10
112.761
 20
227.548
 30
0.000000
  70
    32
  0
VERTEX
  8
0
  5
2FBE
 10
112.770
 20
227.564
 30
0.000000
  70
    32
  0
VERTEX
  8
0
  5
2FBF
 10
112.778
 20
227.579
 30
0.000000
  70
    32
  0
VERTEX
  8
0
  5
2FC0
 10
112.787
 20
227.595
 30
0.000000
  70
    32
  0
VERTEX
  8
0
  5
2FC1
 10
112.795
 20
227.611
 30
0.000000
  70
    32
  0
VERTEX
  8
0
  5
2FC2
 10
112.803
 20
227.627
 30
0.000000
  70
    32
  0
VERTEX
  8
0
  5
2FC3
 10
112.811
 20
227.643
 30
0.000000
  70
    32
  0
VERTEX
  8
0
  5
2FC4
 10
112.819
 20
227.659
 30
0.000000
  70
    32
  0
VERTEX
  8
0
  5
2FC5
 10
112.827
 20
227.674
 30
0.000000
  70
    32
  0
VERTEX
  8
0
  5
2FC6
 10
112.835
 20
227.690
 30
0.000000
  70
    32
  0
VERTEX
  8
0
  5
2FC7
 10
112.843
 20
227.706
 30
0.000000
  70
    32
  0
VERTEX
  8
0
  5
2FC8
 10
112.851
 20
227.722
 30
0.000000
  70
    32
  0
VERTEX
  8
0
  5
2FC9
 10
112.858
 20
227.738
 30
0.000000
  70
    32
  0
VERTEX
  8
0
  5
2FCA
 10
112.866
 20
227.754
 30
0.000000
  70
    32
  0
VERTEX
  8
0
  5
2FCB
 10
112.873
 20
227.770
 30
0.000000
  70
    32
  0
VERTEX
  8
0
  5
2FCC
 10
112.880
 20
227.786
 30
0.000000
  70
    32
  0
SEQEND
  8
0
  5
2FCD
  0
ARC
  5
2607
  8
0
 10
128.6684299396056
 20
261.09172509327573
 30
0.0
 40
0.2080196056000914
 50
282.58833826086419
 51
341.76790622636889
  0
POLYLINE
  5
2608
  8
0
 10
128.71376668988745
 20
260.88870604150441
 30
0.0
 66
     1
 70
     8
  0
VERTEX
  8
0
  5
2FCE
 10
128.714
 20
260.889
 30
0.000000
  70
    32
  0
VERTEX
  8
0
  5
2FCF
 10
128.599
 20
260.882
 30
0.000000
  70
    32
  0
VERTEX
  8
0
  5
2FD0
 10
128.485
 20
260.875
 30
0.000000
  70
    32
  0
VERTEX
  8
0
  5
2FD1
 10
128.372
 20
260.868
 30
0.000000
  70
    32
  0
VERTEX
  8
0
  5
2FD2
 10
128.260
 20
260.861
 30
0.000000
  70
    32
  0
VERTEX
  8
0
  5
2FD3
 10
128.149
 20
260.855
 30
0.000000
  70
    32
  0
VERTEX
  8
0
  5
2FD4
 10
128.039
 20
260.848
 30
0.000000
  70
    32
  0
VERTEX
  8
0
  5
2FD5
 10
127.930
 20
260.841
 30
0.000000
  70
    32
  0
VERTEX
  8
0
  5
2FD6
 10
127.821
 20
260.834
 30
0.000000
  70
    32
  0
VERTEX
  8
0
  5
2FD7
 10
127.713
 20
260.827
 30
0.000000
  70
    32
  0
VERTEX
  8
0
  5
2FD8
 10
127.607
 20
260.820
 30
0.000000
  70
    32
  0
VERTEX
  8
0
  5
2FD9
 10
127.501
 20
260.813
 30
0.000000
  70
    32
  0
VERTEX
  8
0
  5
2FDA
 10
127.396
 20
260.807
 30
0.000000
  70
    32
  0
VERTEX
  8
0
  5
2FDB
 10
127.292
 20
260.800
 30
0.000000
  70
    32
  0
VERTEX
  8
0
  5
2FDC
 10
127.189
 20
260.793
 30
0.000000
  70
    32
  0
VERTEX
  8
0
  5
2FDD
 10
127.087
 20
260.786
 30
0.000000
  70
    32
  0
VERTEX
  8
0
  5
2FDE
 10
126.985
 20
260.779
 30
0.000000
  70
    32
  0
VERTEX
  8
0
  5
2FDF
 10
126.885
 20
260.772
 30
0.000000
  70
    32
  0
VERTEX
  8
0
  5
2FE0
 10
126.785
 20
260.765
 30
0.000000
  70
    32
  0
VERTEX
  8
0
  5
2FE1
 10
126.686
 20
260.759
 30
0.000000
  70
    32
  0
VERTEX
  8
0
  5
2FE2
 10
126.589
 20
260.752
 30
0.000000
  70
    32
  0
VERTEX
  8
0
  5
2FE3
 10
126.492
 20
260.745
 30
0.000000
  70
    32
  0
VERTEX
  8
0
  5
2FE4
 10
126.396
 20
260.738
 30
0.000000
  70
    32
  0
VERTEX
  8
0
  5
2FE5
 10
126.300
 20
260.731
 30
0.000000
  70
    32
  0
VERTEX
  8
0
  5
2FE6
 10
126.206
 20
260.724
 30
0.000000
  70
    32
  0
VERTEX
  8
0
  5
2FE7
 10
126.113
 20
260.717
 30
0.000000
  70
    32
  0
VERTEX
  8
0
  5
2FE8
 10
126.020
 20
260.710
 30
0.000000
  70
    32
  0
VERTEX
  8
0
  5
2FE9
 10
125.929
 20
260.703
 30
0.000000
  70
    32
  0
VERTEX
  8
0
  5
2FEA
 10
125.838
 20
260.697
 30
0.000000
  70
    32
  0
VERTEX
  8
0
  5
2FEB
 10
125.748
 20
260.690
 30
0.000000
  70
    32
  0
VERTEX
  8
0
  5
2FEC
 10
125.659
 20
260.683
 30
0.000000
  70
    32
  0
VERTEX
  8
0
  5
2FED
 10
125.571
 20
260.676
 30
0.000000
  70
    32
  0
VERTEX
  8
0
  5
2FEE
 10
125.484
 20
260.669
 30
0.000000
  70
    32
  0
VERTEX
  8
0
  5
2FEF
 10
125.398
 20
260.662
 30
0.000000
  70
    32
  0
VERTEX
  8
0
  5
2FF0
 10
125.313
 20
260.655
 30
0.000000
  70
    32
  0
VERTEX
  8
0
  5
2FF1
 10
125.228
 20
260.648
 30
0.000000
  70
    32
  0
VERTEX
  8
0
  5
2FF2
 10
125.145
 20
260.641
 30
0.000000
  70
    32
  0
VERTEX
  8
0
  5
2FF3
 10
125.062
 20
260.634
 30
0.000000
  70
    32
  0
VERTEX
  8
0
  5
2FF4
 10
124.980
 20
260.628
 30
0.000000
  70
    32
  0
VERTEX
  8
0
  5
2FF5
 10
124.900
 20
260.621
 30
0.000000
  70
    32
  0
VERTEX
  8
0
  5
2FF6
 10
124.820
 20
260.614
 30
0.000000
  70
    32
  0
VERTEX
  8
0
  5
2FF7
 10
124.741
 20
260.607
 30
0.000000
  70
    32
  0
VERTEX
  8
0
  5
2FF8
 10
124.662
 20
260.600
 30
0.000000
  70
    32
  0
VERTEX
  8
0
  5
2FF9
 10
124.585
 20
260.593
 30
0.000000
  70
    32
  0
VERTEX
  8
0
  5
2FFA
 10
124.509
 20
260.586
 30
0.000000
  70
    32
  0
VERTEX
  8
0
  5
2FFB
 10
124.433
 20
260.579
 30
0.000000
  70
    32
  0
VERTEX
  8
0
  5
2FFC
 10
124.359
 20
260.572
 30
0.000000
  70
    32
  0
VERTEX
  8
0
  5
2FFD
 10
124.285
 20
260.565
 30
0.000000
  70
    32
  0
VERTEX
  8
0
  5
2FFE
 10
124.212
 20
260.558
 30
0.000000
  70
    32
  0
VERTEX
  8
0
  5
2FFF
 10
124.140
 20
260.551
 30
0.000000
  70
    32
  0
VERTEX
  8
0
  5
3000
 10
124.069
 20
260.544
 30
0.000000
  70
    32
  0
VERTEX
  8
0
  5
3001
 10
123.999
 20
260.537
 30
0.000000
  70
    32
  0
VERTEX
  8
0
  5
3002
 10
123.930
 20
260.531
 30
0.000000
  70
    32
  0
VERTEX
  8
0
  5
3003
 10
123.862
 20
260.524
 30
0.000000
  70
    32
  0
VERTEX
  8
0
  5
3004
 10
123.795
 20
260.517
 30
0.000000
  70
    32
  0
VERTEX
  8
0
  5
3005
 10
123.728
 20
260.510
 30
0.000000
  70
    32
  0
VERTEX
  8
0
  5
3006
 10
123.662
 20
260.503
 30
0.000000
  70
    32
  0
VERTEX
  8
0
  5
3007
 10
123.598
 20
260.496
 30
0.000000
  70
    32
  0
VERTEX
  8
0
  5
3008
 10
123.534
 20
260.489
 30
0.000000
  70
    32
  0
VERTEX
  8
0
  5
3009
 10
123.471
 20
260.482
 30
0.000000
  70
    32
  0
VERTEX
  8
0
  5
300A
 10
123.409
 20
260.475
 30
0.000000
  70
    32
  0
VERTEX
  8
0
  5
300B
 10
123.348
 20
260.468
 30
0.000000
  70
    32
  0
VERTEX
  8
0
  5
300C
 10
123.288
 20
260.461
 30
0.000000
  70
    32
  0
VERTEX
  8
0
  5
300D
 10
123.229
 20
260.454
 30
0.000000
  70
    32
  0
VERTEX
  8
0
  5
300E
 10
123.170
 20
260.447
 30
0.000000
  70
    32
  0
VERTEX
  8
0
  5
300F
 10
123.113
 20
260.440
 30
0.000000
  70
    32
  0
VERTEX
  8
0
  5
3010
 10
123.056
 20
260.433
 30
0.000000
  70
    32
  0
VERTEX
  8
0
  5
3011
 10
123.001
 20
260.426
 30
0.000000
  70
    32
  0
VERTEX
  8
0
  5
3012
 10
122.946
 20
260.419
 30
0.000000
  70
    32
  0
VERTEX
  8
0
  5
3013
 10
122.892
 20
260.412
 30
0.000000
  70
    32
  0
VERTEX
  8
0
  5
3014
 10
122.839
 20
260.405
 30
0.000000
  70
    32
  0
VERTEX
  8
0
  5
3015
 10
122.787
 20
260.398
 30
0.000000
  70
    32
  0
VERTEX
  8
0
  5
3016
 10
122.736
 20
260.391
 30
0.000000
  70
    32
  0
VERTEX
  8
0
  5
3017
 10
122.685
 20
260.384
 30
0.000000
  70
    32
  0
VERTEX
  8
0
  5
3018
 10
122.636
 20
260.378
 30
0.000000
  70
    32
  0
VERTEX
  8
0
  5
3019
 10
122.588
 20
260.371
 30
0.000000
  70
    32
  0
VERTEX
  8
0
  5
301A
 10
122.540
 20
260.364
 30
0.000000
  70
    32
  0
VERTEX
  8
0
  5
301B
 10
122.493
 20
260.357
 30
0.000000
  70
    32
  0
VERTEX
  8
0
  5
301C
 10
122.448
 20
260.350
 30
0.000000
  70
    32
  0
VERTEX
  8
0
  5
301D
 10
122.403
 20
260.343
 30
0.000000
  70
    32
  0
VERTEX
  8
0
  5
301E
 10
122.359
 20
260.336
 30
0.000000
  70
    32
  0
VERTEX
  8
0
  5
301F
 10
122.316
 20
260.329
 30
0.000000
  70
    32
  0
VERTEX
  8
0
  5
3020
 10
122.274
 20
260.322
 30
0.000000
  70
    32
  0
VERTEX
  8
0
  5
3021
 10
122.232
 20
260.315
 30
0.000000
  70
    32
  0
VERTEX
  8
0
  5
3022
 10
122.192
 20
260.308
 30
0.000000
  70
    32
  0
VERTEX
  8
0
  5
3023
 10
122.153
 20
260.301
 30
0.000000
  70
    32
  0
VERTEX
  8
0
  5
3024
 10
122.114
 20
260.294
 30
0.000000
  70
    32
  0
VERTEX
  8
0
  5
3025
 10
122.077
 20
260.287
 30
0.000000
  70
    32
  0
VERTEX
  8
0
  5
3026
 10
122.040
 20
260.280
 30
0.000000
  70
    32
  0
VERTEX
  8
0
  5
3027
 10
122.004
 20
260.273
 30
0.000000
  70
    32
  0
VERTEX
  8
0
  5
3028
 10
121.969
 20
260.266
 30
0.000000
  70
    32
  0
VERTEX
  8
0
  5
3029
 10
121.935
 20
260.259
 30
0.000000
  70
    32
  0
VERTEX
  8
0
  5
302A
 10
121.902
 20
260.252
 30
0.000000
  70
    32
  0
VERTEX
  8
0
  5
302B
 10
121.870
 20
260.245
 30
0.000000
  70
    32
  0
VERTEX
  8
0
  5
302C
 10
121.839
 20
260.238
 30
0.000000
  70
    32
  0
VERTEX
  8
0
  5
302D
 10
121.808
 20
260.231
 30
0.000000
  70
    32
  0
VERTEX
  8
0
  5
302E
 10
121.779
 20
260.224
 30
0.000000
  70
    32
  0
VERTEX
  8
0
  5
302F
 10
121.750
 20
260.217
 30
0.000000
  70
    32
  0
VERTEX
  8
0
  5
3030
 10
121.723
 20
260.210
 30
0.000000
  70
    32
  0
VERTEX
  8
0
  5
3031
 10
121.696
 20
260.203
 30
0.000000
  70
    32
  0
VERTEX
  8
0
  5
3032
 10
121.670
 20
260.196
 30
0.000000
  70
    32
  0
VERTEX
  8
0
  5
3033
 10
121.645
 20
260.189
 30
0.000000
  70
    32
  0
VERTEX
  8
0
  5
3034
 10
121.621
 20
260.182
 30
0.000000
  70
    32
  0
VERTEX
  8
0
  5
3035
 10
121.598
 20
260.175
 30
0.000000
  70
    32
  0
VERTEX
  8
0
  5
3036
 10
121.576
 20
260.168
 30
0.000000
  70
    32
  0
VERTEX
  8
0
  5
3037
 10
121.554
 20
260.161
 30
0.000000
  70
    32
  0
VERTEX
  8
0
  5
3038
 10
121.534
 20
260.154
 30
0.000000
  70
    32
  0
VERTEX
  8
0
  5
3039
 10
121.515
 20
260.147
 30
0.000000
  70
    32
  0
VERTEX
  8
0
  5
303A
 10
121.496
 20
260.140
 30
0.000000
  70
    32
  0
VERTEX
  8
0
  5
303B
 10
121.478
 20
260.133
 30
0.000000
  70
    32
  0
VERTEX
  8
0
  5
303C
 10
121.462
 20
260.126
 30
0.000000
  70
    32
  0
VERTEX
  8
0
  5
303D
 10
121.446
 20
260.119
 30
0.000000
  70
    32
  0
VERTEX
  8
0
  5
303E
 10
121.431
 20
260.112
 30
0.000000
  70
    32
  0
VERTEX
  8
0
  5
303F
 10
121.417
 20
260.105
 30
0.000000
  70
    32
  0
VERTEX
  8
0
  5
3040
 10
121.404
 20
260.098
 30
0.000000
  70
    32
  0
VERTEX
  8
0
  5
3041
 10
121.391
 20
260.091
 30
0.000000
  70
    32
  0
VERTEX
  8
0
  5
3042
 10
121.380
 20
260.084
 30
0.000000
  70
    32
  0
VERTEX
  8
0
  5
3043
 10
121.370
 20
260.077
 30
0.000000
  70
    32
  0
VERTEX
  8
0
  5
3044
 10
121.360
 20
260.070
 30
0.000000
  70
    32
  0
VERTEX
  8
0
  5
3045
 10
121.351
 20
260.063
 30
0.000000
  70
    32
  0
VERTEX
  8
0
  5
3046
 10
121.344
 20
260.056
 30
0.000000
  70
    32
  0
VERTEX
  8
0
  5
3047
 10
121.337
 20
260.049
 30
0.000000
  70
    32
  0
VERTEX
  8
0
  5
3048
 10
121.331
 20
260.042
 30
0.000000
  70
    32
  0
VERTEX
  8
0
  5
3049
 10
121.326
 20
260.035
 30
0.000000
  70
    32
  0
VERTEX
  8
0
  5
304A
 10
121.322
 20
260.028
 30
0.000000
  70
    32
  0
VERTEX
  8
0
  5
304B
 10
121.319
 20
260.021
 30
0.000000
  70
    32
  0
VERTEX
  8
0
  5
304C
 10
121.316
 20
260.014
 30
0.000000
  70
    32
  0
VERTEX
  8
0
  5
304D
 10
121.315
 20
260.007
 30
0.000000
  70
    32
  0
VERTEX
  8
0
  5
304E
 10
121.315
 20
260.000
 30
0.000000
  70
    32
  0
SEQEND
  8
0
  5
304F
  0
ARC
  5
2609
  8
0
 10
110.3987237746108
 20
259.91300482063713
 30
0.0
 40
2.8016595911233848
 50
1.779394601467934
 51
27.658764314433189
  0
ARC
  5
260A
  8
0
 10
108.19248984359569
 20
258.92598646896528
 30
0.0
 40
5.08272816568598
 50
53.277481998044927
 51
86.644356216467997
  0
ARC
  5
260C
  8
0
 10
124.99999999985
 20
259.99999999994998
 30
0.0
 40
4.0000000000500222
 50
14.872009153352129
 51
89.999999998599534
  0
POLYLINE
  5
260D
  8
0
 10
121.3146281911288
 20
229.00000000000003
 30
0.0
 66
     1
 70
     8
  0
VERTEX
  8
0
  5
3050
 10
121.315
 20
229.000
 30
0.000000
  70
    32
  0
VERTEX
  8
0
  5
3051
 10
121.315
 20
228.993
 30
0.000000
  70
    32
  0
VERTEX
  8
0
  5
3052
 10
121.316
 20
228.986
 30
0.000000
  70
    32
  0
VERTEX
  8
0
  5
3053
 10
121.319
 20
228.979
 30
0.000000
  70
    32
  0
VERTEX
  8
0
  5
3054
 10
121.322
 20
228.972
 30
0.000000
  70
    32
  0
VERTEX
  8
0
  5
3055
 10
121.326
 20
228.965
 30
0.000000
  70
    32
  0
VERTEX
  8
0
  5
3056
 10
121.331
 20
228.958
 30
0.000000
  70
    32
  0
VERTEX
  8
0
  5
3057
 10
121.337
 20
228.951
 30
0.000000
  70
    32
  0
VERTEX
  8
0
  5
3058
 10
121.344
 20
228.944
 30
0.000000
  70
    32
  0
VERTEX
  8
0
  5
3059
 10
121.351
 20
228.937
 30
0.000000
  70
    32
  0
VERTEX
  8
0
  5
305A
 10
121.360
 20
228.930
 30
0.000000
  70
    32
  0
VERTEX
  8
0
  5
305B
 10
121.370
 20
228.923
 30
0.000000
  70
    32
  0
VERTEX
  8
0
  5
305C
 10
121.380
 20
228.916
 30
0.000000
  70
    32
  0
VERTEX
  8
0
  5
305D
 10
121.391
 20
228.909
 30
0.000000
  70
    32
  0
VERTEX
  8
0
  5
305E
 10
121.404
 20
228.902
 30
0.000000
  70
    32
  0
VERTEX
  8
0
  5
305F
 10
121.417
 20
228.895
 30
0.000000
  70
    32
  0
VERTEX
  8
0
  5
3060
 10
121.431
 20
228.888
 30
0.000000
  70
    32
  0
VERTEX
  8
0
  5
3061
 10
121.446
 20
228.881
 30
0.000000
  70
    32
  0
VERTEX
  8
0
  5
3062
 10
121.462
 20
228.874
 30
0.000000
  70
    32
  0
VERTEX
  8
0
  5
3063
 10
121.478
 20
228.867
 30
0.000000
  70
    32
  0
VERTEX
  8
0
  5
3064
 10
121.496
 20
228.860
 30
0.000000
  70
    32
  0
VERTEX
  8
0
  5
3065
 10
121.515
 20
228.853
 30
0.000000
  70
    32
  0
VERTEX
  8
0
  5
3066
 10
121.534
 20
228.846
 30
0.000000
  70
    32
  0
VERTEX
  8
0
  5
3067
 10
121.554
 20
228.839
 30
0.000000
  70
    32
  0
VERTEX
  8
0
  5
3068
 10
121.576
 20
228.832
 30
0.000000
  70
    32
  0
VERTEX
  8
0
  5
3069
 10
121.598
 20
228.825
 30
0.000000
  70
    32
  0
VERTEX
  8
0
  5
306A
 10
121.621
 20
228.818
 30
0.000000
  70
    32
  0
VERTEX
  8
0
  5
306B
 10
121.645
 20
228.811
 30
0.000000
  70
    32
  0
VERTEX
  8
0
  5
306C
 10
121.670
 20
228.804
 30
0.000000
  70
    32
  0
VERTEX
  8
0
  5
306D
 10
121.696
 20
228.797
 30
0.000000
  70
    32
  0
VERTEX
  8
0
  5
306E
 10
121.723
 20
228.790
 30
0.000000
  70
    32
  0
VERTEX
  8
0
  5
306F
 10
121.750
 20
228.783
 30
0.000000
  70
    32
  0
VERTEX
  8
0
  5
3070
 10
121.779
 20
228.776
 30
0.000000
  70
    32
  0
VERTEX
  8
0
  5
3071
 10
121.808
 20
228.769
 30
0.000000
  70
    32
  0
VERTEX
  8
0
  5
3072
 10
121.839
 20
228.762
 30
0.000000
  70
    32
  0
VERTEX
  8
0
  5
3073
 10
121.870
 20
228.755
 30
0.000000
  70
    32
  0
VERTEX
  8
0
  5
3074
 10
121.902
 20
228.748
 30
0.000000
  70
    32
  0
VERTEX
  8
0
  5
3075
 10
121.935
 20
228.741
 30
0.000000
  70
    32
  0
VERTEX
  8
0
  5
3076
 10
121.969
 20
228.734
 30
0.000000
  70
    32
  0
VERTEX
  8
0
  5
3077
 10
122.004
 20
228.727
 30
0.000000
  70
    32
  0
VERTEX
  8
0
  5
3078
 10
122.040
 20
228.720
 30
0.000000
  70
    32
  0
VERTEX
  8
0
  5
3079
 10
122.077
 20
228.713
 30
0.000000
  70
    32
  0
VERTEX
  8
0
  5
307A
 10
122.114
 20
228.706
 30
0.000000
  70
    32
  0
VERTEX
  8
0
  5
307B
 10
122.153
 20
228.699
 30
0.000000
  70
    32
  0
VERTEX
  8
0
  5
307C
 10
122.192
 20
228.692
 30
0.000000
  70
    32
  0
VERTEX
  8
0
  5
307D
 10
122.232
 20
228.685
 30
0.000000
  70
    32
  0
VERTEX
  8
0
  5
307E
 10
122.274
 20
228.678
 30
0.000000
  70
    32
  0
VERTEX
  8
0
  5
307F
 10
122.316
 20
228.671
 30
0.000000
  70
    32
  0
VERTEX
  8
0
  5
3080
 10
122.359
 20
228.664
 30
0.000000
  70
    32
  0
VERTEX
  8
0
  5
3081
 10
122.403
 20
228.657
 30
0.000000
  70
    32
  0
VERTEX
  8
0
  5
3082
 10
122.448
 20
228.650
 30
0.000000
  70
    32
  0
VERTEX
  8
0
  5
3083
 10
122.493
 20
228.643
 30
0.000000
  70
    32
  0
VERTEX
  8
0
  5
3084
 10
122.540
 20
228.636
 30
0.000000
  70
    32
  0
VERTEX
  8
0
  5
3085
 10
122.588
 20
228.629
 30
0.000000
  70
    32
  0
VERTEX
  8
0
  5
3086
 10
122.636
 20
228.622
 30
0.000000
  70
    32
  0
VERTEX
  8
0
  5
3087
 10
122.685
 20
228.616
 30
0.000000
  70
    32
  0
VERTEX
  8
0
  5
3088
 10
122.736
 20
228.609
 30
0.000000
  70
    32
  0
VERTEX
  8
0
  5
3089
 10
122.787
 20
228.602
 30
0.000000
  70
    32
  0
VERTEX
  8
0
  5
308A
 10
122.839
 20
228.595
 30
0.000000
  70
    32
  0
VERTEX
  8
0
  5
308B
 10
122.892
 20
228.588
 30
0.000000
  70
    32
  0
VERTEX
  8
0
  5
308C
 10
122.946
 20
228.581
 30
0.000000
  70
    32
  0
VERTEX
  8
0
  5
308D
 10
123.001
 20
228.574
 30
0.000000
  70
    32
  0
VERTEX
  8
0
  5
308E
 10
123.056
 20
228.567
 30
0.000000
  70
    32
  0
VERTEX
  8
0
  5
308F
 10
123.113
 20
228.560
 30
0.000000
  70
    32
  0
VERTEX
  8
0
  5
3090
 10
123.170
 20
228.553
 30
0.000000
  70
    32
  0
VERTEX
  8
0
  5
3091
 10
123.229
 20
228.546
 30
0.000000
  70
    32
  0
VERTEX
  8
0
  5
3092
 10
123.288
 20
228.539
 30
0.000000
  70
    32
  0
VERTEX
  8
0
  5
3093
 10
123.348
 20
228.532
 30
0.000000
  70
    32
  0
VERTEX
  8
0
  5
3094
 10
123.409
 20
228.525
 30
0.000000
  70
    32
  0
VERTEX
  8
0
  5
3095
 10
123.471
 20
228.518
 30
0.000000
  70
    32
  0
VERTEX
  8
0
  5
3096
 10
123.534
 20
228.511
 30
0.000000
  70
    32
  0
VERTEX
  8
0
  5
3097
 10
123.598
 20
228.504
 30
0.000000
  70
    32
  0
VERTEX
  8
0
  5
3098
 10
123.662
 20
228.497
 30
0.000000
  70
    32
  0
VERTEX
  8
0
  5
3099
 10
123.728
 20
228.490
 30
0.000000
  70
    32
  0
VERTEX
  8
0
  5
309A
 10
123.795
 20
228.483
 30
0.000000
  70
    32
  0
VERTEX
  8
0
  5
309B
 10
123.862
 20
228.476
 30
0.000000
  70
    32
  0
VERTEX
  8
0
  5
309C
 10
123.930
 20
228.469
 30
0.000000
  70
    32
  0
VERTEX
  8
0
  5
309D
 10
123.999
 20
228.463
 30
0.000000
  70
    32
  0
VERTEX
  8
0
  5
309E
 10
124.069
 20
228.456
 30
0.000000
  70
    32
  0
VERTEX
  8
0
  5
309F
 10
124.140
 20
228.449
 30
0.000000
  70
    32
  0
VERTEX
  8
0
  5
30A0
 10
124.212
 20
228.442
 30
0.000000
  70
    32
  0
VERTEX
  8
0
  5
30A1
 10
124.285
 20
228.435
 30
0.000000
  70
    32
  0
VERTEX
  8
0
  5
30A2
 10
124.359
 20
228.428
 30
0.000000
  70
    32
  0
VERTEX
  8
0
  5
30A3
 10
124.433
 20
228.421
 30
0.000000
  70
    32
  0
VERTEX
  8
0
  5
30A4
 10
124.509
 20
228.414
 30
0.000000
  70
    32
  0
VERTEX
  8
0
  5
30A5
 10
124.585
 20
228.407
 30
0.000000
  70
    32
  0
VERTEX
  8
0
  5
30A6
 10
124.662
 20
228.400
 30
0.000000
  70
    32
  0
VERTEX
  8
0
  5
30A7
 10
124.741
 20
228.393
 30
0.000000
  70
    32
  0
VERTEX
  8
0
  5
30A8
 10
124.820
 20
228.386
 30
0.000000
  70
    32
  0
VERTEX
  8
0
  5
30A9
 10
124.900
 20
228.379
 30
0.000000
  70
    32
  0
VERTEX
  8
0
  5
30AA
 10
124.980
 20
228.372
 30
0.000000
  70
    32
  0
VERTEX
  8
0
  5
30AB
 10
125.062
 20
228.366
 30
0.000000
  70
    32
  0
VERTEX
  8
0
  5
30AC
 10
125.145
 20
228.359
 30
0.000000
  70
    32
  0
VERTEX
  8
0
  5
30AD
 10
125.228
 20
228.352
 30
0.000000
  70
    32
  0
VERTEX
  8
0
  5
30AE
 10
125.313
 20
228.345
 30
0.000000
  70
    32
  0
VERTEX
  8
0
  5
30AF
 10
125.398
 20
228.338
 30
0.000000
  70
    32
  0
VERTEX
  8
0
  5
30B0
 10
125.484
 20
228.331
 30
0.000000
  70
    32
  0
VERTEX
  8
0
  5
30B1
 10
125.571
 20
228.324
 30
0.000000
  70
    32
  0
VERTEX
  8
0
  5
30B2
 10
125.659
 20
228.317
 30
0.000000
  70
    32
  0
VERTEX
  8
0
  5
30B3
 10
125.748
 20
228.310
 30
0.000000
  70
    32
  0
VERTEX
  8
0
  5
30B4
 10
125.838
 20
228.303
 30
0.000000
  70
    32
  0
VERTEX
  8
0
  5
30B5
 10
125.929
 20
228.297
 30
0.000000
  70
    32
  0
VERTEX
  8
0
  5
30B6
 10
126.020
 20
228.290
 30
0.000000
  70
    32
  0
VERTEX
  8
0
  5
30B7
 10
126.113
 20
228.283
 30
0.000000
  70
    32
  0
VERTEX
  8
0
  5
30B8
 10
126.206
 20
228.276
 30
0.000000
  70
    32
  0
VERTEX
  8
0
  5
30B9
 10
126.300
 20
228.269
 30
0.000000
  70
    32
  0
VERTEX
  8
0
  5
30BA
 10
126.396
 20
228.262
 30
0.000000
  70
    32
  0
VERTEX
  8
0
  5
30BB
 10
126.492
 20
228.255
 30
0.000000
  70
    32
  0
VERTEX
  8
0
  5
30BC
 10
126.589
 20
228.248
 30
0.000000
  70
    32
  0
VERTEX
  8
0
  5
30BD
 10
126.686
 20
228.241
 30
0.000000
  70
    32
  0
VERTEX
  8
0
  5
30BE
 10
126.785
 20
228.235
 30
0.000000
  70
    32
  0
VERTEX
  8
0
  5
30BF
 10
126.885
 20
228.228
 30
0.000000
  70
    32
  0
VERTEX
  8
0
  5
30C0
 10
126.985
 20
228.221
 30
0.000000
  70
    32
  0
VERTEX
  8
0
  5
30C1
 10
127.087
 20
228.214
 30
0.000000
  70
    32
  0
VERTEX
  8
0
  5
30C2
 10
127.189
 20
228.207
 30
0.000000
  70
    32
  0
VERTEX
  8
0
  5
30C3
 10
127.292
 20
228.200
 30
0.000000
  70
    32
  0
VERTEX
  8
0
  5
30C4
 10
127.396
 20
228.193
 30
0.000000
  70
    32
  0
VERTEX
  8
0
  5
30C5
 10
127.501
 20
228.187
 30
0.000000
  70
    32
  0
VERTEX
  8
0
  5
30C6
 10
127.607
 20
228.180
 30
0.000000
  70
    32
  0
VERTEX
  8
0
  5
30C7
 10
127.713
 20
228.173
 30
0.000000
  70
    32
  0
VERTEX
  8
0
  5
30C8
 10
127.821
 20
228.166
 30
0.000000
  70
    32
  0
VERTEX
  8
0
  5
30C9
 10
127.930
 20
228.159
 30
0.000000
  70
    32
  0
VERTEX
  8
0
  5
30CA
 10
128.039
 20
228.152
 30
0.000000
  70
    32
  0
VERTEX
  8
0
  5
30CB
 10
128.149
 20
228.145
 30
0.000000
  70
    32
  0
VERTEX
  8
0
  5
30CC
 10
128.260
 20
228.139
 30
0.000000
  70
    32
  0
VERTEX
  8
0
  5
30CD
 10
128.372
 20
228.132
 30
0.000000
  70
    32
  0
VERTEX
  8
0
  5
30CE
 10
128.485
 20
228.125
 30
0.000000
  70
    32
  0
VERTEX
  8
0
  5
30CF
 10
128.599
 20
228.118
 30
0.000000
  70
    32
  0
VERTEX
  8
0
  5
30D0
 10
128.714
 20
228.111
 30
0.000000
  70
    32
  0
SEQEND
  8
0
  5
30D1
  0
ARC
  5
260E
  8
0
 10
128.65839864103481
 20
227.89720343313499
 30
0.0
 40
0.2211342892682437
 50
20.14387451425603
 51
75.499880994988672
  0
ARC
  5
260F
  8
0
 10
124.99999999985
 20
229.00000000004999
 30
0.0
 40
4.0000000000500222
 50
270.00000000140039
 51
345.12799084659389
  0
ARC
  5
2611
  8
0
 10
108.1017929934701
 20
230.322673220139
 30
0.0
 40
5.3368113034155327
 50
274.17145821072188
 51
305.90670357476512
  0
ARC
  5
2612
  8
0
 10
110.39872377461209
 20
229.0869951793627
 30
0.0
 40
2.8016595911219628
 50
332.34123568556311
 51
358.22060539854192
  0
LINE
  5
2614
  8
0
 10
113.5939986403817
 20
229.0
 30
0.0
 11
113.5939986403817
 21
260.0
 31
0.0
  0
LINE
  5
2619
  8
0
 10
57.685372875512058
 20
229.0
 30
0.0
 11
65.800967610226735
 21
229.0
 31
0.0
  0
LINE
  5
261A
  8
0
 10
65.800967610226849
 20
260.0
 30
0.0
 11
57.685372875429941
 21
260.0
 31
0.0
  0
LINE
  5
261C
  8
0
 10
121.3146281911324
 20
260.0
 30
0.0
 11
113.1990323831933
 21
260.0
 31
0.0
  0
LINE
  5
261D
  8
0
 10
113.1990323831931
 20
229.0
 30
0.0
 11
121.3146281911083
 21
229.0
 31
0.0
  0
ARC
  5
261E
  8
0
 10
124.9999976377661
 20
259.99999968179281
 30
0.0
 40
4.000002364608938
 50
0.0000045565491478
 51
14.872004874010489
  0
LINE
  5
261F
  8
0
 10
129.000000002375
 20
259.9999999998999
 30
0.0
 11
129.00000000489999
 21
229.00000000005119
 31
0.0
  0
ARC
  5
2620
  8
0
 10
124.99999527650429
 20
229.00000063625109
 30
0.0
 40
4.0000047283957594
 50
345.12799940382132
 51
359.99999088711991
  0
ARC
  5
2621
  8
0
 10
53.999995371271353
 20
228.99999937666141
 30
0.0
 40
3.9999953662714258
 50
179.99999107060319
 51
194.872018560665
  0
LINE
  5
2622
  8
0
 10
50.000000004999983
 20
229.00000000004999
 30
0.0
 11
50.000000007474988
 21
259.99999999994878
 31
0.0
  0
ARC
  5
2623
  8
0
 10
53.999993056362818
 20
260.00000093509721
 30
0.0
 40
3.999993048887942
 50
165.12797724475291
 51
180.0000133950364
  0
LINE
  5
2624
  8
0
 10
204.50000000239999
 20
78.000000000060822
 30
0.0
 11
204.5000000023756
 21
84.199999999937916
 31
0.0
  0
LINE
  5
2625
  8
0
 10
204.5000000023756
 20
95.000000000012221
 30
0.0
 11
204.50000000239999
 21
174.05278499999989
 31
0.0
  0
LINE
  5
2626
  8
0
 10
192.50000000239999
 20
174.05278499999989
 30
0.0
 11
192.50000000237549
 21
95.000000000012221
 31
0.0
  0
LINE
  5
2627
  8
0
 10
192.50000000237549
 20
84.199999999937916
 30
0.0
 11
192.50000000239999
 21
78.000000000060822
 31
0.0
  0
LINE
  5
2628
  8
0
 10
204.50000000237529
 20
174.05278499999989
 30
0.0
 11
203.55278500237529
 21
175.0
 31
0.0
  0
LINE
  5
2629
  8
0
 10
193.44721500242471
 20
175.0
 30
0.0
 11
192.50000000242471
 21
174.05278499999989
 31
0.0
  0
LINE
  5
262A
  8
0
 10
197.72358465616671
 20
71.606217782569615
 30
0.0
 11
199.27641534863329
 21
71.606217782569615
 31
0.0
  0
POLYLINE
  5
262B
  8
0
 66
     1
 10
0.0
 20
0.0
 30
0.0
 70
   128
  0
VERTEX
  5
2CA6
  8
0
 10
203.2500000023316
 20
70.999999999895635
 30
0.0
  0
VERTEX
  5
2CA7
  8
0
 10
201.26320767547591
 20
71.15766376587419
 30
0.0
  0
VERTEX
  5
2CA8
  8
0
 10
199.27641534861581
 20
71.606217782544377
 30
0.0
  0
SEQEND
  5
2CA9
  8
0
  0
ARC
  5
262C
  8
0
 10
193.62110417679901
 20
85.170841272738926
 30
0.0
 40
14.171427469159379
 50
270.52113935967083
 51
286.8273999436849
  0
ARC
  5
262E
  8
0
 10
203.37705904022701
 20
63.841198347943418
 30
0.0
 40
14.159371745353219
 50
90.514150235971016
 51
106.8343890683994
  0
LINE
  5
262F
  8
0
 10
199.27641534861999
 20
77.393782217360808
 30
0.0
 11
197.72358465616671
 21
77.39378221736456
 31
0.0
  0
ARC
  5
2630
  8
0
 10
193.62110417699381
 20
63.829158729274582
 30
0.0
 40
14.171427467112769
 50
73.172600054635367
 51
89.478860641042445
  0
LINE
  5
2631
  8
0
 10
199.27641534861999
 20
77.393782217360808
 30
0.0
 11
199.27641534863329
 21
71.606217782569615
 31
0.0
  0
LINE
  5
2632
  8
0
 10
197.72358465616671
 20
71.606217782569615
 30
0.0
 11
197.72358465616671
 21
77.39378221736456
 31
0.0
  0
ARC
  5
2633
  8
0
 10
203.1211041768629
 20
63.829158729261728
 30
0.0
 40
14.17142746712587
 50
73.172600054639261
 51
89.47886064091216
  0
LINE
  5
2634
  8
0
 10
207.22358465603881
 20
71.606217782569615
 30
0.0
 11
207.22358465603881
 21
77.39378221736456
 31
0.0
  0
ARC
  5
2635
  8
0
 10
203.12110417666801
 20
85.170841272753009
 30
0.0
 40
14.1714274691738
 50
270.52113935980282
 51
286.82739994368018
  0
POLYLINE
  5
2636
  8
0
 66
     1
 10
0.0
 20
0.0
 30
0.0
 70
   128
  0
VERTEX
  5
2CAA
  8
0
 10
193.7500000024684
 20
70.999999999895635
 30
0.0
  0
VERTEX
  5
2CAB
  8
0
 10
191.76320767560389
 20
71.15766376587419
 30
0.0
  0
VERTEX
  5
2CAC
  8
0
 10
189.77641534874391
 20
71.606217782544377
 30
0.0
  0
SEQEND
  5
2CAD
  8
0
  0
LINE
  5
2637
  8
0
 10
189.77641534874809
 20
77.393782217360808
 30
0.0
 11
189.7764153487613
 21
71.606217782569615
 31
0.0
  0
ARC
  5
2638
  8
0
 10
193.87705904035781
 20
63.841198347931602
 30
0.0
 40
14.15937174536541
 50
90.514150236102864
 51
106.83438906839631
  0
LINE
  5
2639
  8
0
 10
207.22358465603881
 20
71.606217782569615
 30
0.0
 11
208.00000000239999
 21
71.606217782569615
 31
0.0
  0
LINE
  5
263B
  8
0
 10
208.00000000239999
 20
77.393782217360808
 30
0.0
 11
207.22358465603881
 21
77.39378221736456
 31
0.0
  0
LINE
  5
263C
  8
0
 10
208.0000000024298
 20
78.000000000060822
 30
0.0
 11
208.00000000208581
 21
71.000000000000057
 31
0.0
  0
LINE
  5
263D
  8
0
 10
208.0000000024298
 20
78.000000000060822
 30
0.0
 11
189.00000000237031
 21
78.000000000060822
 31
0.0
  0
LINE
  5
263E
  8
0
 10
189.00000000239999
 20
71.606217782569615
 30
0.0
 11
189.7764153487613
 21
71.606217782569615
 31
0.0
  0
LINE
  5
2640
  8
0
 10
189.77641534874809
 20
77.393782217360808
 30
0.0
 11
189.00000000239999
 21
77.39378221736456
 31
0.0
  0
LINE
  5
2641
  8
0
 10
189.00000000271359
 20
71.000000000000057
 30
0.0
 11
189.00000000237031
 21
78.000000000060822
 31
0.0
  0
LINE
  5
2663
  8
0
 10
204.50000000239999
 20
174.05278499999989
 30
0.0
 11
192.50000000239999
 21
174.05278499999989
 31
0.0
  0
LINE
  5
2664
  8
0
 10
203.55278500237529
 20
175.0
 30
0.0
 11
193.44721500242471
 21
175.0
 31
0.0
  0
LINE
  5
266E
  8
0
 10
179.00000000239999
 20
50.0
 30
0.0
 11
218.00000000239999
 21
49.999999999999943
 31
0.0
  0
LINE
  5
2675
  8
0
 10
179.00000000239999
 20
70.0
 30
0.0
 11
179.00000000239999
 21
50.0
 31
0.0
  0
ARC
  5
2676
  8
0
 10
180.0000000024001
 20
70.0
 30
0.0
 40
1.000000000000056
 50
90.000000000003226
 51
179.9999999999967
  0
LINE
  5
267B
  8
0
 10
180.0000000024001
 20
71.0
 30
0.0
 11
217.00000000239999
 21
71.0
 31
0.0
  0
ARC
  5
267C
  8
0
 10
217.00000000247201
 20
70.000000000071964
 30
0.0
 40
0.9999999999280647
 50
359.99999999587681
 51
90.000000004123194
  0
LINE
  5
267D
  8
0
 10
218.00000000239999
 20
49.999999999999943
 30
0.0
 11
218.00000000239999
 21
70.0
 31
0.0
  0
LINE
  5
26D6
  8
3
 10
94.552999999941633
 20
78.000000000066507
 30
0.0
 11
94.552999999917134
 21
84.199999999954002
 31
0.0
  0
LINE
  5
26D7
  8
3
 10
84.446999999941582
 20
78.000000000084555
 30
0.0
 11
84.446999999917097
 21
84.199999999968384
 31
0.0
  0
LINE
  5
26D9
  8
3
 10
94.552999999917134
 20
94.999999999981867
 30
0.0
 11
94.552999999941619
 21
174.99978499998369
 31
0.0
  0
LINE
  5
26DA
  8
3
 10
84.446999999917082
 20
94.999999999996135
 30
0.0
 11
84.446999999941539
 21
174.99978499996689
 31
0.0
  0
LINE
  5
27E8
  8
3
 10
203.5530000023916
 20
78.000000000060822
 30
0.0
 11
203.55300000236721
 21
84.199999999954002
 31
0.0
  0
LINE
  5
27E9
  8
3
 10
203.55300000236721
 20
94.999999999981867
 30
0.0
 11
203.5530000023916
 21
174.99978499998369
 31
0.0
  0
LINE
  5
27EA
  8
3
 10
193.4470000023916
 20
78.000000000060822
 30
0.0
 11
193.4470000023671
 21
84.199999999968384
 31
0.0
  0
LINE
  5
27EB
  8
3
 10
193.4470000023671
 20
94.999999999996135
 30
0.0
 11
193.4470000023916
 21
174.99978499996689
 31
0.0
  0
LINE
  5
2985
  8
0
 10
50.133993691507889
 20
55.091352245318028
 30
0.0
 11
54.000000000025523
 21
53.490000000110058
 31
0.0
  0
LINE
  5
2986
  8
0
 10
54.000000000001187
 20
53.490000000051161
 30
0.0
 11
54.000000000001201
 21
50.0
 31
0.0
  0
LINE
  5
2989
  8
0
 10
54.000000000001187
 20
53.490000000051161
 30
0.0
 11
70.509999999950026
 21
70.0
 31
0.0
  0
LINE
  5
298A
  8
0
 10
70.509999999950026
 20
70.0
 30
0.0
 11
108.4899999999498
 21
70.0
 31
0.0
  0
LINE
  5
298B
  8
0
 10
108.4899999999498
 20
70.0
 30
0.0
 11
124.9999999999477
 21
53.490000000071177
 31
0.0
  0
LINE
  5
298C
  8
0
 10
124.99999999987919
 20
50.0
 30
0.0
 11
124.9999999999477
 21
53.490000000071177
 31
0.0
  0
ARC
  5
298D
  8
0
 10
67.134721702011973
 20
65.004485935266416
 30
0.0
 40
6.0289024174788812
 50
55.954606323947772
 51
83.967231890565941
  0
ARC
  5
298F
  8
0
 10
111.9009230139964
 20
64.906760336048251
 30
0.0
 40
6.129884671199231
 50
96.268093645058386
 51
123.8100681404259
  0
LINE
  5
2996
  8
0
 10
124.9999999999232
 20
53.490000000130181
 30
0.0
 11
128.86600632667469
 21
55.091352252890829
 31
0.0
  0
ARC
  5
2A4F
  8
0
 10
181.76023467467471
 20
55.385740486826762
 30
0.0
 40
0.3634359893978752
 50
305.9027022324629
 51
345.00431182739948
  0
ARC
  5
2A51
  8
0
 10
215.21504987113971
 20
55.368724477165301
 30
0.0
 40
0.3353097672753509
 50
193.27959863700349
 51
235.8133872975161
  0
ARC
  5
2A52
  8
0
 10
231.95958321245851
 20
19.021552085691269
 30
0.0
 40
39.846643032222609
 50
115.14767275742371
 51
116.7897335772591
  0
LINE
  5
2A53
  8
0
 10
214.0000000023
 20
54.591319189999922
 30
0.0
 11
183.000000002451
 21
54.591319189999922
 31
0.0
  0
ARC
  5
2A54
  8
0
 10
165.04041813418081
 20
19.02155484359173
 30
0.0
 40
39.84663996552419
 50
63.21026635778307
 51
64.852327303953317
  0
LINE
  5
2A55
  8
0
 10
214.0000000023
 20
54.591319189999922
 30
0.0
 11
214.0000000023
 21
49.999999999999957
 31
0.0
  0
LINE
  5
2A57
  8
0
 10
183.0000000025135
 20
50.0
 30
0.0
 11
183.000000002451
 21
54.591319189999922
 31
0.0
  0
POLYLINE
  5
2A5A
  8
0
 10
181.97335737674737
 20
55.091352252893081
 30
0.0
 66
     1
 70
     8
  0
VERTEX
  8
0
  5
30D2
 10
181.973
 20
55.0914
 30
0.000000
  70
    32
  0
VERTEX
  8
0
  5
30D3
 10
181.934
 20
55.0869
 30
0.000000
  70
    32
  0
VERTEX
  8
0
  5
30D4
 10
181.894
 20
55.0823
 30
0.000000
  70
    32
  0
VERTEX
  8
0
  5
30D5
 10
181.855
 20
55.0775
 30
0.000000
  70
    32
  0
VERTEX
  8
0
  5
30D6
 10
181.816
 20
55.0726
 30
0.000000
  70
    32
  0
VERTEX
  8
0
  5
30D7
 10
181.777
 20
55.0675
 30
0.000000
  70
    32
  0
VERTEX
  8
0
  5
30D8
 10
181.738
 20
55.0622
 30
0.000000
  70
    32
  0
VERTEX
  8
0
  5
30D9
 10
181.699
 20
55.0568
 30
0.000000
  70
    32
  0
VERTEX
  8
0
  5
30DA
 10
181.660
 20
55.0512
 30
0.000000
  70
    32
  0
VERTEX
  8
0
  5
30DB
 10
181.622
 20
55.0454
 30
0.000000
  70
    32
  0
VERTEX
  8
0
  5
30DC
 10
181.583
 20
55.0395
 30
0.000000
  70
    32
  0
VERTEX
  8
0
  5
30DD
 10
181.545
 20
55.0334
 30
0.000000
  70
    32
  0
VERTEX
  8
0
  5
30DE
 10
181.507
 20
55.0271
 30
0.000000
  70
    32
  0
VERTEX
  8
0
  5
30DF
 10
181.469
 20
55.0207
 30
0.000000
  70
    32
  0
VERTEX
  8
0
  5
30E0
 10
181.431
 20
55.0141
 30
0.000000
  70
    32
  0
VERTEX
  8
0
  5
30E1
 10
181.394
 20
55.0074
 30
0.000000
  70
    32
  0
VERTEX
  8
0
  5
30E2
 10
181.356
 20
55.0005
 30
0.000000
  70
    32
  0
VERTEX
  8
0
  5
30E3
 10
181.319
 20
54.9934
 30
0.000000
  70
    32
  0
VERTEX
  8
0
  5
30E4
 10
181.282
 20
54.9862
 30
0.000000
  70
    32
  0
VERTEX
  8
0
  5
30E5
 10
181.245
 20
54.9789
 30
0.000000
  70
    32
  0
VERTEX
  8
0
  5
30E6
 10
181.208
 20
54.9713
 30
0.000000
  70
    32
  0
VERTEX
  8
0
  5
30E7
 10
181.172
 20
54.9637
 30
0.000000
  70
    32
  0
VERTEX
  8
0
  5
30E8
 10
181.135
 20
54.9558
 30
0.000000
  70
    32
  0
VERTEX
  8
0
  5
30E9
 10
181.099
 20
54.9478
 30
0.000000
  70
    32
  0
VERTEX
  8
0
  5
30EA
 10
181.063
 20
54.9397
 30
0.000000
  70
    32
  0
VERTEX
  8
0
  5
30EB
 10
181.028
 20
54.9314
 30
0.000000
  70
    32
  0
VERTEX
  8
0
  5
30EC
 10
180.992
 20
54.9230
 30
0.000000
  70
    32
  0
VERTEX
  8
0
  5
30ED
 10
180.957
 20
54.9144
 30
0.000000
  70
    32
  0
VERTEX
  8
0
  5
30EE
 10
180.922
 20
54.9056
 30
0.000000
  70
    32
  0
VERTEX
  8
0
  5
30EF
 10
180.887
 20
54.8967
 30
0.000000
  70
    32
  0
VERTEX
  8
0
  5
30F0
 10
180.852
 20
54.8877
 30
0.000000
  70
    32
  0
VERTEX
  8
0
  5
30F1
 10
180.818
 20
54.8785
 30
0.000000
  70
    32
  0
VERTEX
  8
0
  5
30F2
 10
180.783
 20
54.8692
 30
0.000000
  70
    32
  0
VERTEX
  8
0
  5
30F3
 10
180.749
 20
54.8597
 30
0.000000
  70
    32
  0
VERTEX
  8
0
  5
30F4
 10
180.716
 20
54.8501
 30
0.000000
  70
    32
  0
VERTEX
  8
0
  5
30F5
 10
180.682
 20
54.8403
 30
0.000000
  70
    32
  0
VERTEX
  8
0
  5
30F6
 10
180.649
 20
54.8304
 30
0.000000
  70
    32
  0
VERTEX
  8
0
  5
30F7
 10
180.616
 20
54.8203
 30
0.000000
  70
    32
  0
VERTEX
  8
0
  5
30F8
 10
180.583
 20
54.8102
 30
0.000000
  70
    32
  0
VERTEX
  8
0
  5
30F9
 10
180.550
 20
54.7998
 30
0.000000
  70
    32
  0
VERTEX
  8
0
  5
30FA
 10
180.518
 20
54.7894
 30
0.000000
  70
    32
  0
VERTEX
  8
0
  5
30FB
 10
180.486
 20
54.7788
 30
0.000000
  70
    32
  0
VERTEX
  8
0
  5
30FC
 10
180.454
 20
54.7680
 30
0.000000
  70
    32
  0
VERTEX
  8
0
  5
30FD
 10
180.423
 20
54.7572
 30
0.000000
  70
    32
  0
VERTEX
  8
0
  5
30FE
 10
180.392
 20
54.7462
 30
0.000000
  70
    32
  0
VERTEX
  8
0
  5
30FF
 10
180.361
 20
54.7350
 30
0.000000
  70
    32
  0
VERTEX
  8
0
  5
3100
 10
180.330
 20
54.7238
 30
0.000000
  70
    32
  0
VERTEX
  8
0
  5
3101
 10
180.300
 20
54.7124
 30
0.000000
  70
    32
  0
VERTEX
  8
0
  5
3102
 10
180.270
 20
54.7009
 30
0.000000
  70
    32
  0
VERTEX
  8
0
  5
3103
 10
180.240
 20
54.6892
 30
0.000000
  70
    32
  0
VERTEX
  8
0
  5
3104
 10
180.210
 20
54.6774
 30
0.000000
  70
    32
  0
VERTEX
  8
0
  5
3105
 10
180.181
 20
54.6655
 30
0.000000
  70
    32
  0
VERTEX
  8
0
  5
3106
 10
180.152
 20
54.6535
 30
0.000000
  70
    32
  0
VERTEX
  8
0
  5
3107
 10
180.124
 20
54.6414
 30
0.000000
  70
    32
  0
VERTEX
  8
0
  5
3108
 10
180.095
 20
54.6291
 30
0.000000
  70
    32
  0
VERTEX
  8
0
  5
3109
 10
180.067
 20
54.6167
 30
0.000000
  70
    32
  0
VERTEX
  8
0
  5
310A
 10
180.040
 20
54.6042
 30
0.000000
  70
    32
  0
VERTEX
  8
0
  5
310B
 10
180.012
 20
54.5916
 30
0.000000
  70
    32
  0
VERTEX
  8
0
  5
310C
 10
179.985
 20
54.5789
 30
0.000000
  70
    32
  0
VERTEX
  8
0
  5
310D
 10
179.958
 20
54.5660
 30
0.000000
  70
    32
  0
VERTEX
  8
0
  5
310E
 10
179.932
 20
54.5530
 30
0.000000
  70
    32
  0
VERTEX
  8
0
  5
310F
 10
179.906
 20
54.5400
 30
0.000000
  70
    32
  0
VERTEX
  8
0
  5
3110
 10
179.880
 20
54.5268
 30
0.000000
  70
    32
  0
VERTEX
  8
0
  5
3111
 10
179.854
 20
54.5135
 30
0.000000
  70
    32
  0
VERTEX
  8
0
  5
3112
 10
179.829
 20
54.5001
 30
0.000000
  70
    32
  0
VERTEX
  8
0
  5
3113
 10
179.804
 20
54.4866
 30
0.000000
  70
    32
  0
VERTEX
  8
0
  5
3114
 10
179.780
 20
54.4730
 30
0.000000
  70
    32
  0
VERTEX
  8
0
  5
3115
 10
179.756
 20
54.4593
 30
0.000000
  70
    32
  0
VERTEX
  8
0
  5
3116
 10
179.732
 20
54.4454
 30
0.000000
  70
    32
  0
VERTEX
  8
0
  5
3117
 10
179.709
 20
54.4315
 30
0.000000
  70
    32
  0
VERTEX
  8
0
  5
3118
 10
179.686
 20
54.4175
 30
0.000000
  70
    32
  0
VERTEX
  8
0
  5
3119
 10
179.663
 20
54.4034
 30
0.000000
  70
    32
  0
VERTEX
  8
0
  5
311A
 10
179.640
 20
54.3892
 30
0.000000
  70
    32
  0
VERTEX
  8
0
  5
311B
 10
179.618
 20
54.3749
 30
0.000000
  70
    32
  0
VERTEX
  8
0
  5
311C
 10
179.597
 20
54.3605
 30
0.000000
  70
    32
  0
VERTEX
  8
0
  5
311D
 10
179.575
 20
54.3460
 30
0.000000
  70
    32
  0
VERTEX
  8
0
  5
311E
 10
179.554
 20
54.3314
 30
0.000000
  70
    32
  0
VERTEX
  8
0
  5
311F
 10
179.534
 20
54.3168
 30
0.000000
  70
    32
  0
VERTEX
  8
0
  5
3120
 10
179.513
 20
54.3020
 30
0.000000
  70
    32
  0
VERTEX
  8
0
  5
3121
 10
179.493
 20
54.2872
 30
0.000000
  70
    32
  0
VERTEX
  8
0
  5
3122
 10
179.474
 20
54.2723
 30
0.000000
  70
    32
  0
VERTEX
  8
0
  5
3123
 10
179.455
 20
54.2573
 30
0.000000
  70
    32
  0
VERTEX
  8
0
  5
3124
 10
179.436
 20
54.2422
 30
0.000000
  70
    32
  0
VERTEX
  8
0
  5
3125
 10
179.418
 20
54.2270
 30
0.000000
  70
    32
  0
VERTEX
  8
0
  5
3126
 10
179.399
 20
54.2118
 30
0.000000
  70
    32
  0
VERTEX
  8
0
  5
3127
 10
179.382
 20
54.1965
 30
0.000000
  70
    32
  0
VERTEX
  8
0
  5
3128
 10
179.365
 20
54.1811
 30
0.000000
  70
    32
  0
VERTEX
  8
0
  5
3129
 10
179.348
 20
54.1656
 30
0.000000
  70
    32
  0
VERTEX
  8
0
  5
312A
 10
179.331
 20
54.1501
 30
0.000000
  70
    32
  0
VERTEX
  8
0
  5
312B
 10
179.315
 20
54.1345
 30
0.000000
  70
    32
  0
VERTEX
  8
0
  5
312C
 10
179.299
 20
54.1188
 30
0.000000
  70
    32
  0
VERTEX
  8
0
  5
312D
 10
179.284
 20
54.1031
 30
0.000000
  70
    32
  0
VERTEX
  8
0
  5
312E
 10
179.269
 20
54.0873
 30
0.000000
  70
    32
  0
VERTEX
  8
0
  5
312F
 10
179.254
 20
54.0714
 30
0.000000
  70
    32
  0
VERTEX
  8
0
  5
3130
 10
179.240
 20
54.0555
 30
0.000000
  70
    32
  0
VERTEX
  8
0
  5
3131
 10
179.226
 20
54.0395
 30
0.000000
  70
    32
  0
VERTEX
  8
0
  5
3132
 10
179.213
 20
54.0235
 30
0.000000
  70
    32
  0
VERTEX
  8
0
  5
3133
 10
179.200
 20
54.0074
 30
0.000000
  70
    32
  0
VERTEX
  8
0
  5
3134
 10
179.187
 20
53.9912
 30
0.000000
  70
    32
  0
VERTEX
  8
0
  5
3135
 10
179.175
 20
53.9750
 30
0.000000
  70
    32
  0
VERTEX
  8
0
  5
3136
 10
179.163
 20
53.9587
 30
0.000000
  70
    32
  0
VERTEX
  8
0
  5
3137
 10
179.152
 20
53.9424
 30
0.000000
  70
    32
  0
VERTEX
  8
0
  5
3138
 10
179.141
 20
53.9261
 30
0.000000
  70
    32
  0
VERTEX
  8
0
  5
3139
 10
179.130
 20
53.9097
 30
0.000000
  70
    32
  0
VERTEX
  8
0
  5
313A
 10
179.120
 20
53.8933
 30
0.000000
  70
    32
  0
VERTEX
  8
0
  5
313B
 10
179.111
 20
53.8768
 30
0.000000
  70
    32
  0
VERTEX
  8
0
  5
313C
 10
179.101
 20
53.8602
 30
0.000000
  70
    32
  0
VERTEX
  8
0
  5
313D
 10
179.092
 20
53.8437
 30
0.000000
  70
    32
  0
VERTEX
  8
0
  5
313E
 10
179.084
 20
53.8271
 30
0.000000
  70
    32
  0
VERTEX
  8
0
  5
313F
 10
179.076
 20
53.8105
 30
0.000000
  70
    32
  0
VERTEX
  8
0
  5
3140
 10
179.068
 20
53.7938
 30
0.000000
  70
    32
  0
VERTEX
  8
0
  5
3141
 10
179.061
 20
53.7771
 30
0.000000
  70
    32
  0
VERTEX
  8
0
  5
3142
 10
179.054
 20
53.7604
 30
0.000000
  70
    32
  0
VERTEX
  8
0
  5
3143
 10
179.047
 20
53.7436
 30
0.000000
  70
    32
  0
VERTEX
  8
0
  5
3144
 10
179.041
 20
53.7268
 30
0.000000
  70
    32
  0
VERTEX
  8
0
  5
3145
 10
179.035
 20
53.7100
 30
0.000000
  70
    32
  0
VERTEX
  8
0
  5
3146
 10
179.030
 20
53.6932
 30
0.000000
  70
    32
  0
VERTEX
  8
0
  5
3147
 10
179.025
 20
53.6763
 30
0.000000
  70
    32
  0
VERTEX
  8
0
  5
3148
 10
179.021
 20
53.6594
 30
0.000000
  70
    32
  0
VERTEX
  8
0
  5
3149
 10
179.017
 20
53.6425
 30
0.000000
  70
    32
  0
VERTEX
  8
0
  5
314A
 10
179.013
 20
53.6256
 30
0.000000
  70
    32
  0
VERTEX
  8
0
  5
314B
 10
179.010
 20
53.6087
 30
0.000000
  70
    32
  0
VERTEX
  8
0
  5
314C
 10
179.008
 20
53.5918
 30
0.000000
  70
    32
  0
VERTEX
  8
0
  5
314D
 10
179.005
 20
53.5748
 30
0.000000
  70
    32
  0
VERTEX
  8
0
  5
314E
 10
179.003
 20
53.5579
 30
0.000000
  70
    32
  0
VERTEX
  8
0
  5
314F
 10
179.002
 20
53.5409
 30
0.000000
  70
    32
  0
VERTEX
  8
0
  5
3150
 10
179.001
 20
53.5239
 30
0.000000
  70
    32
  0
VERTEX
  8
0
  5
3151
 10
179.000
 20
53.5070
 30
0.000000
  70
    32
  0
VERTEX
  8
0
  5
3152
 10
179.000
 20
53.4900
 30
0.000000
  70
    32
  0
SEQEND
  8
0
  5
3153
  0
POLYLINE
  5
2A5B
  8
0
 10
218.00000000234985
 20
53.490000000099933
 30
0.0
 66
     1
 70
     8
  0
VERTEX
  8
0
  5
3154
 10
218.000
 20
53.4900
 30
0.000000
  70
    32
  0
VERTEX
  8
0
  5
3155
 10
218.000
 20
53.5070
 30
0.000000
  70
    32
  0
VERTEX
  8
0
  5
3156
 10
217.999
 20
53.5239
 30
0.000000
  70
    32
  0
VERTEX
  8
0
  5
3157
 10
217.998
 20
53.5409
 30
0.000000
  70
    32
  0
VERTEX
  8
0
  5
3158
 10
217.997
 20
53.5579
 30
0.000000
  70
    32
  0
VERTEX
  8
0
  5
3159
 10
217.995
 20
53.5748
 30
0.000000
  70
    32
  0
VERTEX
  8
0
  5
315A
 10
217.992
 20
53.5918
 30
0.000000
  70
    32
  0
VERTEX
  8
0
  5
315B
 10
217.990
 20
53.6087
 30
0.000000
  70
    32
  0
VERTEX
  8
0
  5
315C
 10
217.987
 20
53.6256
 30
0.000000
  70
    32
  0
VERTEX
  8
0
  5
315D
 10
217.983
 20
53.6425
 30
0.000000
  70
    32
  0
VERTEX
  8
0
  5
315E
 10
217.979
 20
53.6594
 30
0.000000
  70
    32
  0
VERTEX
  8
0
  5
315F
 10
217.975
 20
53.6763
 30
0.000000
  70
    32
  0
VERTEX
  8
0
  5
3160
 10
217.970
 20
53.6932
 30
0.000000
  70
    32
  0
VERTEX
  8
0
  5
3161
 10
217.965
 20
53.7100
 30
0.000000
  70
    32
  0
VERTEX
  8
0
  5
3162
 10
217.959
 20
53.7268
 30
0.000000
  70
    32
  0
VERTEX
  8
0
  5
3163
 10
217.953
 20
53.7436
 30
0.000000
  70
    32
  0
VERTEX
  8
0
  5
3164
 10
217.946
 20
53.7604
 30
0.000000
  70
    32
  0
VERTEX
  8
0
  5
3165
 10
217.939
 20
53.7771
 30
0.000000
  70
    32
  0
VERTEX
  8
0
  5
3166
 10
217.932
 20
53.7938
 30
0.000000
  70
    32
  0
VERTEX
  8
0
  5
3167
 10
217.924
 20
53.8105
 30
0.000000
  70
    32
  0
VERTEX
  8
0
  5
3168
 10
217.916
 20
53.8271
 30
0.000000
  70
    32
  0
VERTEX
  8
0
  5
3169
 10
217.908
 20
53.8437
 30
0.000000
  70
    32
  0
VERTEX
  8
0
  5
316A
 10
217.899
 20
53.8602
 30
0.000000
  70
    32
  0
VERTEX
  8
0
  5
316B
 10
217.889
 20
53.8768
 30
0.000000
  70
    32
  0
VERTEX
  8
0
  5
316C
 10
217.880
 20
53.8933
 30
0.000000
  70
    32
  0
VERTEX
  8
0
  5
316D
 10
217.870
 20
53.9097
 30
0.000000
  70
    32
  0
VERTEX
  8
0
  5
316E
 10
217.859
 20
53.9261
 30
0.000000
  70
    32
  0
VERTEX
  8
0
  5
316F
 10
217.848
 20
53.9424
 30
0.000000
  70
    32
  0
VERTEX
  8
0
  5
3170
 10
217.837
 20
53.9587
 30
0.000000
  70
    32
  0
VERTEX
  8
0
  5
3171
 10
217.825
 20
53.9750
 30
0.000000
  70
    32
  0
VERTEX
  8
0
  5
3172
 10
217.813
 20
53.9912
 30
0.000000
  70
    32
  0
VERTEX
  8
0
  5
3173
 10
217.800
 20
54.0074
 30
0.000000
  70
    32
  0
VERTEX
  8
0
  5
3174
 10
217.787
 20
54.0235
 30
0.000000
  70
    32
  0
VERTEX
  8
0
  5
3175
 10
217.774
 20
54.0395
 30
0.000000
  70
    32
  0
VERTEX
  8
0
  5
3176
 10
217.760
 20
54.0555
 30
0.000000
  70
    32
  0
VERTEX
  8
0
  5
3177
 10
217.746
 20
54.0714
 30
0.000000
  70
    32
  0
VERTEX
  8
0
  5
3178
 10
217.731
 20
54.0873
 30
0.000000
  70
    32
  0
VERTEX
  8
0
  5
3179
 10
217.716
 20
54.1031
 30
0.000000
  70
    32
  0
VERTEX
  8
0
  5
317A
 10
217.701
 20
54.1188
 30
0.000000
  70
    32
  0
VERTEX
  8
0
  5
317B
 10
217.685
 20
54.1345
 30
0.000000
  70
    32
  0
VERTEX
  8
0
  5
317C
 10
217.669
 20
54.1501
 30
0.000000
  70
    32
  0
VERTEX
  8
0
  5
317D
 10
217.652
 20
54.1656
 30
0.000000
  70
    32
  0
VERTEX
  8
0
  5
317E
 10
217.635
 20
54.1811
 30
0.000000
  70
    32
  0
VERTEX
  8
0
  5
317F
 10
217.618
 20
54.1965
 30
0.000000
  70
    32
  0
VERTEX
  8
0
  5
3180
 10
217.601
 20
54.2118
 30
0.000000
  70
    32
  0
VERTEX
  8
0
  5
3181
 10
217.582
 20
54.2270
 30
0.000000
  70
    32
  0
VERTEX
  8
0
  5
3182
 10
217.564
 20
54.2422
 30
0.000000
  70
    32
  0
VERTEX
  8
0
  5
3183
 10
217.545
 20
54.2573
 30
0.000000
  70
    32
  0
VERTEX
  8
0
  5
3184
 10
217.526
 20
54.2723
 30
0.000000
  70
    32
  0
VERTEX
  8
0
  5
3185
 10
217.507
 20
54.2872
 30
0.000000
  70
    32
  0
VERTEX
  8
0
  5
3186
 10
217.487
 20
54.3020
 30
0.000000
  70
    32
  0
VERTEX
  8
0
  5
3187
 10
217.466
 20
54.3168
 30
0.000000
  70
    32
  0
VERTEX
  8
0
  5
3188
 10
217.446
 20
54.3314
 30
0.000000
  70
    32
  0
VERTEX
  8
0
  5
3189
 10
217.425
 20
54.3460
 30
0.000000
  70
    32
  0
VERTEX
  8
0
  5
318A
 10
217.403
 20
54.3605
 30
0.000000
  70
    32
  0
VERTEX
  8
0
  5
318B
 10
217.382
 20
54.3749
 30
0.000000
  70
    32
  0
VERTEX
  8
0
  5
318C
 10
217.360
 20
54.3892
 30
0.000000
  70
    32
  0
VERTEX
  8
0
  5
318D
 10
217.337
 20
54.4034
 30
0.000000
  70
    32
  0
VERTEX
  8
0
  5
318E
 10
217.314
 20
54.4175
 30
0.000000
  70
    32
  0
VERTEX
  8
0
  5
318F
 10
217.291
 20
54.4315
 30
0.000000
  70
    32
  0
VERTEX
  8
0
  5
3190
 10
217.268
 20
54.4454
 30
0.000000
  70
    32
  0
VERTEX
  8
0
  5
3191
 10
217.244
 20
54.4593
 30
0.000000
  70
    32
  0
VERTEX
  8
0
  5
3192
 10
217.220
 20
54.4730
 30
0.000000
  70
    32
  0
VERTEX
  8
0
  5
3193
 10
217.196
 20
54.4866
 30
0.000000
  70
    32
  0
VERTEX
  8
0
  5
3194
 10
217.171
 20
54.5001
 30
0.000000
  70
    32
  0
VERTEX
  8
0
  5
3195
 10
217.146
 20
54.5135
 30
0.000000
  70
    32
  0
VERTEX
  8
0
  5
3196
 10
217.120
 20
54.5268
 30
0.000000
  70
    32
  0
VERTEX
  8
0
  5
3197
 10
217.094
 20
54.5400
 30
0.000000
  70
    32
  0
VERTEX
  8
0
  5
3198
 10
217.068
 20
54.5530
 30
0.000000
  70
    32
  0
VERTEX
  8
0
  5
3199
 10
217.042
 20
54.5660
 30
0.000000
  70
    32
  0
VERTEX
  8
0
  5
319A
 10
217.015
 20
54.5789
 30
0.000000
  70
    32
  0
VERTEX
  8
0
  5
319B
 10
216.988
 20
54.5916
 30
0.000000
  70
    32
  0
VERTEX
  8
0
  5
319C
 10
216.960
 20
54.6042
 30
0.000000
  70
    32
  0
VERTEX
  8
0
  5
319D
 10
216.933
 20
54.6167
 30
0.000000
  70
    32
  0
VERTEX
  8
0
  5
319E
 10
216.905
 20
54.6291
 30
0.000000
  70
    32
  0
VERTEX
  8
0
  5
319F
 10
216.876
 20
54.6414
 30
0.000000
  70
    32
  0
VERTEX
  8
0
  5
31A0
 10
216.848
 20
54.6535
 30
0.000000
  70
    32
  0
VERTEX
  8
0
  5
31A1
 10
216.819
 20
54.6655
 30
0.000000
  70
    32
  0
VERTEX
  8
0
  5
31A2
 10
216.790
 20
54.6774
 30
0.000000
  70
    32
  0
VERTEX
  8
0
  5
31A3
 10
216.760
 20
54.6892
 30
0.000000
  70
    32
  0
VERTEX
  8
0
  5
31A4
 10
216.730
 20
54.7009
 30
0.000000
  70
    32
  0
VERTEX
  8
0
  5
31A5
 10
216.700
 20
54.7124
 30
0.000000
  70
    32
  0
VERTEX
  8
0
  5
31A6
 10
216.670
 20
54.7238
 30
0.000000
  70
    32
  0
VERTEX
  8
0
  5
31A7
 10
216.639
 20
54.7350
 30
0.000000
  70
    32
  0
VERTEX
  8
0
  5
31A8
 10
216.608
 20
54.7462
 30
0.000000
  70
    32
  0
VERTEX
  8
0
  5
31A9
 10
216.577
 20
54.7572
 30
0.000000
  70
    32
  0
VERTEX
  8
0
  5
31AA
 10
216.546
 20
54.7680
 30
0.000000
  70
    32
  0
VERTEX
  8
0
  5
31AB
 10
216.514
 20
54.7788
 30
0.000000
  70
    32
  0
VERTEX
  8
0
  5
31AC
 10
216.482
 20
54.7894
 30
0.000000
  70
    32
  0
VERTEX
  8
0
  5
31AD
 10
216.450
 20
54.7998
 30
0.000000
  70
    32
  0
VERTEX
  8
0
  5
31AE
 10
216.417
 20
54.8102
 30
0.000000
  70
    32
  0
VERTEX
  8
0
  5
31AF
 10
216.384
 20
54.8203
 30
0.000000
  70
    32
  0
VERTEX
  8
0
  5
31B0
 10
216.351
 20
54.8304
 30
0.000000
  70
    32
  0
VERTEX
  8
0
  5
31B1
 10
216.318
 20
54.8403
 30
0.000000
  70
    32
  0
VERTEX
  8
0
  5
31B2
 10
216.284
 20
54.8501
 30
0.000000
  70
    32
  0
VERTEX
  8
0
  5
31B3
 10
216.251
 20
54.8597
 30
0.000000
  70
    32
  0
VERTEX
  8
0
  5
31B4
 10
216.217
 20
54.8692
 30
0.000000
  70
    32
  0
VERTEX
  8
0
  5
31B5
 10
216.182
 20
54.8785
 30
0.000000
  70
    32
  0
VERTEX
  8
0
  5
31B6
 10
216.148
 20
54.8877
 30
0.000000
  70
    32
  0
VERTEX
  8
0
  5
31B7
 10
216.113
 20
54.8967
 30
0.000000
  70
    32
  0
VERTEX
  8
0
  5
31B8
 10
216.078
 20
54.9056
 30
0.000000
  70
    32
  0
VERTEX
  8
0
  5
31B9
 10
216.043
 20
54.9144
 30
0.000000
  70
    32
  0
VERTEX
  8
0
  5
31BA
 10
216.008
 20
54.9230
 30
0.000000
  70
    32
  0
VERTEX
  8
0
  5
31BB
 10
215.972
 20
54.9314
 30
0.000000
  70
    32
  0
VERTEX
  8
0
  5
31BC
 10
215.937
 20
54.9397
 30
0.000000
  70
    32
  0
VERTEX
  8
0
  5
31BD
 10
215.901
 20
54.9478
 30
0.000000
  70
    32
  0
VERTEX
  8
0
  5
31BE
 10
215.865
 20
54.9558
 30
0.000000
  70
    32
  0
VERTEX
  8
0
  5
31BF
 10
215.828
 20
54.9637
 30
0.000000
  70
    32
  0
VERTEX
  8
0
  5
31C0
 10
215.792
 20
54.9713
 30
0.000000
  70
    32
  0
VERTEX
  8
0
  5
31C1
 10
215.755
 20
54.9789
 30
0.000000
  70
    32
  0
VERTEX
  8
0
  5
31C2
 10
215.718
 20
54.9862
 30
0.000000
  70
    32
  0
VERTEX
  8
0
  5
31C3
 10
215.681
 20
54.9934
 30
0.000000
  70
    32
  0
VERTEX
  8
0
  5
31C4
 10
215.644
 20
55.0005
 30
0.000000
  70
    32
  0
VERTEX
  8
0
  5
31C5
 10
215.606
 20
55.0074
 30
0.000000
  70
    32
  0
VERTEX
  8
0
  5
31C6
 10
215.569
 20
55.0141
 30
0.000000
  70
    32
  0
VERTEX
  8
0
  5
31C7
 10
215.531
 20
55.0207
 30
0.000000
  70
    32
  0
VERTEX
  8
0
  5
31C8
 10
215.493
 20
55.0271
 30
0.000000
  70
    32
  0
VERTEX
  8
0
  5
31C9
 10
215.455
 20
55.0334
 30
0.000000
  70
    32
  0
VERTEX
  8
0
  5
31CA
 10
215.417
 20
55.0395
 30
0.000000
  70
    32
  0
VERTEX
  8
0
  5
31CB
 10
215.378
 20
55.0454
 30
0.000000
  70
    32
  0
VERTEX
  8
0
  5
31CC
 10
215.340
 20
55.0512
 30
0.000000
  70
    32
  0
VERTEX
  8
0
  5
31CD
 10
215.301
 20
55.0568
 30
0.000000
  70
    32
  0
VERTEX
  8
0
  5
31CE
 10
215.262
 20
55.0622
 30
0.000000
  70
    32
  0
VERTEX
  8
0
  5
31CF
 10
215.223
 20
55.0675
 30
0.000000
  70
    32
  0
VERTEX
  8
0
  5
31D0
 10
215.184
 20
55.0726
 30
0.000000
  70
    32
  0
VERTEX
  8
0
  5
31D1
 10
215.145
 20
55.0775
 30
0.000000
  70
    32
  0
VERTEX
  8
0
  5
31D2
 10
215.106
 20
55.0823
 30
0.000000
  70
    32
  0
VERTEX
  8
0
  5
31D3
 10
215.066
 20
55.0869
 30
0.000000
  70
    32
  0
VERTEX
  8
0
  5
31D4
 10
215.027
 20
55.0914
 30
0.000000
  70
    32
  0
SEQEND
  8
0
  5
31D5
  0
POLYLINE
  5
2A5E
  8
0
 10
183.0000000023999
 20
62.832226058313495
 30
0.0
 66
     1
 70
     8
  0
VERTEX
  8
0
  5
31D6
 10
183.000
 20
62.8322
 30
0.000000
  70
    32
  0
VERTEX
  8
0
  5
31D7
 10
182.993
 20
62.8318
 30
0.000000
  70
    32
  0
VERTEX
  8
0
  5
31D8
 10
182.986
 20
62.8304
 30
0.000000
  70
    32
  0
VERTEX
  8
0
  5
31D9
 10
182.979
 20
62.8281
 30
0.000000
  70
    32
  0
VERTEX
  8
0
  5
31DA
 10
182.972
 20
62.8248
 30
0.000000
  70
    32
  0
VERTEX
  8
0
  5
31DB
 10
182.965
 20
62.8207
 30
0.000000
  70
    32
  0
VERTEX
  8
0
  5
31DC
 10
182.958
 20
62.8156
 30
0.000000
  70
    32
  0
VERTEX
  8
0
  5
31DD
 10
182.951
 20
62.8096
 30
0.000000
  70
    32
  0
VERTEX
  8
0
  5
31DE
 10
182.944
 20
62.8026
 30
0.000000
  70
    32
  0
VERTEX
  8
0
  5
31DF
 10
182.937
 20
62.7948
 30
0.000000
  70
    32
  0
VERTEX
  8
0
  5
31E0
 10
182.930
 20
62.7860
 30
0.000000
  70
    32
  0
VERTEX
  8
0
  5
31E1
 10
182.923
 20
62.7763
 30
0.000000
  70
    32
  0
VERTEX
  8
0
  5
31E2
 10
182.916
 20
62.7657
 30
0.000000
  70
    32
  0
VERTEX
  8
0
  5
31E3
 10
182.909
 20
62.7541
 30
0.000000
  70
    32
  0
VERTEX
  8
0
  5
31E4
 10
182.902
 20
62.7416
 30
0.000000
  70
    32
  0
VERTEX
  8
0
  5
31E5
 10
182.895
 20
62.7282
 30
0.000000
  70
    32
  0
VERTEX
  8
0
  5
31E6
 10
182.888
 20
62.7139
 30
0.000000
  70
    32
  0
VERTEX
  8
0
  5
31E7
 10
182.881
 20
62.6987
 30
0.000000
  70
    32
  0
VERTEX
  8
0
  5
31E8
 10
182.874
 20
62.6825
 30
0.000000
  70
    32
  0
VERTEX
  8
0
  5
31E9
 10
182.867
 20
62.6654
 30
0.000000
  70
    32
  0
VERTEX
  8
0
  5
31EA
 10
182.860
 20
62.6474
 30
0.000000
  70
    32
  0
VERTEX
  8
0
  5
31EB
 10
182.853
 20
62.6284
 30
0.000000
  70
    32
  0
VERTEX
  8
0
  5
31EC
 10
182.846
 20
62.6086
 30
0.000000
  70
    32
  0
VERTEX
  8
0
  5
31ED
 10
182.839
 20
62.5878
 30
0.000000
  70
    32
  0
VERTEX
  8
0
  5
31EE
 10
182.832
 20
62.5661
 30
0.000000
  70
    32
  0
VERTEX
  8
0
  5
31EF
 10
182.825
 20
62.5434
 30
0.000000
  70
    32
  0
VERTEX
  8
0
  5
31F0
 10
182.818
 20
62.5199
 30
0.000000
  70
    32
  0
VERTEX
  8
0
  5
31F1
 10
182.811
 20
62.4954
 30
0.000000
  70
    32
  0
VERTEX
  8
0
  5
31F2
 10
182.804
 20
62.4700
 30
0.000000
  70
    32
  0
VERTEX
  8
0
  5
31F3
 10
182.797
 20
62.4436
 30
0.000000
  70
    32
  0
VERTEX
  8
0
  5
31F4
 10
182.790
 20
62.4164
 30
0.000000
  70
    32
  0
VERTEX
  8
0
  5
31F5
 10
182.783
 20
62.3882
 30
0.000000
  70
    32
  0
VERTEX
  8
0
  5
31F6
 10
182.776
 20
62.3591
 30
0.000000
  70
    32
  0
VERTEX
  8
0
  5
31F7
 10
182.769
 20
62.3291
 30
0.000000
  70
    32
  0
VERTEX
  8
0
  5
31F8
 10
182.762
 20
62.2981
 30
0.000000
  70
    32
  0
VERTEX
  8
0
  5
31F9
 10
182.755
 20
62.2662
 30
0.000000
  70
    32
  0
VERTEX
  8
0
  5
31FA
 10
182.748
 20
62.2335
 30
0.000000
  70
    32
  0
VERTEX
  8
0
  5
31FB
 10
182.741
 20
62.1997
 30
0.000000
  70
    32
  0
VERTEX
  8
0
  5
31FC
 10
182.734
 20
62.1651
 30
0.000000
  70
    32
  0
VERTEX
  8
0
  5
31FD
 10
182.727
 20
62.1295
 30
0.000000
  70
    32
  0
VERTEX
  8
0
  5
31FE
 10
182.720
 20
62.0931
 30
0.000000
  70
    32
  0
VERTEX
  8
0
  5
31FF
 10
182.713
 20
62.0557
 30
0.000000
  70
    32
  0
VERTEX
  8
0
  5
3200
 10
182.706
 20
62.0173
 30
0.000000
  70
    32
  0
VERTEX
  8
0
  5
3201
 10
182.699
 20
61.9781
 30
0.000000
  70
    32
  0
VERTEX
  8
0
  5
3202
 10
182.692
 20
61.9379
 30
0.000000
  70
    32
  0
VERTEX
  8
0
  5
3203
 10
182.685
 20
61.8968
 30
0.000000
  70
    32
  0
VERTEX
  8
0
  5
3204
 10
182.678
 20
61.8548
 30
0.000000
  70
    32
  0
VERTEX
  8
0
  5
3205
 10
182.671
 20
61.8119
 30
0.000000
  70
    32
  0
VERTEX
  8
0
  5
3206
 10
182.664
 20
61.7680
 30
0.000000
  70
    32
  0
VERTEX
  8
0
  5
3207
 10
182.657
 20
61.7232
 30
0.000000
  70
    32
  0
VERTEX
  8
0
  5
3208
 10
182.650
 20
61.6775
 30
0.000000
  70
    32
  0
VERTEX
  8
0
  5
3209
 10
182.643
 20
61.6309
 30
0.000000
  70
    32
  0
VERTEX
  8
0
  5
320A
 10
182.636
 20
61.5834
 30
0.000000
  70
    32
  0
VERTEX
  8
0
  5
320B
 10
182.629
 20
61.5349
 30
0.000000
  70
    32
  0
VERTEX
  8
0
  5
320C
 10
182.622
 20
61.4855
 30
0.000000
  70
    32
  0
VERTEX
  8
0
  5
320D
 10
182.616
 20
61.4353
 30
0.000000
  70
    32
  0
VERTEX
  8
0
  5
320E
 10
182.609
 20
61.3840
 30
0.000000
  70
    32
  0
VERTEX
  8
0
  5
320F
 10
182.602
 20
61.3319
 30
0.000000
  70
    32
  0
VERTEX
  8
0
  5
3210
 10
182.595
 20
61.2788
 30
0.000000
  70
    32
  0
VERTEX
  8
0
  5
3211
 10
182.588
 20
61.2249
 30
0.000000
  70
    32
  0
VERTEX
  8
0
  5
3212
 10
182.581
 20
61.1700
 30
0.000000
  70
    32
  0
VERTEX
  8
0
  5
3213
 10
182.574
 20
61.1141
 30
0.000000
  70
    32
  0
VERTEX
  8
0
  5
3214
 10
182.567
 20
61.0574
 30
0.000000
  70
    32
  0
VERTEX
  8
0
  5
3215
 10
182.560
 20
60.9997
 30
0.000000
  70
    32
  0
VERTEX
  8
0
  5
3216
 10
182.553
 20
60.9412
 30
0.000000
  70
    32
  0
VERTEX
  8
0
  5
3217
 10
182.546
 20
60.8817
 30
0.000000
  70
    32
  0
VERTEX
  8
0
  5
3218
 10
182.539
 20
60.8213
 30
0.000000
  70
    32
  0
VERTEX
  8
0
  5
3219
 10
182.532
 20
60.7599
 30
0.000000
  70
    32
  0
VERTEX
  8
0
  5
321A
 10
182.525
 20
60.6977
 30
0.000000
  70
    32
  0
VERTEX
  8
0
  5
321B
 10
182.518
 20
60.6345
 30
0.000000
  70
    32
  0
VERTEX
  8
0
  5
321C
 10
182.511
 20
60.5704
 30
0.000000
  70
    32
  0
VERTEX
  8
0
  5
321D
 10
182.504
 20
60.5054
 30
0.000000
  70
    32
  0
VERTEX
  8
0
  5
321E
 10
182.497
 20
60.4395
 30
0.000000
  70
    32
  0
VERTEX
  8
0
  5
321F
 10
182.490
 20
60.3727
 30
0.000000
  70
    32
  0
VERTEX
  8
0
  5
3220
 10
182.483
 20
60.3049
 30
0.000000
  70
    32
  0
VERTEX
  8
0
  5
3221
 10
182.476
 20
60.2363
 30
0.000000
  70
    32
  0
VERTEX
  8
0
  5
3222
 10
182.469
 20
60.1667
 30
0.000000
  70
    32
  0
VERTEX
  8
0
  5
3223
 10
182.463
 20
60.0962
 30
0.000000
  70
    32
  0
VERTEX
  8
0
  5
3224
 10
182.456
 20
60.0248
 30
0.000000
  70
    32
  0
VERTEX
  8
0
  5
3225
 10
182.449
 20
59.9524
 30
0.000000
  70
    32
  0
VERTEX
  8
0
  5
3226
 10
182.442
 20
59.8792
 30
0.000000
  70
    32
  0
VERTEX
  8
0
  5
3227
 10
182.435
 20
59.8050
 30
0.000000
  70
    32
  0
VERTEX
  8
0
  5
3228
 10
182.428
 20
59.7299
 30
0.000000
  70
    32
  0
VERTEX
  8
0
  5
3229
 10
182.421
 20
59.6540
 30
0.000000
  70
    32
  0
VERTEX
  8
0
  5
322A
 10
182.414
 20
59.5770
 30
0.000000
  70
    32
  0
VERTEX
  8
0
  5
322B
 10
182.407
 20
59.4992
 30
0.000000
  70
    32
  0
VERTEX
  8
0
  5
322C
 10
182.400
 20
59.4205
 30
0.000000
  70
    32
  0
VERTEX
  8
0
  5
322D
 10
182.393
 20
59.3408
 30
0.000000
  70
    32
  0
VERTEX
  8
0
  5
322E
 10
182.386
 20
59.2603
 30
0.000000
  70
    32
  0
VERTEX
  8
0
  5
322F
 10
182.379
 20
59.1788
 30
0.000000
  70
    32
  0
VERTEX
  8
0
  5
3230
 10
182.372
 20
59.0964
 30
0.000000
  70
    32
  0
VERTEX
  8
0
  5
3231
 10
182.366
 20
59.0131
 30
0.000000
  70
    32
  0
VERTEX
  8
0
  5
3232
 10
182.359
 20
58.9289
 30
0.000000
  70
    32
  0
VERTEX
  8
0
  5
3233
 10
182.352
 20
58.8438
 30
0.000000
  70
    32
  0
VERTEX
  8
0
  5
3234
 10
182.345
 20
58.7577
 30
0.000000
  70
    32
  0
VERTEX
  8
0
  5
3235
 10
182.338
 20
58.6708
 30
0.000000
  70
    32
  0
VERTEX
  8
0
  5
3236
 10
182.331
 20
58.5829
 30
0.000000
  70
    32
  0
VERTEX
  8
0
  5
3237
 10
182.324
 20
58.4941
 30
0.000000
  70
    32
  0
VERTEX
  8
0
  5
3238
 10
182.317
 20
58.4044
 30
0.000000
  70
    32
  0
VERTEX
  8
0
  5
3239
 10
182.310
 20
58.3139
 30
0.000000
  70
    32
  0
VERTEX
  8
0
  5
323A
 10
182.303
 20
58.2223
 30
0.000000
  70
    32
  0
VERTEX
  8
0
  5
323B
 10
182.297
 20
58.1299
 30
0.000000
  70
    32
  0
VERTEX
  8
0
  5
323C
 10
182.290
 20
58.0366
 30
0.000000
  70
    32
  0
VERTEX
  8
0
  5
323D
 10
182.283
 20
57.9424
 30
0.000000
  70
    32
  0
VERTEX
  8
0
  5
323E
 10
182.276
 20
57.8472
 30
0.000000
  70
    32
  0
VERTEX
  8
0
  5
323F
 10
182.269
 20
57.7512
 30
0.000000
  70
    32
  0
VERTEX
  8
0
  5
3240
 10
182.262
 20
57.6542
 30
0.000000
  70
    32
  0
VERTEX
  8
0
  5
3241
 10
182.255
 20
57.5563
 30
0.000000
  70
    32
  0
VERTEX
  8
0
  5
3242
 10
182.248
 20
57.4575
 30
0.000000
  70
    32
  0
VERTEX
  8
0
  5
3243
 10
182.241
 20
57.3579
 30
0.000000
  70
    32
  0
VERTEX
  8
0
  5
3244
 10
182.235
 20
57.2573
 30
0.000000
  70
    32
  0
VERTEX
  8
0
  5
3245
 10
182.228
 20
57.1558
 30
0.000000
  70
    32
  0
VERTEX
  8
0
  5
3246
 10
182.221
 20
57.0533
 30
0.000000
  70
    32
  0
VERTEX
  8
0
  5
3247
 10
182.214
 20
56.9500
 30
0.000000
  70
    32
  0
VERTEX
  8
0
  5
3248
 10
182.207
 20
56.8458
 30
0.000000
  70
    32
  0
VERTEX
  8
0
  5
3249
 10
182.200
 20
56.7407
 30
0.000000
  70
    32
  0
VERTEX
  8
0
  5
324A
 10
182.193
 20
56.6346
 30
0.000000
  70
    32
  0
VERTEX
  8
0
  5
324B
 10
182.187
 20
56.5277
 30
0.000000
  70
    32
  0
VERTEX
  8
0
  5
324C
 10
182.180
 20
56.4199
 30
0.000000
  70
    32
  0
VERTEX
  8
0
  5
324D
 10
182.173
 20
56.3111
 30
0.000000
  70
    32
  0
VERTEX
  8
0
  5
324E
 10
182.166
 20
56.2015
 30
0.000000
  70
    32
  0
VERTEX
  8
0
  5
324F
 10
182.159
 20
56.0909
 30
0.000000
  70
    32
  0
VERTEX
  8
0
  5
3250
 10
182.152
 20
55.9794
 30
0.000000
  70
    32
  0
VERTEX
  8
0
  5
3251
 10
182.145
 20
55.8671
 30
0.000000
  70
    32
  0
VERTEX
  8
0
  5
3252
 10
182.139
 20
55.7538
 30
0.000000
  70
    32
  0
VERTEX
  8
0
  5
3253
 10
182.132
 20
55.6396
 30
0.000000
  70
    32
  0
VERTEX
  8
0
  5
3254
 10
182.125
 20
55.5246
 30
0.000000
  70
    32
  0
VERTEX
  8
0
  5
3255
 10
182.118
 20
55.4086
 30
0.000000
  70
    32
  0
VERTEX
  8
0
  5
3256
 10
182.111
 20
55.2917
 30
0.000000
  70
    32
  0
SEQEND
  8
0
  5
3257
  0
POLYLINE
  5
2A63
  8
0
 10
214.88870604390036
 20
55.29170275012919
 30
0.0
 66
     1
 70
     8
  0
VERTEX
  8
0
  5
3258
 10
214.889
 20
55.2917
 30
0.000000
  70
    32
  0
VERTEX
  8
0
  5
3259
 10
214.882
 20
55.4086
 30
0.000000
  70
    32
  0
VERTEX
  8
0
  5
325A
 10
214.875
 20
55.5246
 30
0.000000
  70
    32
  0
VERTEX
  8
0
  5
325B
 10
214.868
 20
55.6396
 30
0.000000
  70
    32
  0
VERTEX
  8
0
  5
325C
 10
214.861
 20
55.7538
 30
0.000000
  70
    32
  0
VERTEX
  8
0
  5
325D
 10
214.855
 20
55.8671
 30
0.000000
  70
    32
  0
VERTEX
  8
0
  5
325E
 10
214.848
 20
55.9794
 30
0.000000
  70
    32
  0
VERTEX
  8
0
  5
325F
 10
214.841
 20
56.0909
 30
0.000000
  70
    32
  0
VERTEX
  8
0
  5
3260
 10
214.834
 20
56.2015
 30
0.000000
  70
    32
  0
VERTEX
  8
0
  5
3261
 10
214.827
 20
56.3111
 30
0.000000
  70
    32
  0
VERTEX
  8
0
  5
3262
 10
214.820
 20
56.4199
 30
0.000000
  70
    32
  0
VERTEX
  8
0
  5
3263
 10
214.813
 20
56.5277
 30
0.000000
  70
    32
  0
VERTEX
  8
0
  5
3264
 10
214.807
 20
56.6346
 30
0.000000
  70
    32
  0
VERTEX
  8
0
  5
3265
 10
214.800
 20
56.7407
 30
0.000000
  70
    32
  0
VERTEX
  8
0
  5
3266
 10
214.793
 20
56.8458
 30
0.000000
  70
    32
  0
VERTEX
  8
0
  5
3267
 10
214.786
 20
56.9500
 30
0.000000
  70
    32
  0
VERTEX
  8
0
  5
3268
 10
214.779
 20
57.0533
 30
0.000000
  70
    32
  0
VERTEX
  8
0
  5
3269
 10
214.772
 20
57.1558
 30
0.000000
  70
    32
  0
VERTEX
  8
0
  5
326A
 10
214.765
 20
57.2573
 30
0.000000
  70
    32
  0
VERTEX
  8
0
  5
326B
 10
214.759
 20
57.3579
 30
0.000000
  70
    32
  0
VERTEX
  8
0
  5
326C
 10
214.752
 20
57.4575
 30
0.000000
  70
    32
  0
VERTEX
  8
0
  5
326D
 10
214.745
 20
57.5563
 30
0.000000
  70
    32
  0
VERTEX
  8
0
  5
326E
 10
214.738
 20
57.6542
 30
0.000000
  70
    32
  0
VERTEX
  8
0
  5
326F
 10
214.731
 20
57.7512
 30
0.000000
  70
    32
  0
VERTEX
  8
0
  5
3270
 10
214.724
 20
57.8472
 30
0.000000
  70
    32
  0
VERTEX
  8
0
  5
3271
 10
214.717
 20
57.9424
 30
0.000000
  70
    32
  0
VERTEX
  8
0
  5
3272
 10
214.710
 20
58.0366
 30
0.000000
  70
    32
  0
VERTEX
  8
0
  5
3273
 10
214.703
 20
58.1299
 30
0.000000
  70
    32
  0
VERTEX
  8
0
  5
3274
 10
214.697
 20
58.2223
 30
0.000000
  70
    32
  0
VERTEX
  8
0
  5
3275
 10
214.690
 20
58.3139
 30
0.000000
  70
    32
  0
VERTEX
  8
0
  5
3276
 10
214.683
 20
58.4044
 30
0.000000
  70
    32
  0
VERTEX
  8
0
  5
3277
 10
214.676
 20
58.4941
 30
0.000000
  70
    32
  0
VERTEX
  8
0
  5
3278
 10
214.669
 20
58.5829
 30
0.000000
  70
    32
  0
VERTEX
  8
0
  5
3279
 10
214.662
 20
58.6708
 30
0.000000
  70
    32
  0
VERTEX
  8
0
  5
327A
 10
214.655
 20
58.7577
 30
0.000000
  70
    32
  0
VERTEX
  8
0
  5
327B
 10
214.648
 20
58.8438
 30
0.000000
  70
    32
  0
VERTEX
  8
0
  5
327C
 10
214.641
 20
58.9289
 30
0.000000
  70
    32
  0
VERTEX
  8
0
  5
327D
 10
214.634
 20
59.0131
 30
0.000000
  70
    32
  0
VERTEX
  8
0
  5
327E
 10
214.628
 20
59.0964
 30
0.000000
  70
    32
  0
VERTEX
  8
0
  5
327F
 10
214.621
 20
59.1788
 30
0.000000
  70
    32
  0
VERTEX
  8
0
  5
3280
 10
214.614
 20
59.2603
 30
0.000000
  70
    32
  0
VERTEX
  8
0
  5
3281
 10
214.607
 20
59.3408
 30
0.000000
  70
    32
  0
VERTEX
  8
0
  5
3282
 10
214.600
 20
59.4205
 30
0.000000
  70
    32
  0
VERTEX
  8
0
  5
3283
 10
214.593
 20
59.4992
 30
0.000000
  70
    32
  0
VERTEX
  8
0
  5
3284
 10
214.586
 20
59.5770
 30
0.000000
  70
    32
  0
VERTEX
  8
0
  5
3285
 10
214.579
 20
59.6540
 30
0.000000
  70
    32
  0
VERTEX
  8
0
  5
3286
 10
214.572
 20
59.7299
 30
0.000000
  70
    32
  0
VERTEX
  8
0
  5
3287
 10
214.565
 20
59.8050
 30
0.000000
  70
    32
  0
VERTEX
  8
0
  5
3288
 10
214.558
 20
59.8792
 30
0.000000
  70
    32
  0
VERTEX
  8
0
  5
3289
 10
214.551
 20
59.9524
 30
0.000000
  70
    32
  0
VERTEX
  8
0
  5
328A
 10
214.544
 20
60.0248
 30
0.000000
  70
    32
  0
VERTEX
  8
0
  5
328B
 10
214.537
 20
60.0962
 30
0.000000
  70
    32
  0
VERTEX
  8
0
  5
328C
 10
214.531
 20
60.1667
 30
0.000000
  70
    32
  0
VERTEX
  8
0
  5
328D
 10
214.524
 20
60.2363
 30
0.000000
  70
    32
  0
VERTEX
  8
0
  5
328E
 10
214.517
 20
60.3049
 30
0.000000
  70
    32
  0
VERTEX
  8
0
  5
328F
 10
214.510
 20
60.3727
 30
0.000000
  70
    32
  0
VERTEX
  8
0
  5
3290
 10
214.503
 20
60.4395
 30
0.000000
  70
    32
  0
VERTEX
  8
0
  5
3291
 10
214.496
 20
60.5054
 30
0.000000
  70
    32
  0
VERTEX
  8
0
  5
3292
 10
214.489
 20
60.5704
 30
0.000000
  70
    32
  0
VERTEX
  8
0
  5
3293
 10
214.482
 20
60.6345
 30
0.000000
  70
    32
  0
VERTEX
  8
0
  5
3294
 10
214.475
 20
60.6977
 30
0.000000
  70
    32
  0
VERTEX
  8
0
  5
3295
 10
214.468
 20
60.7599
 30
0.000000
  70
    32
  0
VERTEX
  8
0
  5
3296
 10
214.461
 20
60.8213
 30
0.000000
  70
    32
  0
VERTEX
  8
0
  5
3297
 10
214.454
 20
60.8817
 30
0.000000
  70
    32
  0
VERTEX
  8
0
  5
3298
 10
214.447
 20
60.9412
 30
0.000000
  70
    32
  0
VERTEX
  8
0
  5
3299
 10
214.440
 20
60.9997
 30
0.000000
  70
    32
  0
VERTEX
  8
0
  5
329A
 10
214.433
 20
61.0574
 30
0.000000
  70
    32
  0
VERTEX
  8
0
  5
329B
 10
214.426
 20
61.1141
 30
0.000000
  70
    32
  0
VERTEX
  8
0
  5
329C
 10
214.419
 20
61.1700
 30
0.000000
  70
    32
  0
VERTEX
  8
0
  5
329D
 10
214.412
 20
61.2249
 30
0.000000
  70
    32
  0
VERTEX
  8
0
  5
329E
 10
214.405
 20
61.2788
 30
0.000000
  70
    32
  0
VERTEX
  8
0
  5
329F
 10
214.398
 20
61.3319
 30
0.000000
  70
    32
  0
VERTEX
  8
0
  5
32A0
 10
214.391
 20
61.3840
 30
0.000000
  70
    32
  0
VERTEX
  8
0
  5
32A1
 10
214.384
 20
61.4353
 30
0.000000
  70
    32
  0
VERTEX
  8
0
  5
32A2
 10
214.378
 20
61.4855
 30
0.000000
  70
    32
  0
VERTEX
  8
0
  5
32A3
 10
214.371
 20
61.5349
 30
0.000000
  70
    32
  0
VERTEX
  8
0
  5
32A4
 10
214.364
 20
61.5834
 30
0.000000
  70
    32
  0
VERTEX
  8
0
  5
32A5
 10
214.357
 20
61.6309
 30
0.000000
  70
    32
  0
VERTEX
  8
0
  5
32A6
 10
214.350
 20
61.6775
 30
0.000000
  70
    32
  0
VERTEX
  8
0
  5
32A7
 10
214.343
 20
61.7232
 30
0.000000
  70
    32
  0
VERTEX
  8
0
  5
32A8
 10
214.336
 20
61.7680
 30
0.000000
  70
    32
  0
VERTEX
  8
0
  5
32A9
 10
214.329
 20
61.8119
 30
0.000000
  70
    32
  0
VERTEX
  8
0
  5
32AA
 10
214.322
 20
61.8548
 30
0.000000
  70
    32
  0
VERTEX
  8
0
  5
32AB
 10
214.315
 20
61.8968
 30
0.000000
  70
    32
  0
VERTEX
  8
0
  5
32AC
 10
214.308
 20
61.9379
 30
0.000000
  70
    32
  0
VERTEX
  8
0
  5
32AD
 10
214.301
 20
61.9781
 30
0.000000
  70
    32
  0
VERTEX
  8
0
  5
32AE
 10
214.294
 20
62.0173
 30
0.000000
  70
    32
  0
VERTEX
  8
0
  5
32AF
 10
214.287
 20
62.0557
 30
0.000000
  70
    32
  0
VERTEX
  8
0
  5
32B0
 10
214.280
 20
62.0931
 30
0.000000
  70
    32
  0
VERTEX
  8
0
  5
32B1
 10
214.273
 20
62.1295
 30
0.000000
  70
    32
  0
VERTEX
  8
0
  5
32B2
 10
214.266
 20
62.1651
 30
0.000000
  70
    32
  0
VERTEX
  8
0
  5
32B3
 10
214.259
 20
62.1997
 30
0.000000
  70
    32
  0
VERTEX
  8
0
  5
32B4
 10
214.252
 20
62.2335
 30
0.000000
  70
    32
  0
VERTEX
  8
0
  5
32B5
 10
214.245
 20
62.2662
 30
0.000000
  70
    32
  0
VERTEX
  8
0
  5
32B6
 10
214.238
 20
62.2981
 30
0.000000
  70
    32
  0
VERTEX
  8
0
  5
32B7
 10
214.231
 20
62.3291
 30
0.000000
  70
    32
  0
VERTEX
  8
0
  5
32B8
 10
214.224
 20
62.3591
 30
0.000000
  70
    32
  0
VERTEX
  8
0
  5
32B9
 10
214.217
 20
62.3882
 30
0.000000
  70
    32
  0
VERTEX
  8
0
  5
32BA
 10
214.210
 20
62.4164
 30
0.000000
  70
    32
  0
VERTEX
  8
0
  5
32BB
 10
214.203
 20
62.4436
 30
0.000000
  70
    32
  0
VERTEX
  8
0
  5
32BC
 10
214.196
 20
62.4700
 30
0.000000
  70
    32
  0
VERTEX
  8
0
  5
32BD
 10
214.189
 20
62.4954
 30
0.000000
  70
    32
  0
VERTEX
  8
0
  5
32BE
 10
214.182
 20
62.5199
 30
0.000000
  70
    32
  0
VERTEX
  8
0
  5
32BF
 10
214.175
 20
62.5434
 30
0.000000
  70
    32
  0
VERTEX
  8
0
  5
32C0
 10
214.168
 20
62.5661
 30
0.000000
  70
    32
  0
VERTEX
  8
0
  5
32C1
 10
214.161
 20
62.5878
 30
0.000000
  70
    32
  0
VERTEX
  8
0
  5
32C2
 10
214.154
 20
62.6086
 30
0.000000
  70
    32
  0
VERTEX
  8
0
  5
32C3
 10
214.147
 20
62.6284
 30
0.000000
  70
    32
  0
VERTEX
  8
0
  5
32C4
 10
214.140
 20
62.6474
 30
0.000000
  70
    32
  0
VERTEX
  8
0
  5
32C5
 10
214.133
 20
62.6654
 30
0.000000
  70
    32
  0
VERTEX
  8
0
  5
32C6
 10
214.126
 20
62.6825
 30
0.000000
  70
    32
  0
VERTEX
  8
0
  5
32C7
 10
214.119
 20
62.6987
 30
0.000000
  70
    32
  0
VERTEX
  8
0
  5
32C8
 10
214.112
 20
62.7139
 30
0.000000
  70
    32
  0
VERTEX
  8
0
  5
32C9
 10
214.105
 20
62.7282
 30
0.000000
  70
    32
  0
VERTEX
  8
0
  5
32CA
 10
214.098
 20
62.7416
 30
0.000000
  70
    32
  0
VERTEX
  8
0
  5
32CB
 10
214.091
 20
62.7541
 30
0.000000
  70
    32
  0
VERTEX
  8
0
  5
32CC
 10
214.084
 20
62.7657
 30
0.000000
  70
    32
  0
VERTEX
  8
0
  5
32CD
 10
214.077
 20
62.7763
 30
0.000000
  70
    32
  0
VERTEX
  8
0
  5
32CE
 10
214.070
 20
62.7860
 30
0.000000
  70
    32
  0
VERTEX
  8
0
  5
32CF
 10
214.063
 20
62.7948
 30
0.000000
  70
    32
  0
VERTEX
  8
0
  5
32D0
 10
214.056
 20
62.8026
 30
0.000000
  70
    32
  0
VERTEX
  8
0
  5
32D1
 10
214.049
 20
62.8096
 30
0.000000
  70
    32
  0
VERTEX
  8
0
  5
32D2
 10
214.042
 20
62.8156
 30
0.000000
  70
    32
  0
VERTEX
  8
0
  5
32D3
 10
214.035
 20
62.8207
 30
0.000000
  70
    32
  0
VERTEX
  8
0
  5
32D4
 10
214.028
 20
62.8248
 30
0.000000
  70
    32
  0
VERTEX
  8
0
  5
32D5
 10
214.021
 20
62.8281
 30
0.000000
  70
    32
  0
VERTEX
  8
0
  5
32D6
 10
214.014
 20
62.8304
 30
0.000000
  70
    32
  0
VERTEX
  8
0
  5
32D7
 10
214.007
 20
62.8318
 30
0.000000
  70
    32
  0
VERTEX
  8
0
  5
32D8
 10
214.000
 20
62.8322
 30
0.000000
  70
    32
  0
SEQEND
  8
0
  5
32D9
  0
LINE
  5
2A68
  8
0
 10
183.0000000023999
 20
70.700383557919281
 30
0.0
 11
183.0000000023999
 21
62.832226058334072
 31
0.0
  0
LINE
  5
2A6A
  8
0
 10
214.00000000239979
 20
62.83222605830985
 30
0.0
 11
214.00000000239979
 21
70.700383557919281
 31
0.0
  0
LINE
  5
2AFF
  8
1
 10
89.499999999949978
 20
268.9999999999626
 30
0.0
 11
89.499999999949949
 21
220.0
 31
0.0
  0
LINE
  5
2B00
  8
1
 10
198.50000000237549
 20
45.0
 30
0.0
 11
198.50000000237549
 21
180.0
 31
0.0
  0
LINE
  5
2B01
  8
1
 10
134.0000000036375
 20
244.5
 30
0.0
 11
45.000000006237492
 21
244.5
 31
0.0
  0
LINE
  5
2B0A
  8
1
 10
89.499999999949978
 20
180.0
 30
0.0
 11
89.499999999949978
 21
45.0
 31
0.0
  0
LINE
  5
2BD0
  8
0
 10
100.0499999978326
 20
94.39378221725633
 30
0.0
 11
98.999999997668255
 21
95.0
 31
0.0
  0
LINE
  5
2BD1
  8
0
 10
78.949999997503639
 20
84.806217782549993
 30
0.0
 11
79.999999997549125
 21
84.19999999987499
 31
0.0
  0
LINE
  5
2BD2
  8
0
 10
79.999999997549125
 20
95.0
 30
0.0
 11
78.949999997528465
 21
94.393782217339322
 31
0.0
  0
LINE
  5
2BD3
  8
0
 10
98.999999997668255
 20
84.19999999987499
 30
0.0
 11
100.0499999977138
 21
84.806217782549993
 31
0.0
  0
LINE
  5
2BD4
  8
0
 10
78.949999997608742
 20
94.393782217339322
 30
0.0
 11
78.949999997608742
 21
84.806217782549993
 31
0.0
  0
LINE
  5
2BD5
  8
0
 10
100.04999999760869
 20
84.806217782549993
 30
0.0
 11
100.04999999760869
 21
94.39378221725633
 31
0.0
  0
ARC
  5
2BD6
  8
0
 10
97.845742023350155
 20
89.907488751496203
 30
0.0
 40
5.0938897936428544
 50
91.333009196237086
 51
118.2705934786473
  0
LINE
  5
2BD7
  8
0
 10
95.433091164168346
 20
94.393782217317153
 30
0.0
 11
94.088300336514152
 21
94.393782217320904
 31
0.0
  0
ARC
  5
2BD8
  8
0
 10
89.362612847750398
 20
76.293235154143758
 30
0.0
 40
18.707269341829459
 50
75.367847695374792
 51
89.579213060748785
  0
LINE
  5
2BD9
  8
0
 10
83.566908831041417
 20
84.806217782519752
 30
0.0
 11
84.911699658703284
 21
84.806217782519752
 31
0.0
  0
POLYLINE
  5
2BDA
  8
0
 66
     1
 10
0.0
 20
0.0
 30
0.0
 70
   128
  0
VERTEX
  5
2CAE
  8
0
 10
89.499999997608697
 20
84.199999999845659
 30
0.0
  0
VERTEX
  5
2CAF
  8
0
 10
87.205849828145958
 20
84.357663765824213
 30
0.0
  0
VERTEX
  5
2CB0
  8
0
 10
84.911699658683162
 20
84.806217782494414
 30
0.0
  0
SEQEND
  5
2CB1
  8
0
  0
ARC
  5
2BDB
  8
0
 10
81.152544905145646
 20
89.298994120664247
 30
0.0
 40
5.100411002189789
 50
271.35055366143371
 51
298.25304901176781
  0
ARC
  5
2BDC
  8
0
 10
89.635429357061838
 20
76.308053146345401
 30
0.0
 40
18.692437462564691
 50
90.415119677229015
 51
104.6378195666924
  0
LINE
  5
2BDD
  8
0
 10
84.911699658687994
 20
94.393782217317153
 30
0.0
 11
83.566908831041417
 21
94.393782217320904
 31
0.0
  0
ARC
  5
2BDE
  8
0
 10
81.152544905259376
 20
89.901005879895251
 30
0.0
 40
5.1004110015026942
 50
61.746950985535769
 51
88.649446339662575
  0
LINE
  5
2BDF
  8
0
 10
94.088300336514152
 20
84.806217782519752
 30
0.0
 11
95.433091164176034
 21
84.806217782519752
 31
0.0
  0
POLYLINE
  5
2BE0
  8
0
 66
     1
 10
0.0
 20
0.0
 30
0.0
 70
   128
  0
VERTEX
  5
2CB2
  8
0
 10
97.727241333590229
 20
84.199999999845659
 30
0.0
  0
VERTEX
  5
2CB3
  8
0
 10
96.580166248881895
 20
84.357663765824213
 30
0.0
  0
VERTEX
  5
2CB4
  8
0
 10
95.433091164165972
 20
84.806217782494414
 30
0.0
  0
SEQEND
  5
2CB5
  8
0
  0
ARC
  5
2BE1
  8
0
 10
89.362612847525014
 20
102.90676484846129
 30
0.0
 40
18.707269344561109
 50
270.4207869398814
 51
284.63215230315552
  0
LINE
  5
2BE2
  8
0
 10
95.433091164168346
 20
94.393782217317153
 30
0.0
 11
95.433091164176034
 21
84.806217782519752
 31
0.0
  0
LINE
  5
2BE3
  8
0
 10
94.088300336514152
 20
84.806217782519752
 30
0.0
 11
94.088300336514152
 21
94.393782217320904
 31
0.0
  0
LINE
  5
2BE4
  8
0
 10
84.911699658687994
 20
94.393782217317153
 30
0.0
 11
84.911699658703284
 21
84.806217782519752
 31
0.0
  0
LINE
  5
2BE5
  8
0
 10
83.566908831041417
 20
84.806217782519752
 30
0.0
 11
83.566908831041417
 21
94.393782217320904
 31
0.0
  0
ARC
  5
2BE6
  8
0
 10
97.607027577229672
 20
89.901005879875015
 30
0.0
 40
5.1004110015243169
 50
61.746950985563487
 51
88.64944633899961
  0
LINE
  5
2BE7
  8
0
 10
100.0213915030196
 20
84.806217782519624
 30
0.0
 11
100.0213915030196
 21
94.393782217320904
 31
0.0
  0
ARC
  5
2BE8
  8
0
 10
97.607027577115929
 20
89.298994120684597
 30
0.0
 40
5.1004110022114872
 50
271.35055366209662
 51
298.25304901173928
  0
POLYLINE
  5
2BE9
  8
0
 66
     1
 10
0.0
 20
0.0
 30
0.0
 70
   128
  0
VERTEX
  5
2CB6
  8
0
 10
81.272758661627208
 20
84.199999999845659
 30
0.0
  0
VERTEX
  5
2CB7
  8
0
 10
80.125683576903654
 20
84.357663765824213
 30
0.0
  0
VERTEX
  5
2CB8
  8
0
 10
78.978608492187774
 20
84.806217782494414
 30
0.0
  0
SEQEND
  5
2CB9
  8
0
  0
LINE
  5
2BEA
  8
0
 10
78.978608492151679
 20
94.393782217339322
 30
0.0
 11
78.978608492197779
 21
84.806217782519624
 31
0.0
  0
ARC
  5
2BEB
  8
0
 10
81.39125935151678
 20
89.907488750640823
 30
0.0
 40
5.0938897945025099
 50
91.333009198222697
 51
118.2705934757869
  0
LINE
  5
2BEC
  8
0
 10
100.0499999976154
 20
94.393782217317039
 30
0.0
 11
100.0213915030196
 21
94.393782217320904
 31
0.0
  0
LINE
  5
2BED
  8
0
 10
98.999999997638469
 20
95.000000000014893
 30
0.0
 11
79.999999997633751
 21
95.000000000048828
 31
0.0
  0
LINE
  5
2BEE
  8
0
 10
78.949999997608742
 20
84.806217782519752
 30
0.0
 11
78.978608492197779
 21
84.806217782519624
 31
0.0
  0
LINE
  5
2BEF
  8
0
 10
78.949999997568653
 20
94.393782217362386
 30
0.0
 11
78.978608492151679
 21
94.393782217339322
 31
0.0
  0
LINE
  5
2BF0
  8
0
 10
100.0213915030196
 20
84.806217782519624
 30
0.0
 11
100.04999999760869
 21
84.806217782519752
 31
0.0
  0
LINE
  5
2BF1
  8
0
 10
197.72358465382541
 20
84.806217782519624
 30
0.0
 11
199.276415346292
 21
84.806217782519624
 31
0.0
  0
POLYLINE
  5
2BF2
  8
0
 66
     1
 10
0.0
 20
0.0
 30
0.0
 70
   128
  0
VERTEX
  5
2CBA
  8
0
 10
203.24999999999039
 20
84.199999999845659
 30
0.0
  0
VERTEX
  5
2CBB
  8
0
 10
201.2632076731347
 20
84.357663765824213
 30
0.0
  0
VERTEX
  5
2CBC
  8
0
 10
199.2764153462746
 20
84.806217782494414
 30
0.0
  0
SEQEND
  5
2CBD
  8
0
  0
ARC
  5
2BF3
  8
0
 10
193.62110417445771
 20
98.370841272688935
 30
0.0
 40
14.171427469159379
 50
270.52113935967083
 51
286.82739994368478
  0
ARC
  5
2BF4
  8
0
 10
203.37705903788569
 20
80.841198347882596
 30
0.0
 40
14.159371745353219
 50
90.514150235970988
 51
106.8343890683992
  0
LINE
  5
2BF5
  8
0
 10
199.2764153462787
 20
94.393782217299986
 30
0.0
 11
197.72358465382541
 21
94.393782217303738
 31
0.0
  0
ARC
  5
2BF6
  8
0
 10
193.6211041746526
 20
80.829158729213745
 30
0.0
 40
14.171427467112769
 50
73.172600054635154
 51
89.478860641042445
  0
LINE
  5
2BF7
  8
0
 10
199.2764153462787
 20
94.393782217299986
 30
0.0
 11
199.276415346292
 21
84.806217782519624
 31
0.0
  0
LINE
  5
2BF8
  8
0
 10
197.72358465382541
 20
84.806217782519624
 30
0.0
 11
197.72358465382541
 21
94.393782217303738
 31
0.0
  0
ARC
  5
2BF9
  8
0
 10
203.12110417452161
 20
80.829158729200913
 30
0.0
 40
14.17142746712587
 50
73.172600054639418
 51
89.478860640912174
  0
LINE
  5
2BFA
  8
0
 10
207.22358465369749
 20
84.806217782519624
 30
0.0
 11
207.22358465369749
 21
94.393782217303738
 31
0.0
  0
ARC
  5
2BFB
  8
0
 10
203.12110417432669
 20
98.370841272703046
 30
0.0
 40
14.1714274691738
 50
270.52113935980282
 51
286.82739994368012
  0
POLYLINE
  5
2BFC
  8
0
 66
     1
 10
0.0
 20
0.0
 30
0.0
 70
   128
  0
VERTEX
  5
2CBE
  8
0
 10
193.75000000012719
 20
84.199999999845659
 30
0.0
  0
VERTEX
  5
2CBF
  8
0
 10
191.7632076732626
 20
84.357663765824213
 30
0.0
  0
VERTEX
  5
2CC0
  8
0
 10
189.77641534640259
 20
84.806217782494414
 30
0.0
  0
SEQEND
  5
2CC1
  8
0
  0
LINE
  5
2BFD
  8
0
 10
189.77641534640679
 20
94.393782217299986
 30
0.0
 11
189.77641534642001
 21
84.806217782519624
 31
0.0
  0
ARC
  5
2BFE
  8
0
 10
193.87705903801651
 20
80.841198347870773
 30
0.0
 40
14.15937174536541
 50
90.514150236102907
 51
106.83438906839621
  0
LINE
  5
2BFF
  8
0
 10
207.22358465369749
 20
84.806217782519624
 30
0.0
 11
208.0000000000588
 21
84.806217782519624
 31
0.0
  0
LINE
  5
2C00
  8
0
 10
208.0000000000588
 20
94.393782217299986
 30
0.0
 11
207.22358465369749
 21
94.393782217303738
 31
0.0
  0
LINE
  5
2C01
  8
0
 10
208.00000000008859
 20
95.0
 30
0.0
 11
207.9999999997446
 21
84.19999999995008
 31
0.0
  0
LINE
  5
2C02
  8
0
 10
208.00000000008859
 20
95.0
 30
0.0
 11
189.00000000002899
 21
95.0
 31
0.0
  0
LINE
  5
2C03
  8
0
 10
189.00000000005869
 20
84.806217782519624
 30
0.0
 11
189.77641534642001
 21
84.806217782519624
 31
0.0
  0
LINE
  5
2C04
  8
0
 10
189.77641534640679
 20
94.393782217299986
 30
0.0
 11
189.00000000005869
 21
94.393782217303738
 31
0.0
  0
LINE
  5
2C05
  8
0
 10
189.0000000003723
 20
84.19999999995008
 30
0.0
 11
189.00000000002899
 21
95.0
 31
0.0
  0
LINE
  5
2C07
  8
0
 10
98.999999997668255
 20
84.19999999987499
 30
0.0
 11
79.999999997663537
 21
84.199999999908925
 31
0.0
  0
LINE
  5
2C08
  8
0
 10
208.00000000011829
 20
84.199999999860097
 30
0.0
 11
189.0000000000588
 21
84.199999999860097
 31
0.0
  0
CIRCLE
  5
2C0A
  8
0
 10
89.499999999949964
 20
244.4999999999813
 30
0.0
 40
9.5
  0
ENDSEC
  0
EOF
